Oops, an error
Loading. Please wait.

Bangon Tab

3,131 views 1 this week
no commentswrite comment
1 2 3 4 5
please rate
Autoscroll
+/-
esc
set tempo
stop
Contributor
Tabbers playing skills
advanced +
WARNING: You are trying to view
                                    content from Ultimate-Guitar.com
                                    in an unauthorized application,
                                    which is prohibited.

                                    Please use an official Ultimate
                                    Guitar Tabs application for iPhone,
                                    iPad or Android to access legitimate
                                    chords, guitar, bass, and drum tabs
                                    from Ultimate-Guitar.com database.

                                    Type "ultimate guitar tabs" in Apple
                                    App Store's or Android Market's
                                    search to find the application.
Countless Filipinos have heroically gone out of their way to help our brothers and
in this time of need. This is just my humble contribution as a singer and musician. I hope,
my own little way, I can help raise additional funds for our countrymen affected by the 
and perhaps give a little boost to their morale to help them get back on their
again.

I am offering a completely new song, 'Bangon' as a free download here -

http://www.ricoblanco.com.ph/bangon

Hopefully it will also raise some badly needed funds through your donations. Suggestions
how you can help are also on the site posted above.

Thank you for your kindness. God bless. Mabuhay ang Pilipinas!

RB

ps. I'd like to thank my friends who swiftly volunteered their services, free of charge,
help me make this song come to life - drummer Robert Dela Cruz, bassist Berns
Francis Sario, Blue Light studios, Angee Rozul, Tracks studios.
                                                           -Rico Blanco

Chords and Tabs by Francis
f_sario@yahoo.com
09283150081

Intro:
Hoh!WhOah..Ohoh..
Em C G D 2x
GtrII
|---------------------------------|----------------------------------|
|---------------------------------|----------------------------------|
|---------5-5-5-5---------7-7-7-7-|---------5-5-5-5---------7-7-7-7--|
|-2-2-2-2-5-5-5-5-5-5-5-5-7-7-7-7-|-2-2-2-2-5-5-5-5-5-5-5-5-7-7-7-7--|
|-2-2-2-2-3-3-3-3-5-5-5-5-5-5-5-5-|-2-2-2-2-3-3-3-3-5-5-5-5-5-5-5-5--|
|-0-0-0-0---------3-3-3-3---------|-0-0-0-0---------3-3-3-3----------|


Verse:
Em      C     G  D
pinaluhod tayo,
Em      C     G  D
sa isang hagupit
Em      C G       D
niragasa, sinalanta,
Am   C
pinaluha

Verse2:
Em      C      G  D
humupa ang unos,
Em      C     G  D
isang bahaghari!
Em         C          G  D
dala ng bukang liwayway-
Am
pag-ibig
C
pagkakaisa

GtrII
|--------0-----|--------0----|--------0-----|---------------|--------8-----|
|-----0--------|-----0-------|-----0--------|--------5------|------8---8---|
|--5-----------|--5----------|--5-----------|------5---5----|----9-------9-|
|--------------|-------------|--------------|-7--7-------7--|-10-----------|
|--------------|-------------|--------------|-7-------------|-10-----------|
|--------------|-------------|--------------|-5-------------|-8------------|

Chorus-
Em   C
BANGON
    G           D
pilipinas kong mahal
Em             C       G           D
akay ang pananampalataya sa may kapal
Em  C
AHON
   G             D
buhay sa yong dugo
     Em        C             G        D
ang tibay na tatak ng tunay na Pilipino

GtrII
|---------------------------------|----------------------------------|
|---------------------------------|----------------------------------|
|---------5-5-5-5---------7-7-7-7-|---------5-5-5-5---------7-7-7-7--|
|-2-2-2-2-5-5-5-5-5-5-5-5-7-7-7-7-|-2-2-2-2-5-5-5-5-5-5-5-5-7-7-7-7--|4x
|-2-2-2-2-3-3-3-3-5-5-5-5-5-5-5-5-|-2-2-2-2-3-3-3-3-5-5-5-5-5-5-5-5--|
|-0-0-0-0---------3-3-3-3---------|-0-0-0-0---------3-3-3-3----------|


Do Intro-

Verse3:
Em
at nagising ang bayanihan
Em            G
milyon milyon naging isa
Em
walang kami
walang kayo
walang sila
G
tanging ligaya
       Am                 C  G5-F#5
ay pag alay ng sarili sa iba

GtrII
|------------------------------------|-------------------------------------|
|----------------13131313-121212-----|-------------------------------------|
|-9-9-9-9-9-9-9-9---------------1212-|-9-9-9-9-9-9-9-14141414-161616--1212-|
|------------------------------------|-------------------------------------|
|------------------------------------|-------------------------------------|
|------------------------------------|-------------------------------------|

|------------------------------------|----------------15151515-------------|
|----------------13131313-121212-----|-14141414141414---------131313-------|
|-9-9-9-9-9-9-9-9---------------1212-|-14141414141414----------------------|
|------------------------------------|-------------------------------------|
|------------------------------------|-------------------------------5-4~--|
|------------------------------------|-------------------------------3-2~--|


Do Chorus-

Bridge:
C         Am     G
hindi ka namin iiwan
         D
hindi tayo susuko!
C         Am               G
lulusong tayo't magtatagumpay
           B
magtatagumpay!
GtrII
|-8~----------------8------7---------|----10--------------10---------------|
|----------------8-------------8-----|-----------10----12------------------|
|---9~--------9----------------------|--------11---------------------------|
|---------10-------------------------|-------------------------------------|
|------------------------------------|-------------------------------------|
|------------------------------------|-------------------------------------|

|-8~----------------8------7---------|--7-----7---7--10-11--11--11--11-----|
|----------------8-------------8-----|----------8---------12------12-------|
|---9~--------9----------------------|------7-----------------11-----------|
|---------10-------------------------|-------------------------------------|
|------------------------------------|-------------------------------------|
|------------------------------------|-------------------------------------|


Solo- Em C G D C Am
GtrII(2:56)
|-5+~--|-----------------------------------------------------------|
|-5+~--|--10-------------------------------------------------------|
|-5+~--|--12^(14)^12^12^12^12^12^12^12^12^12^12^12^12^12^12^-(2x)--|
|------|-----------------------------------------------------------|
|------|-----------------------------------------------------------|
|------|-----------------------------------------------------------|

|------------------------------------------------------------------|
|-10h12-10h12-10h12-10h12--12^(13)~---13-12------------------------|
|-------------------------------------------12---------------------|
|----------------------------------------------12/14~--------------|
|------------------------------------------------------------------|
|------------------------------------------------------------------|

|-12---------------------------------------------------------------|
|-15^(17)-15^15^15^15^15^15^15^s-----------------------------------|
|------------------------------------------------------------------|
|------------------------------------------------------------------|
|------------------------------------------------------------------|
|------------------------------------------------------------------|


GtrIB(3:00)
|------------------------------------|
|--10--------------------------------|
|--14^(16)^12^12^12^12^12^12^12^12^--|
|------------------------------------|
|------------------------------------|
|------------------------------------|

|------------------------------------------------------------------|
|-12h15-12h15-12h15-12h15--15^(17)~---17-15------------------------|
|-------------------------------------------16---------------------|
|----------------------------------------------12/14~--------------|
|------------------------------------------------------------------|
|------------------------------------------------------------------|

|-15---------------------------------------------------------------|
|-18^(20)-18^18^18^18^18^18^18^\-----------------------------------|
|------------------------------------------------------------------|
|------------------------------------------------------------------|
|------------------------------------------------------------------|
|------------------------------------------------------------------|


Do Chorus-
GtrII

|---------------------------------|----------------------------------|
|---------------------------------|----------------------------------|
|---------5-5-5-5---------7-7-7-7-|---------5-5-5-5---------7-7------|
|-2-2-2-2-5-5-5-5-5-5-5-5-7-7-7-7-|-2-2-2-2-5-5-5-5-5-5-5-5-7-7------|
|-2-2-2-2-3-3-3-3-5-5-5-5-5-5-5-5-|-2-2-2-2-3-3-3-3-5-5-5-5-5-5-5-4~-|
|-0-0-0-0---------3-3-3-3---------|-0-0-0-0---------3-3-3-3-----3-2~-|

|---------------------------------|----------------------------------|
|---------------------------------|----------------------------------|
|---------5-5-5-5---------7-7-7-7-|---------5-5-5-5---------7-7-7-7--|
|-2-2-2-2-5-5-5-5-5-5-5-5-7-7-7-7-|-2-2-2-2-5-5-5-5-5-5-5-5-7-7-7-7--|
|-2-2-2-2-3-3-3-3-5-5-5-5-5-5-5-5-|-2-2-2-2-3-3-3-3-5-5-5-5-5-5-5-5--|
|-0-0-0-0---------3-3-3-3---------|-0-0-0-0---------3-3-3-3----------|

DO Intro-

Coda:
Em      C             G  D
lahat nitong mga pagsubok
Em      C             G  D
ay ating kayang lagpasan
Em      C            G  D
lahat nitong mga pagsubok
Em        C        G  B      Em
ay ating kayang lagpasan

Mabuhay ang musikang Pilipino!!!
comments
We did not receive enough feedback on this tab! Please rate:
1 2 3 4 5
I want to post or [tab]
guest
You may want to rate the tab now too:
select rating
Please do not post tabs as comments. Select "correction" instead!