Oops, an error
Loading. Please wait.

Yugto Tab

ver2
ver2

Intro

Whole song

Interactive

More versions @911Tabs.com
37,240 views 39 this week
8 commentsread comments
1 2 3 4 5
excellent!
x 14
Autoscroll
+/-
esc
set tempo
stop
Contributor
Tabbers playing skills
advanced +
Hey! There's an official Ultimate Guitar app which is ideal
for learning songs when you're away from computer. Get the app
WARNING: You are trying to view
                                    content from Ultimate-Guitar.com
                                    in an unauthorized application,
                                    which is prohibited.

                                    Please use an official Ultimate
                                    Guitar Tabs application for iPhone,
                                    iPad or Android to access legitimate
                                    chords, guitar, bass, and drum tabs
                                    from Ultimate-Guitar.com database.

                                    Type "ultimate guitar tabs" in Apple
                                    App Store's or Android Market's
                                    search to find the application.
|-------------------------------------------------------------------------------
                             yugto-rico blanco
-------------------------------------------------------------------------------

Tabbed by:Francis J.Q. Sario

#09283150081

Email:f_sario@yahoo.com

donated by SHC BSN lucena


GTrI(rico mambo)
GtRII(extra - Francis J.Q.S.)
Tuning:e b g d a E



pakirate!!!









note: BAWAL GAMITIN NG WALANG PAHINTULOT SA AKIN...







FREE LESSON(FOR LUCENAHIN,CORDIAN,QUEZONIAN ONLY)-TXT 09283150081)








Intro-

1.
cielo-F# 
violin
|--------7-9-10-12-10h12p10-9~--------------------------------|
|-7-8-11------------------------------------------------------|
|-------------------------------------------------------------|
|-------------------------------------------------------------|
|-------------------------------------------------------------|
|-------------------------------------------------------------|
then
 cielo
|-------------------------------------------------------------|
|-------------------------------------------------------------|
|-------------------------------------------------------------|
|-------------------------------------------------------------|
|-----1-2-4-5-7-5h7p5-4~--------------------------------------|
|-2-3---------------------------------------------------------|
2.
GtrI(dist)
|-------------------------------------------------------------|
|-7-7-7-7-7/8-8-/5-5-/8-8-/5-5--7-7-7-7-7/8-8-/5-5-/8-8-/5-5--|
|-------------------------------------------------------------|
|-------------------------------------------------------------|
|-------------------------------------------------------------|
|-------------------------------------------------------------|

|-----------------------------------------|
|-7777-7/88-/55-/88-/55-7-7-7-7-7-7-7-----|
|-----------------------------------------|
|-----------------------------------------|
|-----------------------------------------|
|-----------------------------------------|

GtrII(clean/no dist or acoustic)
|---------------------------------------|
|---------------9-10-1010-10-10-12-10-9-|
|-11-11-1111-11-------------------------|
|---------------------------------------|
|---------------------------------------|
|---------------------------------------|
|---------------------------------------|

|-----------------------------------------9-99-9-99-9--------------------------|
|---------------9-10-1010-10-10--12-10-12------------12-10-10101010-10121012-9-|
|-11-11-1111-11----------------------------------------------------------------|
|------------------------------------------------------------------------------|
|------------------------------------------------------------------------------|
|------------------------------------------------------------------------------|
|------------------------------------------------------------------------------|


|---------------------------------------|
|---------------------------------------|
|-11-11-1111-11-1111-11-1111------------|
|---------------------------------------|
|---------------------------------------|
|---------------------------------------|
|---------------------------------------|
2.

GtrI
|-------------------------------------------------|
|-------------------------------------------------|
|-------------------------------------------------|
|-4-44-44-44-44-44-7-9-4-44-44-44---8888-9/111111-|2x
|-4-44-44-44-44-44-7-9-4-44-44-44---xxxx-x-x-x-x--|
|-2-22-22-22-22-22-5-7-2-22-22-22---6666-7/9-9-9--|


Gtr
|----------------------------------------|
|----------------------------------------|
|----------------------------------------|
|-4-44-44-44-44-44-7-9-4-44-44-44-44-44--|2x
|-4-44-44-44-44-44-7-9-4-44-44-44-44-44--|
|-2-22-22-22-22-22-5-7-2-22-22-22-22-22--|

Verse-

Bass-F#-A-B

Gtr(pause)


Verse-
Bass-F#-A-B F#-F#-E
GtrI(do per strum of F#m:zero to higher volume  then slide to lower fret)
|----------------------------------------------------------------------|
|-----10~/------------------10~/--------------------10~/---------------|
|-----11~/------------------11~/--------------------11~/---------------|
|-----11~/------------------11~/--------------------11~/---------------|
|------9~/-------------------9~/---------------------9~/---------------|
|----------------------------------------------------------------------|

Refrain-

|-----------------------------------------------------------------------------|
|-----------------------------------------------------------------------------|
|-77777777-44444444------------------------7777777-------------------66666666-|
|-77777777-44444444-44444444-8888-9/111111-7777777-99999999-77777777-66666666-|
|-55555555-22222222-44444444-xxxx-x/x-x-x--5555555-99999999-77777777-44444444-|
|-------------------22222222-6666-7/9-9-9----------77777777-55555555----------|


Chorus-09283150081
GtrI
|---------------------------------------------------------|
|---------------------------------------------------------|
|-77777777-------------------99999999-77777777------------|
|-77777777-99999999-77777777-99999999-77777777-99999999---|
|-55555555-99999999-77777777-77777777-55555555-99999999---|
|----------77777777-55555555-------------------77777777---|
GtrII
|-121212-141414-171717----------------------121212----------------------|
|---------------------15151515151515--141414----------------------------|
|-------------------------------------------------13131313131313131313--|
|-----------------------------------------------------------------------|
|-----------------------------------------------------------------------|
|-----------------------------------------------------------------------|


|-121212-141414-171717---------------|
|---------------------15151515151515-|
|------------------------------------|
|------------------------------------|
|------------------------------------|
|------------------------------------|


do into 2.
GtrI
|-------------------------------------------------------|
|---------1010-10-1010/---------------------------------|
|---------1111-11-1111/---------------------------------|
|-4-44-44-1111-11-1111/--7-9-4-44-44-44---8888-9/111111-|2x
|-4-44-44-9-9--9—-9-9-/--7-9-4-44-44-44---xxxx-x/x-x-x--|
|-2-22-22----------------5-7-2-22-22-22---6666-7/9-9-9--|


Gtr
|----------------------------------------|
|----------------------------------------|
|----------------------------------------|
|-4-44-44-44-44-44-7-9-4-44-44-44-44-44--|2x
|-4-44-44-44-44-44-7-9-4-44-44-44-44-44--|
|-2-22-22-22-22-22-5-7-2-22-22-22-22-22--|

Verse
bass(F# A-B)
GtrII(clean/no dist or acoustic)2x
|-----------------------------------------------------------------------------|
|---------------9-10-1010-10-10-12-10-9---------------9-10-1010-10-10-12-10-9-|
|-11-11-1111-11-------------------------11-11-1111-11-------------------------|
|-----------------------------------------------------------------------------|
|-----------------------------------------------------------------------------|
|-----------------------------------------------------------------------------|
|-----------------------------------------------------------------------------|

|-----------------------------------------9-99-9-99-9--------------------------|
|---------------9-10-1010-10-10--12-10-12------------12-10-10101010-10121012-9-|
|-11-11-1111-11----------------------------------------------------------------|
|------------------------------------------------------------------------------|
|------------------------------------------------------------------------------|
|------------------------------------------------------------------------------|
|------------------------------------------------------------------------------|

Do refrain and 
Chorus-
GtrI-GtrI
|-------------------------------------|
|-------------------------------------|
|-77777777-------------------99999999-|
|-77777777-99999999-77777777-99999999-|2x
|-55555555-99999999-77777777-77777777-|
|----------77777777-55555555----------|
GtrII
|-121212-141414-171717----------------------121212----------------------|
|---------------------15151515151515--141414----------------------------|
|-------------------------------------------------13131313131313131313--|
|-----------------------------------------------------------------------|
|-----------------------------------------------------------------------|
|-----------------------------------------------------------------------|



|-121212-141414-171717----------------------1212121212121212121212121212-|
|---------------------15151515151515--141414-----------------------------|
|------------------------------------------------------------------------|
|------------------------------------------------------------------------|
|------------------------------------------------------------------------|
|------------------------------------------------------------------------|
FREE LESSON(FOR LUCENAHIN,CORDIAN,QUEZONIAN ONLY)-TXT 09283150081)
Instrumental-
1.
bass(F# A-B F# G-A)Palm mute

 cielo(violin same as cielo's notes)
|-------------------------------------------------------------|
|-------------------------------------------------------------|
|-------------------------------------------------------------|
|-------------------------------------------------------------|
|------1-2-4-5-7-5h7p5p4~---2h4p2-1~-----2~-------------------|
|-2-3--------------------------------2-3----------------------|

|-------------------------------------------------------------|
|-------------------------------------------------------------|
|-------------------------------------------------------------|
|-------------------6/9---9-8---4h5p4-4------------4/5--------|
|-1-2-4---2-4-/9-5-----------------------2/4/5~---------------|
|-------------------------------------------------------------|

2.do 2x
tuwing hating gabi....
Piano =guitar
F#m                                    Bm
|-9-------9--------9--------9--------|-9-------9--------9--------9--------|
|----10-------10-------10-------10---|----11-------11-------11-------11---|
|--11--11---11--11---11--11---11--11-|--10--10---10--10---10--10---10--10-|
|------------------------------------|------------------------------------|
|------------------------------------|------------------------------------|
|------------------------------------|------------------------------------|
 A                                     C#
|-9-------9--------9--------9--------|-9-------9--------9--------9--------|
|----10-------10-------10-------10---|-----9-------9--------9--------9----|
|---9---9----9---9----9---9----9---9-|--10--10---10--10---10--10---10--10-|
|------------------------------------|------------------------------------|
|------------------------------------|------------------------------------|
|------------------------------------|------------------------------------|
D                                     B
|-10-------10-------10-------10------|-10------10-------10-------10-------|
|----10-------10-------10-------10---|----11-------11-------11-------11---|
|--11--11---11--11---11--11---11--11-|--10--10---10--10---10--10---10--10-|
|------------------------------------|------------------------------------|
|------------------------------------|------------------------------------|
|------------------------------------|------------------------------------|

3.optional
ang mga tinig....
|------------------------------------|
|------------------------------------|
|------------------------------------|
|--4~--------------------------------|3x
|--4~--------------------------------|
|--2~--------------------------------|

4.
09283150081
GtrI
  F#m
|----------------------------------------------------------------------|
|-1010101010--/12^r---1010101010-/11^r-1010101010----------------------|
|-1111111111----------1111111111-------1111111111--11^r----------------|
|-1111111111----------1111111111-------1111111111-------44444444444444-|
|-9-99-9-99-----------9-99-9-99--------9-99-9-99--------44444444444444-|
|-------------------------------------------------------22222222222222-|
                                                        *********

GtrII
|----------------------------------------------------------------------|
|----------------------------------------------------------------------|
|----------------------------------------------------------------------|
|-4-44-4-4-44-7^r----4-44-4-4-44--7^r-4-44-4-4-44--5^r-44444444444444--|
|-4-44-4-4-44--------4-44-4-4-44------4-44-4-4-44------44444444444444--|
|-2-22-2-2-22--------2-22-2-2-22------2-22-2-2-22------22222222222222--|
                                                       *********
bridge-
|-----------------------------------------------------------------------------|
|-----------------------------------------------------------------------------|
|-77777777-44444444------------------------7777777-------------------66666666-|
|-77777777-44444444-44444444-8888-9/11111--7777777-99999999-77777777-66666666-|
|-55555555-22222222-44444444-xxxx-x-x-x-x--5555555-99999999-77777777-44444444-|
|-------------------22222222-6666-7/9-9-9----------77777777-55555555----------|


Chorus-

GtrI
|-------------------------------------------------------------------------|
|-------------------------------------------------------------------------|
|-77777777----------------------------77777777----------------------------|
|-77777777-99999999-77777777-22222222-77777777-99999999-77777777-22222222-|2x
|-55555555-99999999-77777777-22222222-55555555-99999999-77777777-22222222-|
|----------77777777-55555555-00000000----------77777777-55555555-00000000-|
GtrII
|-121212-141414-171717----------------------121212----------------------|
|---------------------15151515151515--141414----------------------------|
|-------------------------------------------------13131313131313131313--|
|-----------------------------------------------------------------------|2x
|-----------------------------------------------------------------------|
|-----------------------------------------------------------------------|


|-121212-141414-17171717171717171717-19191919191919-16161616161616------|
|-----------------------------------------------------------------------|
|-----------------------------------------------------------------------|
|-----------------------------------------------------------------------|
|-----------------------------------------------------------------------|
|-----------------------------------------------------------------------|

|-121212-141414-171717---------------19191919191919-16161616161616------|
|---------------------15151515151515------------------------------------|
|-----------------------------------------------------------------------|
|-----------------------------------------------------------------------|
|-----------------------------------------------------------------------|
|-----------------------------------------------------------------------|
FREE LESSON(FOR LUCENAHIN,CORDIAN,QUEZONIAN ONLY)-TXT 09283150081)
outro-

|-------------------------------------------------------------------x---|
|-------------------------------------------------------------------x---|
|-------------------------------5+~---------------------------------x---|
|-44444--5555--------44444-5555-5+~--44444--55555~-7^r~-44444-55555-x---|
|-44444--5555--------44444-5555------44444--55555~------44444-55555-x---|
|-22222--3333--------22222-3333------22222--33333~------22222-33333-x---|

| /  slide up
| \  slide down
| h  hammer-on
| p  pull-off
| ~  vibrato
| +  harmonic
| x  Mute note


Rico Mambo - 09283150081
outro-




Lyrics-
Verse
Sa gitna ng kagubatan may ahas na hahalik

Tatawagin kang kaibigan na pinaka matalik

Pupulupot sa leeg mo't sisipsip ng iyong dugo

Ipapako ka sa krus kapag ikaw ay natuyo


Verse
Sa gitna ng kaguluhan may kumukulong bulkan

Di ma pigil ang yabang at sakdal na kasakiman

Susubukang angkinin ang lahat ng hindi kanya

Kung kaya kang paikutin tiyak paiikutin ka


refrain-
Ngunit hindi nila kayang baliin ang iyong loob

Ang pag-ibig na hawak mo'y hindi malulubog


Chorus-
Lumiyab ka...


Verse-
Sa gitna ng kadiliman may buwitreng nagmamasid

May magbabato ng putik ngunit walang mayayanig

Iiyak ang mga batang nahulugan ng candy

Laging mga problema sa iba'y sinisisi


verse-
Sa gitna ng kagubatan may ahas na hahalik

Itinuring mong kaibigan na pinaka matalik

Leeg mo'y pupuluputan dugo mo'y sisipsipin

Kapag wala ka nang pakinabang ang ending mo'y sa bangin



Ngunit hindi nila kayang baliin ang iyong loob

Ang pag-ibig na hawak mo'y hindi malulubog



Lumiyab ka...

Instrumental

Tuwing hating gabi maririnig mo ang huni

Ng mga kaluluwang naliligaw


Lahat ng pera sa mundo hindi kayang gawing ginto

Ang huwad na tao...



Ang mga tinig palakas ng palakas

Hanggang gumuho ang mga hadlang



Saksi ang langit sa lahat ng naganap

Saksi ang langit sa ikalawang yugto...



Lumiyab ka...


Wala namang akong napala...wala..wala...wala,,,
bakit di pa kayo mawala...

para sa mga hindi nagrate ,tumingin lang,...hindi man lang nagpasalamat...


Lumiyab kayo,,hahaha

puro kayo tingin,basa lang ng basa ng tabs...


sa mga nag txt ng pasasalamat or nagrate
THAnk you ...
comments
print report bad tab
8 comments total. Showing first comments.
0 reply
rocker_arm wrote on December 26 2008, 07:34 pm

salamat sa tab! bangis!

0 reply
kohphal wrote on January 6 2009, 11:57 pm

may konting mali lng sa instrumental 1.. should be like this...

|-------------------------------------------------------------|
|-------------------------------------------------------------|
|-------------------------------------------------------------|
|------------------/6-7-9-------6h7--4-------------4/5--------|
|-1-2-4---2-4-/9-5-----------------------2-4-5~---------------|
|-------------------------------------------------------------|

btw nice tab dude.. 2 thumbs up..

0 reply
kohphal wrote on January 6 2009, 11:57 pm

may konting mali lng sa instrumental 1.. should be like this...

|-------------------------------------------------------------|
|-------------------------------------------------------------|
|-------------------------------------------------------------|
|------------------/6-7-9-------6h7--4-------------4/5--------|
|-1-2-4---2-4-/9-5-----------------------2-4-5~---------------|
|-------------------------------------------------------------|

btw nice tab dude.. 2 thumbs up..

I want to post or [tab]
guest
You may want to rate the tab now too:
select rating
Please do not post tabs as comments. Select "correction" instead!