Oops, an error
Loading. Please wait.

Stop The World Tab

ver1
ver1

Album

Whole song

More versions @911Tabs.com
495 views 3 this week
no commentswrite comment
1 2 3 4 5
excellent!
x 1
Autoscroll
+/-
esc
set tempo
stop
Contributor
Hey! There's an official Ultimate Guitar app which is ideal
for learning songs when you're away from computer. Get the app
WARNING: You are trying to view
                                    content from Ultimate-Guitar.com
                                    in an unauthorized application,
                                    which is prohibited.

                                    Please use an official Ultimate
                                    Guitar Tabs application for iPhone,
                                    iPad or Android to access legitimate
                                    chords, guitar, bass, and drum tabs
                                    from Ultimate-Guitar.com database.

                                    Type "ultimate guitar tabs" in Apple
                                    App Store's or Android Market's
                                    search to find the application.
          Ok. im postying the album. almost all these tabs are
by me. all of them can be viewed seperatly in the riddlin kids tabs section. 

track listing:
1. never live it down
2. get to it
3. stop the world
4. apology
5. promise you anything
6. talk of the town
7. i want you to know
8. i hate you
9. revenge (only the intro)
10.turn around
11.ship jumper
12.just another day



-------------------------------------------------------------------------------
			     never live it down - riddlin kids
-------------------------------------------------------------------------------
Tabbed by:TheTroy
Tuning: Standard

intro
e|---------------------------------------------------------------------------|
B|---------------------------------------------------------------------------|
G|-----6-----6------7-6-7-6-7-6----------------------------------------------|
D|-7-7---7-7---7-7--x-x-x-x-x-x----------------------------------------------|
A|-7-7---7-7---7-7--5-4-5-4-5-4----------------------------------------------|
E|-5-5---5-5---5-5-----------------------------------------------------------|

verse
e|---------------------------------------------------------------------------|
B|---------------------------------------------------------------------------|
G|---------------------------------7-7-7-7-7-7-7-7-7-7-7-7-7-7-7-7-----------|
D|-7-7-7-7-7-7-7-7-7-7-7-7-7-7-7-7-7-7-7-7-7-7-7-7-7-7-7-7-7-7-7-7-----------|
A|-7-7-7-7-7-7-7-7-7-7-7-7-7-7-7-7-5-5-5-5-5-5-5-5-5-5-5-5-5-5-5-5-----------|
E|-5-5-5-5-5-5-5-5-5-5-5-5-5-5-5-5-------------------------------------------|
   . . . . . . . . . . . . . . . . . . . . . . . . . . . . . . . .
e|---------------------------------------------------------------------------|
B|---------------------------------------------------------------------------|
G|-4-4-4-4-4-4-4-4-4-4-4-4-4-4-4-4-7-7-7-7-7-7-7-7-7-7-7-7-7-7-7-7-----------|
D|-4-4-4-4-4-4-4-4-4-4-4-4-4-4-4-4-7-7-7-7-7-7-7-7-7-7-7-7-7-7-7-7-----------|
A|-2-2-2-2-2-2-2-2-2-2-2-2-2-2-2-2-5-5-5-5-5-5-5-5-5-5-5-5-5-5-5-5-----------|
E|---------------------------------------------------------------------------|
   . . . . . . . . . . . . . . . . . . . . . . . . . . . . . . . . 

guitar 2 verse
e|---------------------------------------------------------------------------|
B|---------------------------------10-10-10-10-10-10-10-10-10-10-10-10-10----|
G|-9-9-9-9-9-9-9-9-9-9-9-9-9-9-9-9-------------------------------------------|
D|---------------------------------------------------------------------------|
A|---------------------------------------------------------------------------|
E|---------------------------------------------------------------------------|

e|---------------------------------------------------------------------------|
B|-10-10-10---------------------------------10-10-10-10-10-10-10-10-10-10----|
G|----------4-4-4-4-4-4-4-4-4-4-4-4-4-4-4-4----------------------------------|
D|---------------------------------------------------------------------------|
A|---------------------------------------------------------------------------|
E|---------------------------------------------------------------------------|

e|---------------------------------------------------------------------------|
B|-10-10-10-10-10-10---------------------------------------------------------|
G|---------------------------------------------------------------------------|
D|---------------------------------------------------------------------------|
A|---------------------------------------------------------------------------|
E|---------------------------------------------------------------------------|

Chorus
e|---------------------------------------------------------------------------|
B|---------------------------------------------------------------------------|
G|-----------------7-7-7-7-7-7-7-7-7-7-7-7-7-7-7-7---------------------------|
D|-7-7-7-7-7-7-7-7-7-7-7-7-7-7-7-7-7-7-7-7-7-7-7-7---------------------------|
A|-7-7-7-7-7-7-7-7-4-4-4-4-4-4-4-4-5-5-5-5-5-5-5-5-5-4-5-4-5-4-5-4-----------|
E|-5-5-5-5-5-5-5-5---------------------------------3-2-3-2-3-2-3-2-----------|

e|---------------------------------------------------------------------------|
B|---------------------------------------------------------------------------|
G|-----------------7-7-7-7-7-7-7-7-7-7-7-7-7-7-7-7---------------------------|
D|-7-7-7-7-7-7-7-7-7-7-7-7-7-7-7-7-7-7-7-7-7-7-7-7---------------------------|
A|-7-7-7-7-7-7-7-7-4-4-4-4-4-4-4-4-5-5-5-5-5-5-5-5-5-4-5-4-5-4-5-4-----------|
E|-5-5-5-5-5-5-5-5---------------------------------3-2-3-2-3-2-3-2-----------|

e|---------------------------------------------------------------------------|
B|---------------------------------------------------------------------------|
G|-----6-----6-----6-----6-----6-----6---------------------------------------|
D|-7-7---7-7---7-7---7-7---7-7---7-7-----------------------------------------|
A|-7-7---7-7---4-4---4-4---5-5---5-5---5-4-5-4-5-4-5-4-----------------------|
E|-5-5---5-5---------------------------3-2-3-2-3-2-3-2-----------------------|

e|---------------------------------------------------------------------------|
B|---------------------------------------------------------------------------|
G|-----------------7-7-7-7-7-7-7-7-7-7-7-7-7-7-7-7---------------------------|
D|-7-7-7-7-7-7-7-7-7-7-7-7-7-7-7-7-7-7-7-7-7-7-7-7---------------------------|
A|-7-7-7-7-7-7-7-7-4-4-4-4-4-4-4-4-5-5-5-5-5-5-5-5-5-4-5-4-5-4-5-4-----------|
E|-5-5-5-5-5-5-5-5---------------------------------3-2-3-2-3-2-3-2-----------|

repeat intro

repeat verse

bridge  (guitar one is playing the verse)
e|---------------------------------------------------------------------------|
B|---------------------------------------------------------------------------|
G|-9-9-7-7-6-6-7-7-9-9-7-7-6-6-7-7-9-9-7-7-6-6-7-7-9-9-7-7-6-6-7-7-----------|
D|---------------------------------------------------------------------------|
A|---------------------------------------------------------------------------|
E|---------------------------------------------------------------------------|

repat chorus

reeat intro

END



-------------------------------------------------------------------------------
			     Get To It - Riddlin' Kids
-------------------------------------------------------------------------------
Tabbed by: TheTroy
Tuning: Standard

Intro
e|---------------------------------------------------------------------------|
B|---------------------------------------------------------------------------|
G|-7~7~7~7~7-7--------------------------------7~7~7~7~7-7--------------------|
D|-7~7~7~7~7-7--------------------------------7~7~7~7~7-7--------------------|
A|-5~5~5~5~5-5--------------------------------5~5~5~5~5-5--------------------|
E|-------------5-5-3-3-2-2-3-3-3-5-3-3-2-2-3-3-------------------------------|

e|---------------------------------------------------------------------------|
B|---------------------------------------------------------------------------|
G|---------------------------------------------------------------------------|
D|---------------------------------------------------------------------------|
A|---------------------------------------------------------------------------|
E|-5-5-3-3-2-2-3-3-3-5-3-3-2-2-3-3-------------------------------------------|

Verse (one guitar plays this while the other plays "verse pt. 2")
e|-2-2---2-2---2-2---2-2---2-2---2-2---2-2---2-2---2-2---2-2---2-2-----------|
B|-----3~----3~----3~----3~----3~----3~----3~----3~----3~----3~----3~--------|
G|---------------------------------------------------------------------------|
D|---------------------------------------------------------------------------|
A|---------------------------------------------------------------------------|
E|---------------------------------------------------------------------------|

Verse pt. 2
e|---------------------------------------------------------------------------|
B|---------------------------------------------------------------------------|
G|---------------------------------------------------------------------------|
D|-7-7-7~----------------------------7-7-7~----------------------------------|
A|-5-5-5~-5-5-5~-9-9-9~-5-5-5--5-5-5-5-5-5~-5-5-5~-9-9-9~-5-5-5--5-5-5-------|
E|--------3-3-3~-7-7-7~-3-3-3--3-3-3--------3-3-3~-7-7-7~-3-3-3--3-3-3-------|
   . .    . .    . .    . .    . .   . .    . .    . .    . .    . .
e|---------------------------------------------------------------------------|
B|---------------------------------------------------------------------------|
G|---------------------------------------------------------------------------|
D|-7-7-7-7-7-7-7-7-9-9-9-9-9-9-9-9-11-11-11-11-11-11-11-11-------------------|
A|-5-5-5-5-5-5-5-5-7-7-7-7-7-7-7-7-9--9--9--9--9--9--9--9--------------------|
E|---------------------------------------------------------------------------|

e|---------------------------------------------------------------------------|
B|---------------------------------------------------------------------------|
G|-------------------------9~~~~~~~~-5~~~~5-5-5-5-5-5-5-5--------------------|
D|-12-12-12-12-12-12-12-12-9~~~~~~~~-5~~~~5-5-5-5-5-5-5-5--------------------|
A|-10-10-10-10-10-10-10-10-7~~~~~~~~-3~~~~3-3-3-3-3-3-3-3--------------------|
E|---------------------------------------------------------------------------|

Chorus pt. 1
e|---------------------------------------------------------------------------|
B|---------------------------------------------------------------------------|
G|-7-7-7-7-7-7-7-7-----------------------------------------------------------|
D|-7-7-7-7-7-7-7-7-5-5-5-5-5-5-5-5-9-9-9-9-9-9-9-9---------------------------|
A|-5-5-5-5-5-5-5-5-5-5-5-5-5-5-5-5-9-9-9-9-9-9-9-9---------------------------|
E|-----------------3-3-3-3-3-3-3-3-7-7-7-7-7-7-7-7-5-5-3-3-2-2-3-3-----------|

e|---------------------------------------------------------------------------|
B|---------------------------------------------------------------------------|
G|-7-7-7-7-7-7-7-7-----------------------------------------------------------|
D|-7-7-7-7-7-7-7-7-5-5-5-5-5-5-5-5-9-9-9-9-9-9-9-9---------------------------|
A|-5-5-5-5-5-5-5-5-5-5-5-5-5-5-5-5-9-9-9-9-9-9-9-9---------------------------|
E|-----------------3-3-3-3-3-3-3-3-7-7-7-7-7-7-7-7-5-5-3-3-2-2-3-3-----------|

Chorus pt. 2
e|---------------------------------------------------------------------------|
B|---------------------------------------------------------------------------|
G|-7-7-7-7-7-7-7-7-7-7-7-7-7-7-7-7-------------------------------------------|
D|-7-7-7-7-7-7-7-7-7-7-7-7-7-7-7-7-------------------------------------------|
A|-5-5-5-5-5-5-5-5-5-5-5-5-5-5-5-5-------------------------------------------|
E|---------------------------------5-5-3-3-2-2-3-3-3-5-3-3-2-2-3-3-----------|

e|---------------------------------------------------------------------------|
B|---------------------------------------------------------------------------|
G|-7-7-7-7-7-7-7-7-7-7-7-7-7-7-7-7-------------------------------------------|
D|-7-7-7-7-7-7-7-7-7-7-7-7-7-7-7-7-------------------------------------------|
A|-5-5-5-5-5-5-5-5-5-5-5-5-5-5-5-5-------------------------------------------|
E|---------------------------------5-5-3-3-2-2-3-3-3-5-3-3-2-2-3-3-----------|

Verse two (same as the first)

Chorus pt. 1 X2

Chorus pt. 2

Bridge
e|---------------------------------------------------------------------------|
B|-------------------------------PICK SLIDE----------------------------------|
G|-9~~~~~~~~5~~~~~~~~--7~~~~-----\\\\\\\\\\\\\\\\\\\\\\----------------------|
D|-9~~~~~~~~5~~~~~~~~--7~~~~5~~~~\\\\\\\\\\\\\\\\\\\\\\----------------------|
A|-7~~~~~~~~3~~~~~~~~--5~~~~5~~~~--------------------------------------------|
E|--------------------------3~~~~--------------------------------------------|

Chorus pt. 1 X2

Chorus pt. 2 X2

There you go. THE END



-------------------------------------------------------------------------------
			     Stop the world - riddlin kids
-------------------------------------------------------------------------------
Tabbed by: TheTroy
Tuning: standard

intro
e|---------------------------------------------------------------------------|
B|---------------------------------------------------------------------------|
G|---------------6-6-------------6-6-----------------------------------------|
D|-2/4-4-4-4-7-7-6-6-4-4-4-4-7-7-6-6-4-4-4-4---------------------------------|
A|-2/4-4-4-4-7-7-4-4-4-4-4-4-7-7-4-4-4-4-4-4-9-9-7-7-4-4-9-9-7-7-11-11-------|
E|-0/2-2-2-2-5-5-4-4-2-2-2-2-5-5-4-4-2-2-2-2-7-7-5-5-2-2-7-7-5-5-9--9--------|

chorus
e|--------------------------------|--|---------------------------------------|
B|--------------------------------|--|---------------------------------------|
G|-----------------9---9----------|--|-7~------------------------------------|
D|-4---6---7---9---9---9---9---9--|X3|-7~-7~---2-----------------------------|
A|-4---6---7---9---7-0-7-0-9---9--|--|-5~-7~---2-----------------------------|
E|-2-0-4-0-5-0-7-0---------7-0-7-0|--|----5~---0-----------------------------|

second guitar part
e|--------9-----------9------------------------------------------------------|
B|---------------------------------------------------------------------------|
G|-9-11-9---11-9-11-9---11-11------------------------------------------------|
D|---------------------------------------------------------------------------|
A|---------------------------------------------------------------------------|
E|---------------------------------------------------------------------------|

bridge (repeat a few times)
e|---------------------------------------------------------------------------|
B|---------------------------------------------------------------------------|
G|-----11--------------------------------------------------------------------|
D|-9~--11--------------------------------------------------------------------|
A|-9~--9---------------------------------------------------------------------|
E|-7~------------------------------------------------------------------------|

solo
e|-----------------------------------------------------9~--------------------|
B|--7-7-7-7-7-7-7-7-7-7-7-7-7-7-7-7-7-7-9-9-9-10-10-10-12b14~----------------|
G|---------------------------------------------------------------------------|
D|---------------------------------------------------------------------------|
A|---------------------------------------------------------------------------|
E|---------------------------------------------------------------------------|

THE END



-------------------------------------------------------------------------------
			     Apology - Riddlin Kids
-------------------------------------------------------------------------------
Tabbed by: TheTroy
Tuning: Standard

Intro
e|---------------------------------------------------------------------------|
B|-----1-----1-----1-----0---------------------------------------------------|
G|---0-----0-----0-----0-----------------------------------------------------|
D|-------3-------------------------------------------------------------------|
A|-3-----------0-------------------------------------------------------------|
E|-------------------3-------------------------------------------------------|

Verse 
e|---------------------------------------------------------------------------|
B|---------------------------------------------------------------------------|
G|-5-5-5-5-5-5-5-5-5-5-5-5-5-5-5-5-2-2-2-2-2-2-2-2---------------------------|
D|-5-5-5-5-5-5-5-5-3-3-3-3-3-3-3-3-2-2-2-2-2-2-2-2-3-3-3-3-3-3-3-3-----------|
A|-3-3-3-3-3-3-3-3-----------------0-0-0-0-0-0-0-0-3-3-3-3-3-3-3-3-----------|
E|-------------------------------------------------1-1-1-1-1-1-1-1-----------|

Pre-Chorus
e|------------------------------------------------|--|-----------------------|
B|------------------------------------------------|--|-----------------------|
G|---------2------------2-----------2-------------|--|-----------------------|
D|-3--3-3--2--5-5--5-5--2-3-3--3-3--2--5-5--5-5--5|X2|-5---------------------|
A|-3--3-3--0--5-5--5-5--0-3-3--3-3--0--5-5--5-5--5|--|-5--(X16)--------------|
E|-1--1-1-----3-3--3-3----1-1--1-1-----3-3--3-3--3|--|-3---------------------|

Chorus
e|---------------------------------------------------------------------------|
B|---------------------------------------------------------------------------|
G|-5-5-5-5-5-5-5-5-5-5-5-5-5-5-5-5-10-10-10-10-10-10-10-10-10-10-10-10-10----|
D|-5-5-5-5-5-5-5-5-5-5-5-5-5-5-5-5-10-10-10-10-10-10-10-10-10-10-10-10-10----|
A|-3-3-3-3-3-3-3-3-3-3-3-3-3-3-3-3-8--8--8--8--8--8--8--8--8--8--8--8--8-----|
E|---------------------------------------------------------------------------|

e|---------------------------------------------------------------------------|
B|---------------------------------------------------------------------------|
G|-10-10-10------------------------------------------------------------------|
D|-10-10-10-7-7-7-7-7-7-7-7-7-7-7-7-7-7-7-7-5-5-5-5-5-5-5-5-5-5-5-5-5-5-5-5--|
A|-8--8--8--7-7-7-7-7-7-7-7-7-7-7-7-7-7-7-7-5-5-5-5-5-5-5-5-5-5-5-5-5-5-5-5--|
E|----------5-5-5-5-5-5-5-5-5-5-5-5-5-5-5-5-3-3-3-3-3-3-3-3-3-3-3-3-3-3-3-3--|

play intro

play verse

play pre-chorus

play chorus

Bridge
e|---------------------------------------------------------------------------|
B|---------------------------------------------------------------------------|
G|---------------------------------5-5-5-5-5-5-5-5-5-5-5-5-5-5-5-5-----------|
D|-3-3-3-3-3-3-3-3-5-5-5-5-5-5-5-5-5-5-5-5-5-5-5-5-5-5-5-5-5-5-5-5-----------|
A|-3-3-3-3-3-3-3-3-5-5-5-5-5-5-5-5-3-3-3-3-3-3-3-3-3-3-3-3-3-3-3-3-----------|
E|-1-1-1-1-1-1-1-1-3-3-3-3-3-3-3-3-------------------------------------------|

e|---------------------------------------------------------------------------|
B|---------------------------------------------------------------------------|
G|---------------------------------5-5-5-5-5-5-5-5-5-5-5-5-5-5-5-5-----------|
D|-3-3-3-3-3-3-3-3-5-5-5-5-5-5-5-5-5-5-5-5-5-5-5-5-5-5-5-5-5-5-5-5-----------|
A|-3-3-3-3-3-3-3-3-5-5-5-5-5-5-5-5-3-3-3-3-3-3-3-3-3-3-3-3-3-3-3-3-----------|
E|-1-1-1-1-1-1-1-1-3-3-3-3-3-3-3-3-------------------------------------------|

e|---------------------------------------------------------------------------|
B|---------------------------------------------------------------------------|
G|---------------------------------5-5-5-5-5-5-5-5-5-5-5-5-5-5-5-5-----------|
D|-3-3-3-3-3-3-3-3-5-5-5-5-5-5-5-5-5-5-5-5-5-5-5-5-5-5-5-5-5-5-5-5-----------|
A|-3-3-3-3-3-3-3-3-5-5-5-5-5-5-5-5-3-3-3-3-3-3-3-3-3-3-3-3-3-3-3-3-----------|
E|-1-1-1-1-1-1-1-1-3-3-3-3-3-3-3-3-------------------------------------------|

e|---------------------------------------------------------------------------|
B|---------------------------------------------------------------------------|
G|---------------------------------------------------------------------------|
D|-3-3-3-3-3-3-3-3-3-3-3-3-3-3-3-3-5-5-5-5-5-5-5-5-5-5-5-5-5-5-5-5-----------|
A|-3-3-3-3-3-3-3-3-3-3-3-3-3-3-3-3-5-5-5-5-5-5-5-5-5-5-5-5-5-5-5-5-----------|
E|-1-1-1-1-1-1-1-1-1-1-1-1-1-1-1-1-3-3-3-3-3-3-3-3-3-3-3-3-3-3-3-3-----------|

play chorus

play intro to end



-------------------------------------------------------------------------------
			     Promise you anything- Riddlin kids
-------------------------------------------------------------------------------
Tabbed by: TheTroy
Tuning: Standard

Intro - guitar 1
e|---------------------------------------------------------------------------|
B|-7----7--7--7--7--7--7-----------------------------------------------------|
G|-9b11-11-11-11-11-11-11----------------------------------------------------|
D|---------------------------------------------------------------------------|
A|---------------------------------------------------------------------------|
E|---------------------------------------------------------------------------|

Intro Guitar 2
e|---------------------------------------------------------------------------|
B|---------------------------------------------------------------------------|
G|-4-4-4-4-------------------------------------------------------------------|
D|-4-4-4-4-2-2-2-2-4-4-4-4-2-2-2-2-------------------------------------------|
A|-2-2-2-2-2-2-2-2-4-4-4-4-2-2-2-2-------------------------------------------|
E|---------0-0-0-0-2-2-2-2-0-0-0-0-------------------------------------------|

Verse- intro of guitar 2

Chorus - same as verse except for this little riffy
e|---------------------------------------------------------------------------|
B|---------------------------------------------------------------------------|
G|---------------------------------------------------------------------------|
D|---------------------------------------------------------------------------|
A|-4-6-7~--4-6-7-7~----------------------------------------------------------|
E|---------------------------------------------------------------------------|

play verse (verse has new little riffy)
e|-7-------------------------------------------------------------------------|
B|---7---7-9-7---7------7----7-9-7---7---------------------------------------|
G|-----8-------8---9b11---11-------8-----------------------------------------|
D|---------------------------------------------------------------------------|
A|---------------------------------------------------------------------------|
E|---------------------------------------------------------------------------|

play chorus

bridge
e|---------------------------------------------------------------------------|
B|---------------------------------------------------------------------------|
G|-4-4-4-4-4-4-4-4-6-6-6-6-6-6-6-6-9-9-9-9-9-9-9-9-13-13-13-13-13-13---------|
D|-x-x-x-x-x-x-x-x-x-x-x-x-x-x-x-x-x-x-x-x-x-x-x-x-x--x--x--x--x--x----------|
A|-2-2-2-2-2-2-2-2-4-4-4-4-4-4-4-4-7-7-7-7-7-7-7-7-11-11-11-11-11-11---------|
E|---------------------------------------------------------------------------|

e|-----------------4-4-4-4-4-4-4-4-----------------4-4-4-4-4-4-4-4-----------|
B|-----------------5-5-5-5-5-5-5-5-----------------5-5-5-5-5-5-5-5-----------|
G|-----------------6-6-6-6-6-6-6-6-----------------6-6-6-6-6-6-6-6-----------|
D|-----------------6-6-6-6-6-6-6-6-4-4-4-4-4-4-4-4-6-6-6-6-6-6-6-6-4-4-4-4---|
A|-----------------4-4-4-4-4-4-4-4-4-4-4-4-4-4-4-4-4-4-4-4-4-4-4-4-4-4-4-4---|
E|-4-4-6-6-7-7-9-9-----------------2-2-2-2-2-2-2-2-----------------2-2-2-2---|

e|---------------------------------------------------------------------------|
B|---------------------------------------------------------------------------|
G|---------------------------------------------------------------------------|
D|-4-4-4-4-------------------------------------------------------------------|
A|-4-4-4-4-------------------------------------------------------------------|
E|-2-2-2-2-------------------------------------------------------------------|

play chorus then go to end



-------------------------------------------------------------------------------
			     Talk of the town - riddlin kids
-------------------------------------------------------------------------------
Tabbed by: TheTroy
Tuning: Standard

Intro
e|---------------------------------------------------------------------------|
B|---------------------------------------------------------------------------|
G|-5-5-x-x-5-5-x-x-5-5-x-x-5-5-x-x-5-5-x-x-5-5-x-x-5-5-x-x-5-5-x-x-----------|
D|-5-5-x-x-5-5-x-x-5-5-x-x-5-5-x-x-5-5-x-x-5-5-x-x-5-5-x-x-5-5-x-x-----------|
A|-3-3-x-x-3-3-x-x-3-3-x-x-3-3-x-x-3-3-x-x-3-3-x-x-3-3-x-x-3-3-x-x-----------|
E|---------------------------------------------------------------------------|

verse
e|---------------------------------------------------------------------------|
B|---------------------------------------------------------------------------|
G|-5-5-5-5-----------------------------------------5-5-5-5-5-5-5-5-----------|
D|-5-5-5-5-5-5-5-5-7-7-7-7-2-2-2-2-3-3-3-3-3-3-3-3-5-5-5-5-5-5-5-5-----------|
A|-3-3-3-3-5-5-5-5-7-7-7-7-2-2-2-2-3-3-3-3-3-3-3-3-3-3-3-3-3-3-3-3-----------|
E|---------3-3-3-3-5-5-5-5-0-0-0-0-1-1-1-1-1-1-1-1---------------------------|
   . .   . . .   . . .   . . .   . . .   . . .   . . .   . .   . .

pre-chorus
e|---------------------------------------------------------------------------|
B|---------------------------------------------------------------------------|
G|---------------------------------5-5-x-x-5-5-x-x-5-5-x-x-5-5-x-x-----------|
D|-3-3-3-3-3-3-3-3-5-5-5-5-5-5-5-5-5-5-x-x-5-5-x-x-5-5-x-x-5-5-x-x-----------|
A|-3-3-3-3-3-3-3-3-5-5-5-5-5-5-5-5-3-3-x-x-3-3-x-x-3-3-x-x-3-3-x-x-----------|
E|-1-1-1-1-1-1-1-1-3-3-3-3-3-3-3-3-------------------------------------------|

chorus 
e|---------------------------------------------------------------------------|
B|---------------------------------------------------------------------------|
G|-5---------------------5---------------------5-----------------------------|
D|-5-3-x-7-7-x-5-5-5-5-5-5-3-x-7-7-x-5-5-5-5-5-5-3-x-7-7-x-5-5-5-5-5---------|
A|-3-3-x-7-7-x-5-5-5-5-5-3-3-x-7-7-x-5-5-5-5-5-3-3-x-7-7-x-5-5-5-5-5---------|
E|---1-x-5-5-x-3-3-3-3-3---1-x-5-5-x-3-3-3-3-3---1-x-5-5-x-3-3-3-3-3---------|

e|---------------------------------------------------------------------------|
B|---------------------------------------------------------------------------|
G|-5-------------------------------------------------------------------------|
D|-5-3-x-7-7-7-7-7-7-7-7-5-5-5-5-5-5-5-5-------------------------------------|
A|-3-3-x-7-7-7-7-7-7-7-7-5-5-5-5-5-5-5-5-------------------------------------|
E|---1-x-5-5-5-5-5-5-5-5-3-3-3-3-3-3-3-3-------------------------------------|

play intro

play verse

play pre-chorus

play chorus

Bridge
e|---------------------------------------------------------------------------|
B|---------------------------------------------------------------------------|
G|-5-5-5-5-5-5-5-5-----------------------------------------------------------|
D|-5-5-5-5-5-5-5-5-5-5-5-5-5-5-5-5-7-7-7-7-7-7-7-7-5-5-5-5-5-5-5-5-----------|
A|-3-3-3-3-3-3-3-3-5-5-5-5-5-5-5-5-7-7-7-7-7-7-7-7-5-5-5-5-5-5-5-5-----------|
E|-----------------3-3-3-3-3-3-3-3-5-5-5-5-5-5-5-5-3-3-3-3-3-3-3-3-----------|

play chorus

play intro until end



-------------------------------------------------------------------------------
			     i want you to know - riddlin kids
-------------------------------------------------------------------------------
Tabbed by: TheTroy
Tuning: Standard

intro guitar 1
e|---------------------------------------------------------------------------|
B|---------------------------------------------------------------------------|
G|-5-55-xxxx-5-55-xxxx-5-55-xxxx-5-55-xxxx-----------------------------------|
D|-5-55-xxxx-5-55-xxxx-5-55-xxxx-5-55-xxxx-3-33-xxxx-3-33-xxxx-3-33-xxxx-----|
A|-3-33-xxxx-3-33-xxxx-3-33-xxxx-3-33-xxxx-3-33-xxxx-3-33-xxxx-3-33-xxxx-----|
E|-3-33-xxxx-3-33-xxxx-3-33-xxxx-3-33-xxxx-1-11-xxxx-1-11-xxxx-1-11-xxxx-----|

intro guitar 2
e|---------------------------------------------------------------------------|
B|-1-1-0-1-3-1-0-1-1-1-0-1-3-1-0-1-1-1-0-1-3-1-0-1-1-1-0-1-1-1-1-1-0-1-------|
G|---------------------------------------------------------------------------|
D|---------------------------------------------------------------------------|
A|---------------------------------------------------------------------------|
E|---------------------------------------------------------------------------|
   . . . . . . . . . . . . . . . . . . . . . . . . . . . . . . . 

verse guitar 1
e|----------------------------------------------------------------|--|-------|
B|----------------------------------------------------------------|--|-------|
G|----------------------------------------------------------------|--|-------|
D|-5-5-5-5-5-5-5-5------------------------------------------------|X2|-------|
A|-3-3-3-3-3-3-3-3-5-5-5-5-5-5-5-5-7-7-7-7-7-7-7-7-3-3-3-3-5-5-5-5|--|-------|
E|-----------------3-3-3-3-3-3-3-3-5-5-5-5-5-5-5-5-1-1-1-1-3-3-3-3|--|-------|
   . . . . . . . . . . . . . . . . . . . . . . . . . . . . . . . . 

e|---------------------------------------------------------------------------|
B|---------------------------------------------------------------------------|
G|---------------------------------------------------------------------------|
D|---------------------------------------------------------------------------|
A|-7-7-7-7-7-7-7-7-3-3-3-3-5-5-5-5-7-7-7-7-7-7-7-7-3-3-3-3-5-5-5-5-----------|
E|-5-5-5-5-5-5-5-5-1-1-1-1-3-3-3-3-5-5-5-5-5-5-5-5-1-1-1-1-3-3-3-3-----------|
   . . . . . . . . . . . . . . . . . . . . . . . . . . . . . . . .
e|---------------------------------------------------------------------------|
B|---------------------------------------------------------------------------|
G|---------------------------------------------------------------------------|
D|---------------------------------------------------------------------------|
A|-3-3-3-3-3-3-3-3-3-3-3-3-3-3-3-3-5-5-5-5-5-5-5-5-5-5-5-5-5-5-5-5-----------|
E|-1-1-1-1-1-1-1-1-1-1-1-1-1-1-1-1-3-3-3-3-3-3-3-3-3-3-3-3-3-3-3-3-----------|
   . . . . . . . . . . . . . . . . . . . . . . . . . . . . . . . . 

guitar 2 verse
e|---------------------------------------------------------------------------|
B|-3-1---3-1---3-1-----------------------------------------------------------|
G|-----0-----0---------------------------------------------------------------|
D|---------------------------------------------------------------------------|
A|---------------------------------------------------------------------------|
E|---------------------------------------------------------------------------|

chorus
e|---------------------------------------------------------------------------|
B|---------------------------------------------------------------------------|
G|-5-5-5-5-5-5-5-5-5-5-5-5-5-5-5-5-------------------------------------------|
D|-5-5-5-5-5-5-5-5-5-5-5-5-5-5-5-5-5-5-5-5-5-5-5-5-5-5-5-5-5-5-5-5-----------|
A|-3-3-3-3-3-3-3-3-3-3-3-3-3-3-3-3-5-5-5-5-5-5-5-5-5-5-5-5-5-5-5-5-----------|
E|---------------------------------3-3-3-3-3-3-3-3-3-3-3-3-3-3-3-3-----------|

e|---------------------------------------------------------------------------|
B|---------------------------------------------------------------------------|
G|---------------------------------------------------------------------------|
D|-7-7-7-7-7-7-7-7-7-7-7-7-7-7-7-7-3-3-3-3-3-3-3-3-3-3-3-3-3-3-3-3-----------|
A|-7-7-7-7-7-7-7-7-7-7-7-7-7-7-7-7-3-3-3-3-3-3-3-3-3-3-3-3-3-3-3-3-----------|
E|-5-5-5-5-5-5-5-5-5-5-5-5-5-5-5-5-1-1-1-1-1-1-1-1-1-1-1-1-1-1-1-1-----------|

chorus guitar 2
e|---8---8-------------------------------------------------------------------|
B|-----8---------------------------------------------------------------------|
G|-9-------------------------------------------------------------------------|
D|---------------------------------------------------------------------------|
A|---------------------------------------------------------------------------|
E|---------------------------------------------------------------------------|

repeat intro with small variation

repeat verse

repeat chorus

bridge
e|---------------------------------------------------------------------------|
B|---------------------------------------------------------------------------|
G|-5-55-xxxx-5-55-xxxx5-55-xxxx-5-55-----------------------------------------|
D|-5-55-xxxx-5-55-xxxx5-55-xxxx-5-55-xxxx-3-33-xxxx-3-33-xxxx-3-33-xxxx------|
A|-3-33-xxxx-3-33-xxxx3-33-xxxx-3-33-xxxx-3-33-xxxx-3-33-xxxx-3-33-xxxx------|
E|-3-33-xxxx-3-33-xxxx3-33-xxxx-3-33-xxxx-1-11-xxxx-1-11-xxxx-1-11-xxxx------|

e|---------------------------------------------------------------------------|
B|---------------------------------------------------------------------------|
G|---------------------------------------------------------------------------|
D|-3-33-xxxx-7-77-xxxx-7-77-xxxx-7-77-xxxx-7-77-xxxx-3-33-xxxx-3-33-xxxx-----|
A|-3-33-xxxx-7-77-xxxx-7-77-xxxx-7-77-xxxx-7-77-xxxx-3-33-xxxx-3-33-xxxx-----|
E|-1-11-xxxx-5-55-xxxx-5-55-xxxx-5-55-xxxx-5-55-xxxx-1-11-xxxx-1-11-xxxx-----|

e|---------------------------------------------------------------------------|
B|---------------------------------------------------------------------------|
G|---------------------------------------------------------------------------|
D|-5-55-xxxx-5-55-xxxx-------------------------------------------------------|
A|-5-55-xxxx-5-55-xxxx-------------------------------------------------------|
E|-3-33-xxxx-3-33-xxxx-------------------------------------------------------|

guitar 2 bridge
e|-1-1-3---0-1-0-------------------------------------------------------------|
B|---------------------------------------------------------------------------|
G|---------------------------------------------------------------------------|
D|---------------------------------------------------------------------------|
A|---------------------------------------------------------------------------|
E|---------------------------------------------------------------------------|

repeat end of verse

repeat chorus 

end



THIS IS NOT MY TAB! THIS TAB BELONGS TO theotheroreo! I AM ACKNOLEDGING THIS. I NOTICED 
WASNT HERE SO I DECIDED TO PUT IT HERE


Band: Riddlin' Kids
Song: I Hate YOu
album: Stop the world

this is another cool song off of their new album. i can't believe no ones tabbed anymore
of their songs! lazy people! this song is in standard tuning

Intro

 G.I
|-----------------|
|-----------------|
|------------5-5--|
|--5-5--7-7--5-5--|x2
|--5-5--7-7--3-3--|
|--3-3--5-5-------|

G.II
|--------------------------------------------------------|
|--------------------------------------------------------|
|--12-12-11-12---12-12-14-12----12-12-12-12-9--9-11-11---|
|--x--x--x--x----x--x--x--x-----x--x--x--x--x--x-x--x----|x2
|--10-10-9-10----10-10-12-10----10-10-10-10-11-7-9--9----|
|--------------------------------------------------------|

Verse

G.I
|------------------------------------------------------|
|------------------------------------------------------|
|----------------------------55-55-55-55---------------|
|--55-55-55-55--77-77-77-77--55-55-55-55--55-55-55-55--|x2
|--55-55-55-55--77-77-77-77--33-33-33-33--55-55-55-55--|
|--33-33-33-33--55-55-55-55---------------33-33-33-33--|
p.m.. .. .. ..  .. .. .. ..  .. .. .. ..  .. .. .. ..

|------------------|
|------------------|
|----------99--77--|on the second time  don't play the final
|--55--77--99--77--|G chord play this instead
|--55--77--77--55--|
|--33--55----------|


G.II
|----------|
|----------|
|--12--12--|
|--x---x---|play this alot
|--10--10--|
|----------|


Chorus

G.I
|--------------------------------------------------------------------------|
|--------------------------------------------------------------------------|
|--------------------5555555555555555--------------------5555555555555555--|
|--5555555555555555--5555555555555555--7777777777777777--5555555555555555--|x2
|--5555555555555555--3333333333333333--7777777777777777--3333333333333333--|
|--3333333333333333--------------------5555555555555555--------------------|

G.II
|--------------------------------------------------7--------------|
|--8-8-8-10-8---8-8-8-10-8---8-8-8-10-8---8-8-8-10---8-8-8-10-8---|
|-------------9------------9------------9-----------------------9-|
|-----------------------------------------------------------------|
|-----------------------------------------------------------------|
|-----------------------------------------------------------------|

G.II (cont.)
|-----------------------------------------|
|--8-8-8-10-8---8-8-8-10-8---8-8-12-8-10--|
|-------------9------------9--------------|
|-----------------------------------------|x2
|-----------------------------------------|
|-----------------------------------------|


Bridge

G.I and G.II
|------------------------------------------|
|------------------------------------------|
|--------------------------------55555555--|
|--55555555--77777777--22222222--55555555--|x3
|--55555555--77777777--22222222--33333333--|
|--33333333--55555555--00000000------------|

|------------------------------|
|------------------------------|
|-----------------------55x55--|
|--55x55--77x77--22x22--55x55--|x2
|--55x55--77x77--22x22--33x33--|
|--33x33--55x55--00x00---------|

thats it. pretty easy to play. i'm not 100% sure on the chorus for G.II, but what i have is
close enough.  e-mail me with corrections- theotheroreo@yahoo.com

order: Intro
       verse
       chorus
       intro
       verse
       chorus
       bridge
       verse
       chorus




-------------------------------------------------------------------------------
			     Revenge - Riddlin Kids
-------------------------------------------------------------------------------
Tabbed by: TheTroy
Tuning: Standard

e|---------------------------------------------------------------------------|
B|---------------------------------------------------------------------------|
G|-9-9--9-9-----------------9-9--9-9-----------------------------------------|
D|-9-9--9-9--9-9--7-7--6-7--9-9--9-9--9-9--7-7--7-6-2------------------------|
A|-7-7--6-6--9-9--7-7--6-7--7-7--6-6--9-9--7-7--7-6-2------------------------|
E|-----------7-7--5-5--4-5------------7-7--5-5--5-4-0------------------------|

little itty riff of guitar 2
e|---------------------------------------------------------------------------|
B|-16h17-16h17-16h17-16h17-16h17---------------------------------------------|
G|---------------------------------------------------------------------------|
D|---------------------------------------------------------------------------|
A|---------------------------------------------------------------------------|
E|---------------------------------------------------------------------------|


if anyone gets the restof the song please tell me




-------------------------------------------------------------------------------
			     Turn Around - Riddlin Kids
-------------------------------------------------------------------------------
Tabbed by: TheTroy
Tuning: Standard

Intro (its tricky. practice)
e|---------------------------------------------------------------------------|
B|---------------------------------------------------------------------------|
G|-4-4-/-16--8-9-8-9---------------------------------------------------------|
D|-4-4-/-x---x-x-x-x---------------------------------------------------------|
A|-2-2-/-14--6-7-6-7---------------------------------------------------------|
E|---------------------------------------------------------------------------|

Verse
e|------------------------|--|-----------------------------------------------|
B|------------------------|--|-----------------------------------------------|
G|-4-4------4-4----8-9-8-9|--|-----------------------------------------------|
D|-4-4------4-4----x-x-x-x|X2|----7-7-7-7-7-7-7-7-6-6-6-6-6-6-6-6------------|
A|-2-2------2-2----6-7-6-7|--|----7-7-7-7-7-7-7-7-6-6-6-6-6-6-6-6------------|
E|------------------------|--|-xx-5-5-5-5-5-5-5-5-4-4-4-4-4-4-4-4------------|

Chorus
e|---------------------------------------------------------------------------|
B|---------------------------------------------------------------------------|
G|-4-4-4-4-6-6-6-6-----------------------------------------------------------|
D|-4-4-4-4-6-6-6-6-2-2-2-2-4-4-4-4-------------------------------------------|
A|-2-2-2-2-4-4-4-4-2-2-2-2-4-4-4-4-------------------------------------------|
E|-----------------0-0-0-0-2-2-2-2-------------------------------------------|

play intro

play verse

play chorus


e|----------------------------------------------------------------|--|-------|
B|----------------------------------------------------------------|--|-------|
G|---------------------------------4-4-4-4-4-4-4-4-4-4-4-4-4-4-4-4|--|-------|
D|-2-2-2-2-2-2-2-2-4-4-4-4-4-4-4-4-4-4-4-4-4-4-4-4-4-4-4-4-4-4-4-4|X2|-------|
A|-2-2-2-2-2-2-2-2-4-4-4-4-4-4-4-4-2-2-2-2-2-2-2-2-2-2-2-2-2-2-2-2|--|-------|
E|-0-0-0-0-0-0-0-0-2-2-2-2-2-2-2-2--------------------------------|--|-------|

e|---------------------------------------------------------------------------|
B|---------------------------------------------------------------------------|
G|---------------------------------------------------------------------------|
D|-7-7-7-7-7-7-7-7-4-4-4-4-4-4-4-4-------------------------------------------|
A|-7-7-7-7-7-7-7-7-4-4-4-4-4-4-4-4-------------------------------------------|
E|-5-5-5-5-5-5-5-5-2-2-2-2-2-2-2-2-------------------------------------------|

play chorus

play intro to end



-------------------------------------------------------------------------------
			     Ship Jumper - riddlin kids
-------------------------------------------------------------------------------
Tabbed by: TheTroy
Tuning: Standard

intro (x2)
e|---------------------------------------------------------------------------|
B|---------------------------------------------------------------------------|
G|-99999999--999-----------------------------------------------999-----------|
D|-99999999--xxx--11-11-11--11-11-11-11-11-11-11-11--99999999--xxx-----------|
A|-77777777--777--11-11-11--11-11-11-11-11-11-11-11--99999999--777-----------|
E|----------------9--9--9---9--9--9--9--9--9--9--9---77777777----------------|

e|---------------------------------------------------------------------------|
B|---------------------------------------------------------------------------|
G|---------------------------------------------------------------------------|
D|-777-77777777--------------------------------------------------------------|
A|-777-77777777--------------------------------------------------------------|
E|-555-55555555--------------------------------------------------------------|

verse (palm mute) (X2)
e|---------------------------------------------------------------------------|
B|---------------------------------------------------------------------------|
G|---------------------------------------------------------------------------|
D|-9999999999999999----------------------------------------------------------|
A|-7777777777777777-11111111111111111111111111111111-9999999999999999--------|
E|------------------9-9-9-9-9-9-9-9-9-9-9-9-9-9-9-9--7777777777777777--------|

e|---------------------------------------------------------------------------|
B|---------------------------------------------------------------------------|
G|---------------------------------------------------------------------------|
D|---------------------------------------------------------------------------|
A|-7777777777777777----------------------------------------------------------|
E|-5555555555555555----------------------------------------------------------|

pre-chorus
e|-----------------------------------|--|------------------------------------|
B|-----------------------------------|--|------------------------------------|
G|-----------------------------------|--|------------------------------------|
D|-4-444-444-446-7-7-7777777777777777|X2|-9999999999999999-------------------|
A|-4-444-444-446-7-7-7777777777777777|--|-9999999999999999-------------------|
E|-2-222-222-224-5-5-5555555555555555|--|-7777777777777777-------------------|

chorus guitar 1
e|---------------------------------------------------------------------------|
B|---------------------------------------------------------------------------|
G|---------------------------------------------------------------------------|
D|-2-2--4-4--7-7-------------------------------------------------------------|
A|-2-2--4-4--7-7-------------------------------------------------------------|
E|-0-0--2-2--5-5-------------------------------------------------------------|

chorus guitar 2
e|---------------------------------------------------------------------------|
B|---------------------------------------------------------------------------|
G|-14-13--14-13--14-13-14-13-11-13--14-13--14-13--14-13-14-13-11-9-----------|
D|-x--x---x--x---x--x--x--x--x--x---x--x---x--x---x--x--x--x--x--x-----------|
A|-12-11--12-11--12-11-12-11-9--11--12-11--12-11--12-11-12-11-9--7-----------|
E|---------------------------------------------------------------------------|

repeat intro 

repeat verse

repeat pre chorus

repeat chorus

bridge - intro

play pre chorus

play chorus

END 



-------------------------------------------------------------------------------
			     just another day - riddlin kids
-------------------------------------------------------------------------------
Tabbed by: TheTroy
Tuning: Stabndardf

intro
e|---------------------------------------------------------------------------|
B|---------------------4-4-4-------------------------------------------------|
G|-1-1--1-1--1-1--1-1--4-4-4-------------------------------------------------| 
D|-2-2--2-2--2-2--2-2--4-4-4-------------------------------------------------|
A|-2-2--2-2--2-2--2-2--2-2-2-------------------------------------------------|
E|-0-0--0-0--0-0--0-0--------------------------------------------------------|

verse (palm mute)
e|---------------------------------------------------------------------------|
B|----------------------------------------------------------------|--|-------|
G|----------------------------------------------------------------|--|-------|
D|-9-9-9-9-9-9-9-9-9-9-9-9-9-9-9-9--------------------------------|X2|-------|
A|-7-7-7-7-7-7-7-7-7-7-7-7-7-7-7-7-7-7-7-7-7-7-7-7-7-7-7-7-7-7-7-7|--|-------|
E|---------------------------------5-5-5-5-5-5-5-5-5-5-5-5-5-5-5-5|--|-------|
 no palm mute
e|---------------------------------------------------------------------------|
B|---------------------------------------------------------------------------|
G|---------------------------------------------------------------------------|
D|---------------------------------------------------------------------------|
A|-11-11-11-11-11-11-11-11-9-9-9-9-9-9-9-9-7-7-7-7-7-7-7-7-7-7-7-7-7-7-7-7---|
E|-9--9--9--9--9--9--9--9--7-7-7-7-7-7-7-7-5-5-5-5-5-5-5-5-5-5-5-5-5-5-5-5---|

chorus guitar 1
e|---------------------------------------------------------------------------|
B|-----------4-x-x-4--2-x-x-2-4-4-4-4-4-4-4-4-2------------------------------|
G|-----------4-x-x-4--2-x-x-2-4-4-4-4-4-4-4-4-2------------------------------|
D|-2-----2---4-x-x-4--2-x-x-2-4-4-4-4-4-4-4-4-2-2----------------------------|
A|-2-----2---2-x-x-2--0-x-x-0-2-2-2-2-2-2-2-2-0-2----------------------------|
E|-0-x-x-0-x------------------------------------0----------------------------|

chorus guitar 2
e|---------------------------------------------------------------------------|
B|-9------------------10--------12-------------------------------------------|
G|---9-9999-11-9-9999----9-9999----9-9999------------------------------------|
D|---------------------------------------------------------------------------|
A|---------------------------------------------------------------------------|
E|---------------------------------------------------------------------------|

repeat intro

repeat verse (the second guitar messes with its chorus in the second half
but play with the open e note.)

repeat chorus

repeat intro

palm mute second half of verse

guitar 2 plays this here
e|---------------------------------------------------------------------------|
B|-5-5-5-5-5-5-5-5-4-5-5-5-5-5-5-5-2-2-2-2-2-2-2-2-0-0-0-0-0-0-0-0-----------|
G|---------------------------------------------------------------------------|
D|---------------------------------------------------------------------------|
A|---------------------------------------------------------------------------|
E|---------------------------------------------------------------------------|

play chorus (guitar 3 plays an open e note throughout)

play intro

END! there. i have tabbed every song on this album. hope they all are
accepted



there you go. have some fun
comments
We did not receive enough feedback on this tab! Please rate:
print report bad tab
1 2 3 4 5
I want to post or [tab]
guest
You may want to rate the tab now too:
select rating
Please do not post tabs as comments. Select "correction" instead!