Oops, an error
Loading. Please wait.

Love Come And Save Me Tab

ver2
ver2

Whole song

More versions @911Tabs.com
8,247 views 6 this week
1 commentread comment
1 2 3 4 5
not so good
x 3
add to favorites launch autoscroll
font size
0
reset
Autoscroll
+/-
esc
set tempo
stop
Contributor
Difficulty
intermediate
WARNING: You are trying to view
                                    content from Ultimate-Guitar.com
                                    in an unauthorized application,
                                    which is prohibited.

                                    Please use an official Ultimate
                                    Guitar Tabs application for iPhone,
                                    iPad or Android to access legitimate
                                    chords, guitar, bass, and drum tabs
                                    from Ultimate-Guitar.com database.

                                    Type "ultimate guitar tabs" in Apple
                                    App Store's or Android Market's
                                    search to find the application.
Right Away Great Captain Love Come And Save Me Tab by Manchester Orchestra, www.Ultimate-Guitar.Com

<font style="font-size: 12px; font-family: Courier; color: rgb(0, 0, 0);"
Capo on the 7th fret
All chords are relative to the capo


     Dm                  Fmaj7           C               G 
e--------1---------------------------------------------------------|
B-----------------------1-----1-------1-------1-------0------0-----|
G-----2------2--2----2------2--------------------------------------|  REPEAT
D---0--0---0--0----3--3---3--3------2------2-----------------------|
A---------------------------------3--3---3--3------2------2--------|
E------------------------------------------------3--3---3--3-------|


"I just need you, my river..."
"Come and save me from the drowning"

     Dm                  Fmaj7           C               Am 
e--------1---------------------------------------------------------|
B-----------------------1-----1-------1-------1-----------1--------|
G-----2------2--2----2------2--------------------------0------0----|  
D---0--0---0--0----3--3---3--3------2------2-----------------------|
A---------------------------------3--3---3--3--------0--0---0---0--|
E------------------------------------------------------------------|




Lyrics

I was packing bags like a bat out of hell,
and you were slipping on your dress

I was punching holes in a ticket to downtown
mass, where the spirit fled

Away from my body and away from my blood
like fire that we never lit

Have you ever seen a man so broken
as that one man that you are looking at

No, No

I could try again if you wanted me to
I swear I'd be a better man

If roses and daises won't do the trick
I'll create another perfect plan

As I swear to the heavens I'll forget all that passed
just say that you need me again

Have you ever seen a man so broken
As that one man that you won't write back

Oh, oh

I just need you, my river
I just need you, my love

Oh, oh

You were looking east with the heaviest heart
that I can ever recall seeing

Time is not the answer that you want
But time is what your going to get

Have you ever seen a love burn brighter with love
Than the man that you are looking at

The answer is no, no, no
The answer is no

No, no, no
It's no

So love, love, love
Come and save me from the drowning

Oh, oh, oh
Go and save him from the drowning 

Oh, Oh, oh, oh, oh

comments
We did not receive enough feedback on this tab! Please rate:
print report bad tab
1 2 3 4 5
1 comment total.
0 reply
luckyshot60 wrote on September 24 2009, 12:58 am

This tab is a very good starting point, there are some places where he hits the open E instead of the 1st fret of the B string (relative to capo of course) and just various hammer ons and pull-offs throughout the song that aren't on this tab. But, good effort and like I said, good tab to learn the basic concept from.

I want to post or [tab]
guest
You may want to rate the tab now too:
select rating
Please do not post tabs as comments. Select "correction" instead!