Oops, an error
Loading. Please wait.

1000 Good Intentions Bass Tab

ver5
ver5

Whole song

More versions @911Tabs.com
464 views 1 this week
no commentswrite comment
1 2 3 4 5
excellent!
x 1
Autoscroll
+/-
esc
set tempo
stop
Contributor
Difficulty
intermediate
WARNING: You are trying to view
                                    content from Ultimate-Guitar.com
                                    in an unauthorized application,
                                    which is prohibited.

                                    Please use an official Ultimate
                                    Guitar Tabs application for iPhone,
                                    iPad or Android to access legitimate
                                    chords, guitar, bass, and drum tabs
                                    from Ultimate-Guitar.com database.

                                    Type "ultimate guitar tabs" in Apple
                                    App Store's or Android Market's
                                    search to find the application.
Song: 1000 Good Intentions
Band: Rise Against
Album: The Unraveling
Bassist: Joe Principe

INTRO

G|-----------------|-----------------|-----------------|-----------------|
D|-----------------|-----------------|-----------------|-----------------|
A|-----2-2-0-0-2-2-|-3-3-2-2-0-0-----|-----2-2-0-0-2-2-|-3-3-5-5-3-3-2-2-|
E|-0-0-------------|-------------3-3-|-0-0-------------|-----------------|
   1 + 2 + 3 + 4 +   1 + 2 + 3 + 4 +   1 + 2 + 3 + 4 +   1 + 2 + 3 + 4 +

G|-----------------|-----------------|-----------------|-----------------||
D|-----------------|-----------------|-----------------|-----------------||
A|-----2-2-0-0-2-2-|-3-3-2-2-0-0-----|-----------------|-2-2-0-0---------||
E|-0-0-------------|-------------3-3-|-2-2-0-0-2-2-3-3-|---------3-3-2-2-||
   1 + 2 + 3 + 4 +   1 + 2 + 3 + 4 +   1 + 2 + 3 + 4 +   1 + 2 + 3 + 4 +

VERSE

G|-----------------|-----------------|-----------------|-----------------|
D|-----------------|-----------------|-----------------|-----------------|
A|-----2-2-0-0-2-2-|-3-3-2-2-0-0-----|-----2-2-0-0-2-2-|-3-3-5-5-3-3-2-2-|
E|-0-0-------------|-------------3-3-|-0-0-------------|-----------------|
   1 + 2 + 3 + 4 +   1 + 2 + 3 + 4 +   1 + 2 + 3 + 4 +   1 + 2 + 3 + 4 +

G|-----------------|-----------------|-----------------|-----------------|
D|-----------------|-----------------|-----------------|-----------------|
A|-----2-2-0-0-2-2-|-3-3-2-2-0-0-----|-----------------|-2-2-0-0---------|
E|-0-0-------------|-------------3-3-|-2-2-0-0-2-2-3-3-|---------3-3-2-2-|
   1 + 2 + 3 + 4 +   1 + 2 + 3 + 4 +   1 + 2 + 3 + 4 +   1 + 2 + 3 + 4 +

G|-----------------|-----------------|-----------------|-----------------|
D|-----------------|-----------------|-----------------|-----------------|
A|-----2-2-0-0-2-2-|-3-3-2-2-0-0-----|-----2-2-0-0-2-2-|-3-3-5-5-3-3-2-2-|
E|-0-0-------------|-------------3-3-|-0-0-------------|-----------------|
   1 + 2 + 3 + 4 +   1 + 2 + 3 + 4 +   1 + 2 + 3 + 4 +   1 + 2 + 3 + 4 +

G|-----------------|-----------------|-----------------|-----------------||
D|-----------------|-----------------|-----------------|-----------------||
A|-----2-2-0-0-2-2-|-3-3-2-2-0-0-----|-----------------|-2-2-0-0---------||
E|-0-0-------------|-------------3-3-|-2-2-0-0-2-2-3-3-|---------3-3-2-2-||
   1 + 2 + 3 + 4 +   1 + 2 + 3 + 4 +   1 + 2 + 3 + 4 +   1 + 2 + 3 + 4 +

CHORUS

G|-----------------|-----------------|-----------------|-----------------|
D|-----------------|-----------------|-----------------|-----------------|
A|-3-3-3-3-3-3-3-3-|-0-0-0-0-0-0-0-0-|-7-7-7-7-7-7-7-7-|-7-7-7-7-7-7-7-7-|
E|-----------------|-----------------|-----------------|-----------------|
   1 + 2 + 3 + 4 +   1 + 2 + 3 + 4 +   1 + 2 + 3 + 4 +   1 + 2 + 3 + 4 +

G|-----------------|-----------------|-----------------|-------------------------|
D|-----------------|-----------------|-----------------|/14-14-12-12-10-10-9--9--|
A|-3-3-3-3-3-3-3-3-|-0-0-0-0-0-0-8---|-7-7-7-7-7-7-7-7-|-------------------------|
E|-----------------|-----------------|-----------------|-------------------------|
   1 + 2 + 3 + 4 +   1 + 2 + 3 + 4 +   1 + 2 + 3 + 4 +   1  +  2  +  3  +  4  +

G|-----------------|-----------------|-----------------|-----------------|
D|-----------------|-----------------|-----------------|-----------------|
A|-3-3-3-3-3-3-3-3-|-0-0-0-0-0-0-0-0-|-7-7-7-7-7-7-7-7-|-----7---7---2---|
E|-----------------|-----------------|-----------------|-0-0-------------|
   1 + 2 + 3 + 4 +   1 + 2 + 3 + 4 +   1 + 2 + 3 + 4 +   1 + 2 + 3 + 4 +

G|-----------------|-----------------||
D|-----------------|-----------------||
A|-3-3-3-3-3-3-3-3-|-0-0-0-0-0-0-0-0-||
E|-----------------|-----------------||
   1 + 2 + 3 + 4 +   1 + 2 + 3 + 4 +

VERSE

G|-----------------|-----------------|-----------------|-----------------|
D|-----------------|-----------------|-----------------|-----------------|
A|-----2-2-0-0-2-2-|-3-3-2-2-0-0-----|-----2-2-0-0-2-2-|-3-3-5-5-3-3-2-2-|
E|-0-0-------------|-------------3-3-|-0-0-------------|-----------------|
   1 + 2 + 3 + 4 +   1 + 2 + 3 + 4 +   1 + 2 + 3 + 4 +   1 + 2 + 3 + 4 +

G|-----------------|-----------------|-----------------|-----------------|
D|-----------------|-----------------|-----------------|-----------------|
A|-----2-2-0-0-2-2-|-3-3-2-2-0-0-----|-----------------|-2-2-0-0---------|
E|-0-0-------------|-------------3-3-|-2-2-0-0-2-2-3-3-|---------3-3-2-2-|
   1 + 2 + 3 + 4 +   1 + 2 + 3 + 4 +   1 + 2 + 3 + 4 +   1 + 2 + 3 + 4 +

G|-----------------|-----------------|-----------------|-----------------|
D|-----------------|-----------------|-----------------|-----------------|
A|-----2-2-0-0-2-2-|-3-3-2-2-0-0-----|-----2-2-0-0-2-2-|-3-3-5-5-3-3-2-2-|
E|-0-0-------------|-------------3-3-|-0-0-------------|-----------------|
   1 + 2 + 3 + 4 +   1 + 2 + 3 + 4 +   1 + 2 + 3 + 4 +   1 + 2 + 3 + 4 +

G|-----------------|-----------------|-----------------|-----------------||
D|-----------------|-----------------|-----------------|-----------------||
A|-----2-2-0-0-2-2-|-3-3-2-2-0-0-----|-----------------|-2-2-0-0---------||
E|-0-0-------------|-------------3-3-|-2-2-0-0-2-2-3-3-|---------3-3-2-2-||
   1 + 2 + 3 + 4 +   1 + 2 + 3 + 4 +   1 + 2 + 3 + 4 +   1 + 2 + 3 + 4 +

CHORUS

G|-----------------|-----------------|-----------------|-----------------|
D|-----------------|-----------------|-----------------|-----------------|
A|-3-3-3-3-3-3-3-3-|-0-0-0-0-0-0-0-0-|-7-7-7-7-7-7-7-7-|-7-7-7-7-7-7-7-7-|
E|-----------------|-----------------|-----------------|-----------------|
   1 + 2 + 3 + 4 +   1 + 2 + 3 + 4 +   1 + 2 + 3 + 4 +   1 + 2 + 3 + 4 +

G|-----------------|-----------------|-----------------|-------------------------|
D|-----------------|-----------------|-----------------|/14-14-12-12-10-10-9--9--|
A|-3-3-3-3-3-3-3-3-|-0-0-0-0-0-0-8---|-7-7-7-7-7-7-7-7-|-------------------------|
E|-----------------|-----------------|-----------------|-------------------------|
   1 + 2 + 3 + 4 +   1 + 2 + 3 + 4 +   1 + 2 + 3 + 4 +   1  +  2  +  3  +  4  +

G|-----------------|-----------------|-----------------|-----------------|
D|-----------------|-----------------|-----------------|-----------------|
A|-3-3-3-3-3-3-3-3-|-0-0-0-0-0-0-0-0-|-7-7-7-7-7-7-7-7-|-----7---7---2---|
E|-----------------|-----------------|-----------------|-0-0-------------|
   1 + 2 + 3 + 4 +   1 + 2 + 3 + 4 +   1 + 2 + 3 + 4 +   1 + 2 + 3 + 4 +

G|-----------------|-----------------||
D|-----------------|-----------------||
A|-3-3-3-3-3-3-3-3-|-0-0-0-0-0-0-0-0-||
E|-----------------|-----------------||
   1 + 2 + 3 + 4 +   1 + 2 + 3 + 4 +

INTERLUDE

G|-----------------|-----------------|-----------------|-----------------|
D|-----------------|-----------------|-----------------|-----------------|
A|-----------------|-3-3-3-3-0-0-0---|-----------------|-3-3-3-3-5-5-5---|
E|-0-0-0-0-0-0-0-0-|---------------0-|-0-0-0-0-0-0-0-0-|---------------0-|
   1 + 2 + 3 + 4 +   1 + 2 + 3 + 4 +   1 + 2 + 3 + 4 +   1 + 2 + 3 + 4 +

G|-----------------|-----------------|-----------------|-----------------||
D|-----------------|-----------------|-----------------|-----------------||
A|-----------------|-3-3-3-3-0-0-0---|-----------------|-3-3-3-3-5-------||
E|-0-0-0-0-0-0-0-0-|---------------0-|-0-0-0-0-0-0-0-0-|-----------------||
   1 + 2 + 3 + 4 +   1 + 2 + 3 + 4 +   1 + 2 + 3 + 4 +   1 + 2 + 3 + 4 +

BRIDGE

G|-----------------|-----------------|-----------------|-----------------|
D|-----------------|-----------------|-----------------|-----------------|
A|-----------------|-3-3-3-3-0-0-0-0-|-----------------|-3-3-3-3-5-5-5-5-|
E|-0-0-0-0-0-0-0-0-|-----------------|-0-0-0-0-0-0-0-0-|-----------------|
   1 + 2 + 3 + 4 +   1 + 2 + 3 + 4 +   1 + 2 + 3 + 4 +   1 + 2 + 3 + 4 +

G|-----------------|-----------------|-----------------|-----------------|
D|-----------------|-----------------|-----------------|-----------------|
A|-----------------|-3-3-3-3-0-0-0-0-|-----------------|-3-3-3-3-5-5-5-5-|
E|-0-0-0-0-0-0-0-0-|-----------------|-0-0-0-0-0-0-0-0-|-----------------|
   1 + 2 + 3 + 4 +   1 + 2 + 3 + 4 +   1 + 2 + 3 + 4 +   1 + 2 + 3 + 4 +

G|-----------------|-----------------|-----------------|-----------------|
D|-----------------|-----------------|-----------------|-----------------|
A|-----------------|-3-3-3-3-0-0-0-0-|-----------------|-3-3-3-3-5-5-5-5-|
E|-0-0-0-0-0-0-0-0-|-----------------|-0-0-0-0-0-0-0-0-|-----------------|
   1 + 2 + 3 + 4 +   1 + 2 + 3 + 4 +   1 + 2 + 3 + 4 +   1 + 2 + 3 + 4 +

G|-----------------|-----------------|-----------------|-----------------||
D|-----------------|-----------------|-----------------|-----------------||
A|-----------------|-3-3-3-3-0-0-0-0-|-----------------|-3-3-3-3-5-5-5-5-||
E|-0-0-0-0-0-0-0-0-|-----------------|-0-0-0-0-0-0-0-0-|-----------------||
   1 + 2 + 3 + 4 +   1 + 2 + 3 + 4 +   1 + 2 + 3 + 4 +   1 + 2 + 3 + 4 +

INTERLUDE

G|-----------------|-----------------|-----------------|-----------------|
D|-----------------|-----------------|-----------------|-----------------|
A|-7---------------|-----------------|-----------------|-----------------|
E|-----------------|-----------------|-----------------|-----------------|
   1 + 2 + 3 + 4 +   1 + 2 + 3 + 4 +   1 + 2 + 3 + 4 +   1 + 2 + 3 + 4 +

G|-----------------|-----------------|-----------------|-----------------||
D|-----------------|-----------------|-----------------|-----------------||
A|-7-7-7-7-7-7-7-7-|-7-7-7-7-7-7-7-7-|-7-7-7-7-7-7-7-7-|-7---------------||
E|-----------------|-----------------|-----------------|-----------------||
   1 + 2 + 3 + 4 +   1 + 2 + 3 + 4 +   1 + 2 + 3 + 4 +   1 + 2 + 3 + 4 +

CHORUS

G|-----------------|-----------------|-----------------|-----------------|
D|-----------------|-----------------|-----------------|-----------------|
A|-3-3-3-3-3-3-3-3-|-0-0-0-0-0-0-0-0-|-7-7-7-7-7-7-7-7-|-7-7-7-7-7-7-7-7-|
E|-----------------|-----------------|-----------------|-----------------|
   1 + 2 + 3 + 4 +   1 + 2 + 3 + 4 +   1 + 2 + 3 + 4 +   1 + 2 + 3 + 4 +

G|-----------------|-----------------|-----------------|-------------------------|
D|-----------------|-----------------|-----------------|/14-14-12-12-10-10-9--9--|
A|-3-3-3-3-3-3-3-3-|-0-0-0-0-0-0-8---|-7-7-7-7-7-7-7-7-|-------------------------|
E|-----------------|-----------------|-----------------|-------------------------|
   1 + 2 + 3 + 4 +   1 + 2 + 3 + 4 +   1 + 2 + 3 + 4 +   1  +  2  +  3  +  4  +

G|-----------------|-----------------|-----------------|-----------------|
D|-----------------|-----------------|-----------------|-----------------|
A|-3-3-3-3-3-3-3-3-|-0-0-0-0-0-0-0-0-|-7-7-7-7-7-7-7-7-|-----7---7---2---|
E|-----------------|-----------------|-----------------|-0-0-------------|
   1 + 2 + 3 + 4 +   1 + 2 + 3 + 4 +   1 + 2 + 3 + 4 +   1 + 2 + 3 + 4 +

G|-----------------|-----------------||
D|-----------------|-----------------||
A|-3-3-3-3-3-3-3-3-|-0-0-0-0-0-0-0-0-||
E|-----------------|-----------------||
   1 + 2 + 3 + 4 +   1 + 2 + 3 + 4 +

OUTRO

G|-----------------|-----------------|-----------------|-----------------||
D|-----------------|-----------------|-----------------|-----------------||
A|-----------------|-----------------|-----------------|-----------------||
E|-0---------------|-----------------|-----------------|-----------------||
   1 + 2 + 3 + 4 +   1 + 2 + 3 + 4 +   1 + 2 + 3 + 4 +   1 + 2 + 3 + 4 +
comments
We did not receive enough feedback on this tab! Please rate:
1 2 3 4 5
I want to post or [tab]
guest
You may want to rate the tab now too:
select rating
Please do not post tabs as comments. Select "correction" instead!