Oops, an error
Loading. Please wait.

A Beautiful Indifference Bass Tab

382 views 30 this week
no commentswrite comment
1 2 3 4 5
please rate
Autoscroll
+/-
esc
set tempo
stop
Contributor
Difficulty
Tuning
intermediate
D# G# C# F# A# D#
Hey! There's an official Ultimate Guitar app which is ideal
for learning songs when you're away from computer. Get the app
WARNING: You are trying to view
                                    content from Ultimate-Guitar.com
                                    in an unauthorized application,
                                    which is prohibited.

                                    Please use an official Ultimate
                                    Guitar Tabs application for iPhone,
                                    iPad or Android to access legitimate
                                    chords, guitar, bass, and drum tabs
                                    from Ultimate-Guitar.com database.

                                    Type "ultimate guitar tabs" in Apple
                                    App Store's or Android Market's
                                    search to find the application.
F#|-----------------------------------------------------------------|
C#|-----------------------------------------------------------------|
G#|---------------0---2-2-2-2-2-2-2---------------0---2-2-2-2-2-2-2-|
D#|-0---2-2-2-2-0-------------------0---2---2-2-0-------------------|
    1 + 2 + 3 + 4 + 1 + 2 + 3 + 4 + 1 + 2 + 3 + 4 + 1 + 2 + 3 + 4 +

F#|-----------------------------------------------------------------|
C#|-----------------------------------------------------------------|
G#|---------------0---2-2-2-2-2-2-2---------------0---2-2-2-2-2-2-2-|
D#|-0---2---2-2-0-------------------0---2-2-2-2-0-------------------|
    1 + 2 + 3 + 4 + 1 + 2 + 3 + 4 + 1 + 2 + 3 + 4 + 1 + 2 + 3 + 4 +

Verse 0:09
F#|-----------------------------------------------------------------|
C#|-----------------------------------------------------------------|
G#|---------------0---2---------------------------0---2-------------|
D#|-0-0-2-2-2-2-0-------------------0-0-2-2-2-2-0-------------------|
    1 + 2 + 3 + 4 + 1 + 2 + 3 + 4 + 1 + 2 + 3 + 4 + 1 + 2 + 3 + 4 +

F#|-----------------------------------------------------------------|
C#|-----------------------------------------------------------------|
G#|---------------0---2---------------------------0---2---0---2---/-|
D#|-0-0-2-2-2-2-0-------------------0-0-2-2-2-2-0-------------------|
    1 + 2 + 3 + 4 + 1 + 2 + 3 + 4 + 1 + 2 + 3 + 4 + 1 + 2 + 3 + 4 +

F#|-----------------------------------------------------------------|
C#|-----------------------------7-7-6-6-6-6-7-7-7-7-9-9-9-9-7-6-----|
G#|-7-7-7-7-7-7-7-7-7-7-7-7-7-7---------------------------------9-7-|
D#|-----------------------------------------------------------------|
    1 + 2 + 3 + 4 + 1 + 2 + 3 + 4 + 1 + 2 + 3 + 4 + 1 + 2 + 3 + 4 +

F#|-----------------------------------------------------------------|
C#|-----------------------------------------------------------------|
G#|---------------0---2---0---2-------------------0---2---0-3-2-0---|
D#|-0-0-2-2-2-2-0-------------------0-0-2-2-2-2-0-------------------|
    1 + 2 + 3 + 4 + 1 + 2 + 3 + 4 + 1 + 2 + 3 + 4 + 1 + 2 + 3 + 4 +

F#|-----------------------------------------------------------------|
C#|-----------------------------------------------------------------|
G#|---------------0---2---------------------------0---2-------------|
D#|-0-0-2-2-2-2-0-------------------0-0-2-2-2-2-0-------------------|
    1 + 2 + 3 + 4 + 1 + 2 + 3 + 4 + 1 + 2 + 3 + 4 + 1 + 2 + 3 + 4 +

F#|-----------------------------------------------------------------|
C#|-----------------------------------------------------------------|
G#|---------------0---2---------------------------0---2---0---2---/-|
D#|-0-0-2-2-2-2-0-------------------0-0-2-2-2-2-0-------------------|
    1 + 2 + 3 + 4 + 1 + 2 + 3 + 4 + 1 + 2 + 3 + 4 + 1 + 2 + 3 + 4 +

F#|-----------------------------------------------------------------|
C#|-----------------------------7-7-6-6-6-6-7-7-7-7-6-6-6-6---------|
G#|-7-7-7-7-7-7-7-7-7-7-7-7-7-7-----------------------------9-9-7-5-|
D#|-----------------------------------------------------------------|
    1 + 2 + 3 + 4 + 1 + 2 + 3 + 4 + 1 + 2 + 3 + 4 + 1 + 2 + 3 + 4 +

Pre Chorus 0:39
F#|-----------------------------------------------------------------|
C#|-----------------------------------------------------------------|
G#|-----5---5---5-2-----2---2---2--------------------------------/5-|
D#|-------------------------------2-----2---2---2---2---2---2---2---|
    1 + 2 + 3 + 4 + 1 + 2 + 3 + 4 + 1 + 2 + 3 + 4 + 1 + 2 + 3 + 4 +

F#|-----------------------------------------------------------------|
C#|-------------------------------4-----4---4---4---4---4---4---4---|
G#|-----5---5---5-2-----2---2---2---------------------------------0-|
D#|-----------------------------------------------------------------|
    1 + 2 + 3 + 4 + 1 + 2 + 3 + 4 + 1 + 2 + 3 + 4 + 1 + 2 + 3 + 4 +

0:49
F#|-----------------------------------------------------------------|
C#|-----------------------------------------------------------------|
G#|---0-0---0-0-0-----------------2---2-2---2-2-2-----------------0-|
D#|---------------0---0-0---0-0-0-----------------2---2-2---2-2-2---|
    1 + 2 + 3 + 4 + 1 + 2 + 3 + 4 + 1 + 2 + 3 + 4 + 1 + 2 + 3 + 4 +

F#|-----------------------------------------------------------------|
C#|-----------------------------------------------------------------|
G#|---0-0-0-0-0-0-0-0-0-0-0-0-0-0-0-4-4-4-4-4-4-4-4-4-\-------------|
D#|-----------------------------------------------------------------|
    1 + 2 + 3 + 4 + 1 + 2 + 3 + 4 + 1 + 2 + 3 + 4 + 1 + 2 + 3 + 4 +

Chorus 0:58
F#|-----------------------------------------------------------------|
C#|-----------------------------------------------------------------|
G#|-----------------5---5---5---5---0---0---0---0---2---2---2-------|
D#|-2---2---2---2---------------------------------------------------|
    1 + 2 + 3 + 4 + 1 + 2 + 3 + 4 + 1 + 2 + 3 + 4 + 1 + 2 + 3 + 4 +

F#|-----------------------------------------------------------------|
C#|-----------------------------------------------------------------|
G#|-----------------5---5---5---5---0---0---0---0---7---7---7---7---|
D#|-2---2---2---2---------------------------------------------------|
    1 + 2 + 3 + 4 + 1 + 2 + 3 + 4 + 1 + 2 + 3 + 4 + 1 + 2 + 3 + 4 +

1:07
F#|-------------------------------------------------------------------|
C#|o-4---4---4-4-4-4-------------------------------------------------o|
G#|o-----------------5---5---5-5-5-5-0---0---0-0-0---2---2---2-2-2---o|
D#|-------------------------------------------------------------------|
     1 + 2 + 3 + 4 + 1 + 2 + 3 + 4 + 1 + 2 + 3 + 4 + 1 + 2 + 3 + 4 +

F#|-----------------------------------------------------------------|
C#|-----------------------------------------------------------------|
G#|-4-4-4-4-4-4-4-4-4-4-4-4-4-4-4-4-4-4-4-4-4-4-4-4-4-----------4-/-|
D#|-----------------------------------------------------------------|
    1 + 2 + 3 + 4 + 1 + 2 + 3 + 4 + 1 + 2 + 3 + 4 + 1 + 2 + 3 + 4 +

Interlude 1:19
F#|---------------------------------------------------------------------------------|
C#|---------------------------------------------------------------------------------|
G#|-9-9-9---9-9-9-9-\-----------4-/-9-9-9---9-9-9-3---------------------------------|
D#|---------------------------------------------------------------------------------|
    1 + 2 + 3 + 4 + 1 + 2 + 3 + 4 + 1 + 2 + 3 + 4 + 1 + 2 + 3 + 4 + 1 + 2 + 3 + 4 +

Verse 1:25
F#|-----------------------------------------------------------------|
C#|-----------------------------------------------------------------|
G#|---------------0---2---------------------------0---2-------------|
D#|-0-0-2-2-2-2-0-------------------0-0-2-2-2-2-0-------------------|
    1 + 2 + 3 + 4 + 1 + 2 + 3 + 4 + 1 + 2 + 3 + 4 + 1 + 2 + 3 + 4 +

F#|-----------------------------------------------------------------|
C#|-----------------------------------------------------------------|
G#|---------------0---2---------------------------0---2---5---2---/-|
D#|-0-0-2-2-2-2-0-------------------0-0-2-2-2-2-0-------------------|
    1 + 2 + 3 + 4 + 1 + 2 + 3 + 4 + 1 + 2 + 3 + 4 + 1 + 2 + 3 + 4 +

F#|-----------------------------------------------------------------|
C#|-----------------------------7-7-6-6-6-6-7-7-7-7-6-6-6-6---------|
G#|-7-7-7-7-7-7-7-7-7-7-7-7-7-7-----------------------------9-9-7-5-|
D#|-----------------------------------------------------------------|
    1 + 2 + 3 + 4 + 1 + 2 + 3 + 4 + 1 + 2 + 3 + 4 + 1 + 2 + 3 + 4 +

Pre Chorus 1:38
F#|-----------------------------------------------------------------|
C#|-----------------------------------------------------------------|
G#|-----5---5---5-2-----2---2---2--------------------------------/5-|
D#|-------------------------------2-----2---2---2---2---2---2---2---|
    1 + 2 + 3 + 4 + 1 + 2 + 3 + 4 + 1 + 2 + 3 + 4 + 1 + 2 + 3 + 4 +

F#|-------------------------------------------------------------------------------------------------|
C#|-------------------------------------------------------------------------------------------------|
G#|-----5---5---5-2-----2---2---2-4---4-4---4-4-4---4-4-4---4-4-4---4---------------4---------------|
D#|-----------------------------------------------------------------------2-----0-------------------|
    1 + 2 + 3 + 4 + 1 + 2 + 3 + 4 + 1 + 2 + 3 + 4 + 1 + 2 + 3 + 4 + 1 + 2 + 3 + 4 + 1 + 2 + 3 + 4 +

Chorus 1:49
F#|-----------------------------------------------------------------|
C#|-----------------------------------------------------------------|
G#|-----------------5---5---5---5---0---0---0---0---2---2---2---2---|
D#|-2---2---2-------------------------------------------------------|
    1 + 2 + 3 + 4 + 1 + 2 + 3 + 4 + 1 + 2 + 3 + 4 + 1 + 2 + 3 + 4 +

F#|-----------------------------------------------------------------|
C#|-----------------------------------------------------------------|
G#|-----------------5---5---5---5---0---0---0---0---7---7---7---7---|
D#|-2---2---2-------------------------------------------------------|
    1 + 2 + 3 + 4 + 1 + 2 + 3 + 4 + 1 + 2 + 3 + 4 + 1 + 2 + 3 + 4 +

1:58
F#|-------------------------------------------------------------------|
C#|o-4---4---4-4-4-4-------------------------------------------------o|
G#|o-----------------5---5---5-5-5-5-0---0---0-0-0---2---2---2-2-2---o|
D#|-------------------------------------------------------------------|
     1 + 2 + 3 + 4 + 1 + 2 + 3 + 4 + 1 + 2 + 3 + 4 + 1 + 2 + 3 + 4 +

F#|-----------------------------------------------------------------|
C#|-----------------------------------------------------------------|
G#|-4-4-4-4-4-4-4-4-4-4-4-4-4-4-4-4-4-4-4-4-4-4-4-4-4---------------|
D#|-----------------------------------------------------------------|
    1 + 2 + 3 + 4 + 1 + 2 + 3 + 4 + 1 + 2 + 3 + 4 + 1 + 2 + 3 + 4 +

Solo 2:10
F#|-----------------------------------------------------------------|
C#|-----------------------------------------------------------------|
G#|---------------------------------0-------0-------0-------0---5---|
D#|-2-------2-------2---0---2---0-----------------------2-----------|
    1 + 2 + 3 + 4 + 1 + 2 + 3 + 4 + 1 + 2 + 3 + 4 + 1 + 2 + 3 + 4 +

F#|-----------------------------------------------------------------|
C#|-----------------------------------------------------------------|
G#|-7-------7-------7---0---7---0---2-------2-------2---4---2---0---|
D#|-----------------------------------------------------------------|
    1 + 2 + 3 + 4 + 1 + 2 + 3 + 4 + 1 + 2 + 3 + 4 + 1 + 2 + 3 + 4 +

2:18
F#|-----------------------------------------------------------------|
C#|-----------------------------------------------------------------|
G#|---------------------------------0-------0-------0-------0---5---|
D#|-2-------2-------2---0---2---0-----------------------2-----------|
    1 + 2 + 3 + 4 + 1 + 2 + 3 + 4 + 1 + 2 + 3 + 4 + 1 + 2 + 3 + 4 +

F#|-----------------------------------------------------------------|
C#|-----------------------------------------------------------------|
G#|-7-------7-------7---0---7---0---2-------2---------------2---4---|
D#|-------------------------------------------------2---4-----------|
    1 + 2 + 3 + 4 + 1 + 2 + 3 + 4 + 1 + 2 + 3 + 4 + 1 + 2 + 3 + 4 +

Bridge 2:26
F#|---------------------------------7---------------4---------------|
C#|-7---------------4-----------------------------------------------|
G#|-----5---5---5-------5---5---5-------5---5---5-------5---5---5---|
D#|-----------------------------------------------------------------|
    1 + 2 + 3 + 4 + 1 + 2 + 3 + 4 + 1 + 2 + 3 + 4 + 1 + 2 + 3 + 4 +

F#|-------------------------------------------------4---4---4---4---|
C#|-6---------------6---------------6-------------------------------|
G#|-----7---7---7-----------7-----------7---7---7-------------------|
D#|-----------------------------------------------------------------|
    1 + 2 + 3 + 4 + 1 + 2 + 3 + 4 + 1 + 2 + 3 + 4 + 1 + 2 + 3 + 4 +

F#|---------------------------------7---------------4---------------|
C#|-7---------------4-----------------------------------------------|
G#|-----5---5-----------5---5---5-------5---5---5-------5---5---5---|
D#|-----------------------------------------------------------------|
    1 + 2 + 3 + 4 + 1 + 2 + 3 + 4 + 1 + 2 + 3 + 4 + 1 + 2 + 3 + 4 +

F#|-----------------------------------------------------------------|
C#|-6---------------------------------------------------------------|
G#|-----7---7---7---7---7---7---7---7---7---7---7---7---7---7---7---|
D#|-----------------------------------------------------------------|
    1 + 2 + 3 + 4 + 1 + 2 + 3 + 4 + 1 + 2 + 3 + 4 + 1 + 2 + 3 + 4 +

Interlude 2:40
F#|-----------------------------------------------------------------|
C#|-----------------------------------------------------------------|
G#|-----------------------------------------------------------------|
D#|-2---------------------------------------------------------------|
    1 + 2 + 3 + 4 + 1 + 2 + 3 + 4 + 1 + 2 + 3 + 4 + 1 + 2 + 3 + 4 +

F#|-----------------------------------------------------------------|
C#|-----------------------------------------------------------------|
G#|-----------------------------------------------------------------|
D#|-----------------------------------------------------------------|
    1 + 2 + 3 + 4 + 1 + 2 + 3 + 4 + 1 + 2 + 3 + 4 + 1 + 2 + 3 + 4 +

Pre Chorus 2:49
F#|-----------------------------------------------------------------|
C#|-----------------------------------------------------------------|
G#|-----------------5---5---5---5---0---0---0---0---2---2---2---2---|
D#|-2---2---2---2---------------------------------------------------|
    1 + 2 + 3 + 4 + 1 + 2 + 3 + 4 + 1 + 2 + 3 + 4 + 1 + 2 + 3 + 4 +

F#|-----------------------------------------------------------------|
C#|-----------------------------------------------------------------|
G#|-----------------5---5---5---5---0---0---0---0---7---7---7-------|
D#|-2---2---2---2---------------------------------------------------|
    1 + 2 + 3 + 4 + 1 + 2 + 3 + 4 + 1 + 2 + 3 + 4 + 1 + 2 + 3 + 4 +

Chorus 2:59
F#|-----------------------------------------------------------------|
C#|-----------------------------------------------------------------|
G#|-----------------5---5---5---5---0---0---0-------2---2---2---2---|
D#|-2-------2---2---------------------------------------------------|
    1 + 2 + 3 + 4 + 1 + 2 + 3 + 4 + 1 + 2 + 3 + 4 + 1 + 2 + 3 + 4 +

F#|-----------------------------------------------------------------|
C#|-----------------------------------------------------------------|
G#|-----------------5---5---5---5---0---0---0-------7---7---7---7---|
D#|-2---2---2---2---------------------------------------------------|
    1 + 2 + 3 + 4 + 1 + 2 + 3 + 4 + 1 + 2 + 3 + 4 + 1 + 2 + 3 + 4 +

3:06
F#|-----------------------------------------------------------------|
C#|-----------------------------------------------------------------|
G#|-----------------5---5---5---5---0---0---0---0---2---2---2---2---|
D#|-2---2---2---2---------------------------------------------------|
    1 + 2 + 3 + 4 + 1 + 2 + 3 + 4 + 1 + 2 + 3 + 4 + 1 + 2 + 3 + 4 +

F#|-----------------------------------------------------------------|
C#|-----------------------------------------------------------------|
G#|-----------------5---5---5---5---0---0---0---0---7---7---7---7---|
D#|-2---2---2---2---------------------------------------------------|
    1 + 2 + 3 + 4 + 1 + 2 + 3 + 4 + 1 + 2 + 3 + 4 + 1 + 2 + 3 + 4 +

3:13
F#|-----------------------------------------------------------------|
C#|-------------------------------------------------------------4---|
G#|-4---4---4---4---4---4---4---4---4---4---4---4---4---4---4-------|
D#|-----------------------------------------------------------------|
    1 + 2 + 3 + 4 + 1 + 2 + 3 + 4 + 1 + 2 + 3 + 4 + 1 + 2 + 3 + 4 +

F#|----------------------------------------------------------------------|
C#|-6---6---6---7---7---7---9---9---11---11---11---11---11---------------|
G#|----------------------------------------------------------------------|
D#|----------------------------------------------------------------------|
    1 + 2 + 3 + 4 + 1 + 2 + 3 + 4 + 1  + 2  + 3  + 4  + 1  + 2 + 3 + 4 +
Tabbed by Dave Vucko



comments
We did not receive enough feedback on this tab! Please rate:
print report bad tab
1 2 3 4 5
I want to post or [tab]
guest
You may want to rate the tab now too:
select rating
Please do not post tabs as comments. Select "correction" instead!