Oops, an error
Loading. Please wait.

A Gentlemens Coup Bass Tab

715 views 9 this week
1 commentread comment
1 2 3 4 5
excellent!
x 3
add to favorites launch autoscroll
font size
0
reset
Autoscroll
+/-
esc
set tempo
stop
Contributor
Tuning
D# G# C# F# A# D#
WARNING: You are trying to view
                                    content from Ultimate-Guitar.com
                                    in an unauthorized application,
                                    which is prohibited.

                                    Please use an official Ultimate
                                    Guitar Tabs application for iPhone,
                                    iPad or Android to access legitimate
                                    chords, guitar, bass, and drum tabs
                                    from Ultimate-Guitar.com database.

                                    Type "ultimate guitar tabs" in Apple
                                    App Store's or Android Market's
                                    search to find the application.
0:04
F#|-----------------------------------------------------------------|
C#|-----------------------------------------------------------------|
G#|-----------------3---3-3-3-3-3-3---------------------------------|
D#|-0---0-0-0-0-0-0-----------------5---5-5-5-5-5-5-3---3---2---2---|

F#|-----------------------------------------------------------------|
C#|-----------------------------------------------------------------|
G#|-----------------3---3-3-3-3-3-3-------------------------5---5---|
D#|-0---0-0-0-0-0-0-----------------5---5-5-5-5-5-5-3---3-----------|

F#|-----------------------------------------------------------------|
C#|-----------------------------------------------------------------|
G#|-----------------3---3-3-3-3-3-3---------------------------------|
D#|-0---0-0-0-0-0-0-----------------5---5-5-5-5-5-5-3---3---2---2---|

F#|-----------------------------------------------------------------|
C#|-----------------------------------------------------------------|
G#|-----------------3---3-3-3-3-3-3---------------------------------|
D#|-0---0-0-0-0-0-0-----------------5---5-5-5-5-5-5-3---------------|

0:22
F#|---------------------------------------------------|
C#|o-------------------------------------------------o|
G#|o-----------------------------------------5---5---o| x3
D#|--0---------------0---0-----------3---3------------|

F#|-----------------------------------------------------------------|
C#|-----------------------------------------------------------------|
G#|-3---3-3-3-3-3---3---3-3-3-3-3---3---3-3-3-3-3-----------5---5---|
D#|-------------------------------------------------3---3-----------|

0:38
F#|---------------------------------------------------|
C#|o-------------------------------------------------o|
G#|o-----------------------------------------5---5---o|
D#|--0---------------0---0-----------3---3------------|

0:45
F#|-------------------------------------------------|
C#|-------------------------------------------------|
G#|---------------7-------------------------5---5---|
D#|-0---0---0---0-------0---0---0---3---3-----------|

F#|-----------------------------------------------------------------|
C#|-----------------------------------------------------------------|
G#|-3---3-3-3-3-3---3---3-3-3-3-3---3---3-3-3-3-3-----------5---5---|
D#|-------------------------------------------------3---3-----------|

0:53
F#|-----------------------------------------------------------------|
C#|-----------------------------------------------------------------|
G#|-----------------3---3-3-3-3-3-3---------------------------------|
D#|-0---0-0-0-0-0-0-----------------5---5-5-5-5-5-5-3---3---2---2---|

F#|-----------------------------------------------------------------|
C#|-----------------------------------------------------------------|
G#|-----------------3---3-3-3-3-3-3-------------------------5---5---|
D#|-0---0-0-0-0-0-0-----------------5---5-5-5-5-5-5-3---3-----------|

1:02
F#|-----------------------------------------------------------------|
C#|-----------------------------------------------------------------|
G#|---------7-----2-3---3---3-----3---------------------------------|
D#|-0---0---------------------------5---5-5---5-5-5-3---3---2---2---|

F#|-----------------------------------------------------------------|
C#|-----------------------------------------------------------------|
G#|-----------------3---3-3-3-3-3-3-------------------------5---5---|
D#|-0---0-0-0-0-0-0-----------------5---5-5-5-5-5-5-3---3-----------|

1:11
F#|-----------------------------------------------------------------|
C#|-----------------------------------------------------------------|
G#|-3---3-3---3-3-3---3-3-3-------------------------2---------------|
D#|---------------------------3-3-3-5---5-5-5-5-5-5-----------------|

1:16
F#|-----------------------------------------------------------------|
C#|-----------------------------------------------------------------|
G#|-------------------------------------------------5---------------|
D#|-0---0-3-2-3-2-0-0---0-3-0-3-4-5-0---0-3-2-3-2-0-----------------|

1:21
F#|---------------------------------------------------|
C#|o-------------------------------------------------o|
G#|o-----------------------------------------5---5---o|
D#|--0---------------0---0-----------3---3------------|

1:28
F#|-------------------------------------------------|
C#|---------------5---------------------------------|
G#|-----7---7-------------------------------5---5---|
D#|-0-----------0-------0---0---0---3---3-----------|

F#|-----------------------------------------------------------------|
C#|-----------------------------------------------------------------|
G#|-3---3-3-3-3-3---3---3-3-3-3-3---3---3-3-3-3-3-----------5---5---|
D#|-------------------------------------------------3---3-----------|

1:36
F#|-----------------------------------------------------------------|
C#|-----------------------------------------------------------------|
G#|-0---0---0---0---0---0---0---0-2-----2---2---2---5---------------|
D#|-----------------------------------------------------------------|

1:40
F#|-----------------------------------------------------------------|
C#|-----------------------------------------------------------------|
G#|-----------------3---3-3-3-3-3-3---------------------------------|
D#|-0---0-0-0-0-0-0-----------------5---5-5-5-5-5-5-3---3---2---2---|

F#|-----------------------------------------------------------------|
C#|-----------------------------------------------------------------|
G#|-----------------3---3-3-3-3-3-3-------------------------5---5---|
D#|-0---0-0-0-0-0-0-----------------5---5-5-5-5-5-5-3---3-----------|

1:50
F#|-----------------------------------------------------------------|
C#|-----------------------------------------------------------------|
G#|---------7-----2-3---3---3-----3---------------------------------|
D#|-0---0---------------------------5---5-5---5-5-5-3---3---2---2---|

F#|-----------------------------------------------------------------|
C#|-----------------------------------------------------------------|
G#|-----------------3---3-3-3-3-3-3-------------------------5---5---|
D#|-0---0-0-0-0-0-0-----------------5---5-5-5-5-5-5-3---3-----------|

2:00
F#|-----------------------------------------------------------------|
C#|-----------------------------------------------------------------|
G#|-3---3-3---3-3-3---3-3-3-------------------------2---------------|
D#|---------------------------3-3-3-5---5-5-5-5-5-5-----------------|

2:04
F#|-----------------------------------------------------------------|
C#|-----------------------------------------------------------------|
G#|-----------------------------------------------------------------|
D#|-0---------------------------------------------------------------|

F#|-----------------------------------------------------------------|
C#|-----------------------------------------------------------------|
G#|-----------------------------------------------------------------|
D#|-(0)-------------------------------------------------------------|

F#|-----------------------------------------------------------------|
C#|-----------------------------------------------------------------|
G#|-----------------------------------------------------------------|
D#|-0-------------------------------2-------------------------------|

F#|-----------------------------------------------------------------|
C#|-----------------------------------------------------------------|
G#|-----------------------------------------------------------------|
D#|-3-------------------------------5-------------------------------|

F#|-----------------------------------------------------------------|
C#|-14------------------------------12---------------17-----16------|
G#|-----------------------------------------------------------------|
D#|-----------------------------------------------------------------|

F#|-----------------------------------------------------------------|
C#|-10--------------------------------------------------------------|
G#|---------------------------------3---3---3---3---5---5---5---5---|
D#|-----------------------------------------------------------------|

2:33
F#|--------------------------------------------------------------12h14-|
C#|--------------------------------------------------------------------|
G#|--------------------------------------------------------------------|
D#|-3------------------------------------------------------------------|

F#|-12--------------------------------------------------------------|
C#|-----------------------------------------------------------------|
G#|-----------------------------------------------------------------|
D#|-------------------------------------------------------------0---|

F#|-----------------------------------------------------------------|
C#|-----------------------------------------------------------------|
G#|-------------------------------------------------3---3---3---3---|
D#|-3---3---3---3---5---5---5---5---0---0---0---0-------------------|

F#|---------------------------------------------------------------------|
C#|---------------------------------------------------------------------|
G#|-------------------------------------------------3---3---3---3---3---|
D#|-3---3---3---3---5---5---5---5---0---0---0---0-----------------------|

F#|-----------------------------------------------------------------|
C#|-----------------------------------------------------------------|
G#|-------------------------------------------------3---3---3---3---|
D#|-3---3---3---3---5---5---5---5---0---0---0---0-------------------|

F#|-----------------------------------------------------------------|
C#|-----------------------------------------------------------------|
G#|---------------------------------7---7---7-------3---3---3---3---|
D#|-3---3---3---3---5---5---5---5-----------------------------------|

3:02
F#|-----------------------------------------------------------------|
C#|-5---5---9---5---7---0---0---0---2---2---4---5-------------------|
G#|-------------------------------------------------3---3---3---3---|
D#|-----------------------------------------------------------------|

3:08
F#|---------------------------------|
C#|---------------------------------|
G#|---------------------------------|
D#|-3---3---3---3---5---5---5---5---|

F#|-----------------------------------------------------------------|
C#|------------------10-------------7---------------5---5---4---4---|
G#|-7---------------------------------------------------------------|
D#|-0----------------8--------------5---------------3---3---2---2---|

F#|-----------------------------------------------------------------|
C#|------------------10-------------7-------------------------------|
G#|-7---------------------------------------------------------------|
D#|-0----------------8--------------5---------------3---------------|

3:19
F#|-----------------------------------------------------------------|
C#|-----------------------------------------------------------------|
G#|-----------------3---3-3---3-3-3---------------------------------|
D#|-0---0-0---0-0-0-----------------5---5-5---5-5-5-3---3---2---2---|

F#|-----------------------------------------------------------------|
C#|-----------------------------------------------------------------|
G#|-----------------3---3-3-3-3-3-3-------------------------5---5---|
D#|-0---0-0-0-0-0-0-----------------5---5-5-5-5-5-5-3---3-----------|

F#|-----------------------------------------------------------------|
C#|-----------------------------------------------------------------|
G#|---------7-----2-3---3---3-----3---------------------------------|
D#|-0---0---------------------------5---5-5---5-5-5-3---3---2---2---|

F#|-----------------------------------------------------------------|
C#|-----------------------------------------------------------------|
G#|-----------------3---3-3-3-3-3-3-------------------------5---5---|
D#|-0---0-0-0-0-0-0-----------------5---5-5-5-5-5-5-3---3-----------|

2:00
F#|-----------------------------------------------------------------|
C#|-----------------------------------------------------------------|
G#|-3---3-3---3-3-3---3-3-3-------------------------2---------------|
D#|---------------------------3-3-3-5---5-5-5-5-5-5-----------------|
Tabbed by Dave Vucko
comments
We did not receive enough feedback on this tab! Please rate:
print report bad tab
1 2 3 4 5
1 comment total.
0 reply
micah3639 wrote on June 6 2014, 09:33 pm

Great tab! Lyrics would help, but it's very accurate from what I can tell!

I want to post or [tab]
guest
You may want to rate the tab now too:
select rating
Please do not post tabs as comments. Select "correction" instead!