Oops, an error
Loading. Please wait.

A Gentlemens Coup Tab

ver1
ver1

Whole song

Interactive

More versions @911Tabs.com
15,444 views 45 this week
2 commentsread comments
1 2 3 4 5
excellent!
x 8
Autoscroll
+/-
esc
set tempo
stop
Contributor
Difficulty
Tuning
intermediate
D# G# C# F# A# D#
Hey! There's an official Ultimate Guitar app which is ideal
for learning songs when you're away from computer. Get the app
WARNING: You are trying to view
                                    content from Ultimate-Guitar.com
                                    in an unauthorized application,
                                    which is prohibited.

                                    Please use an official Ultimate
                                    Guitar Tabs application for iPhone,
                                    iPad or Android to access legitimate
                                    chords, guitar, bass, and drum tabs
                                    from Ultimate-Guitar.com database.

                                    Type "ultimate guitar tabs" in Apple
                                    App Store's or Android Market's
                                    search to find the application.
Tabbed by: Joshua Garcia (joshuag523@aol.com)

Tabs for the song: A Gentlemen's Coup by Rise Against
Please rate and let me know if you have any corrections. Thank you.


Tuning: Half-Step Down (D# G# C# F# A# D#)


Intro
Guitar 1:
D#||--------------------------------------------------------|
A#||--------------------------------------------------------|
F#||--------------------------------------------------7--9--|
C#||--9b10------9---9b10------9---9b10------9---9--99-------|
G#||-------7777---7------7777---7------7777---7-------------|
D#||--------------------------------------------------------|


Guitar 2:
D#||--------------|
A#||--------------|
F#||--------------|
C#||---pick-------|
G#||------slide---|
D#||--------------|



Pre-Verse
Guitar 1:
D#||--------------------------------------------------------|
A#||--------------------------------------------------------|
F#||--------------------------------------------------7--9--|
C#||--9b10------9---9b10------9---9b10------9---9--99-------|
G#||-------7777---7------7777---7------7777---7-------------|
D#||--------------------------------------------------------|


D#||---------------------------------------------------------|
A#||--------------------------------------------------'7-----|
F#||-----------------------------------------------------'7--|
C#||--9b10------9---9b10------9---9b10------9---9--99--------|
G#||-------7777---7------7777---7------7777---7--------------|
D#||---------------------------------------------------------|


Guitar 2:
D#||-----------------------------------------|
A#||-----------------------------------------|
F#||-----------5-55-555----------------------| x2
C#||--2-22-222-5-55-555-7-77-777-5--5--4--4--|
G#||--2-22-222-3-33-333-7-77-777-5--5--4--4--|
D#||--0-00-000----------5-55-555-3--3--2--2--|



Guitar 1:
D#||--------------------------------------------------------|
A#||--------------------------------------------------------|
F#||--------------------------------------------------7--9--| x2
C#||--9b10------9---9b10------9---9b10------9---9--99-------|
G#||-------7777---7------7777---7------7777---7-------------|
D#||--------------------------------------------------------|


Guitar 2:
D#||--------------------------------------------------------------------|
A#||--------------------------------------------------------------------|
F#||--9--999-11/-12----11--999-11/-12----7--777\4-4----14--14---12-10---|
C#||--x--xxx-x-/-x-----x---xxx-x-/-x-----x--xxx\x-x----x---x----x--x----|
G#||--7--777-9-/-10----9---777-9-/-10----5--555\2-2----12--12---10-9----|
D#||--------------------------------------------------------------------|


D#||----------------------------------------------------|
A#||----------------------------------------------------|
F#||--9--999-11/-12----11--999-11/-12----7--777777--4---|
C#||--x--xxx-x-/-x-----x---xxx-x-/-x-----x--xxxxxx--x---|
G#||--7--777-9-/-10----9---777-9-/-10----5--555555--2---|
D#||----------------------------------------------------|



Verse
Guitar 1/2:
D#||-----------------------------|
A#||-----------------------------|
F#||------------------------7-7--| x3
C#||--2------2-2------5-5---7-7--|
G#||--2------2-2------5-5---5-5--|
D#||--0------0-0------3-3--------|


Guitar 1:
D#||-----------------------------------------------|
A#||-----------------------------------------------|
F#||--5-55555----5-55555----5-55555----------7-7---|
C#||--5-55555----5-55555----5-55555----5-5---7-7---|
G#||--3-33333----3-33333----3-33333----5-5---5-5---|
D#||-----------------------------------3-3---------|


Guitar 2:
D#||-------------------------------------------------------------------|
A#||-------------------------------------------------------------------|
F#||-------------------------------------------------------------------|
C#||---7--5-4-5-4------7--5-4-5-4------7--5-4-5-4------7--5-4-5-4------|
G#||--------------5---------------5---------------5---------------7-7--|
D#||-------------------------------------------------------------------|


Guitar 1/2:
D#||-----------------------------|
A#||-----------------------------|
F#||------------------------7-7--| x2
C#||--2------2-2------5-5---7-7--|
G#||--2------2-2------5-5---5-5--|
D#||--0------0-0------3-3--------|


D#||---------------------------|
A#||---------------------------|
F#||-----------------------7---|
C#||--2-------2-------5----7---|
G#||--2-------2-------5----5---|
D#||--0--0-0-00--0-0-03--------|
         . . .   . . .


Guitar 1:
D#||-----------------------------------------------|
A#||-----------------------------------------------|
F#||--5-55555----5-55555----5-55555----------7-7---|
C#||--5-55555----5-55555----5-55555----5-5---7-7---|
G#||--3-33333----3-33333----3-33333----5-5---5-5---|
D#||-----------------------------------3-3---------|


Guitar 2:
D#||-------------------------------------------------------------------|
A#||-------------------------------------------------------------------|
F#||-------------------------------------------------------------------|
C#||---7--5-4-5-4------7--5-4-5-4------7--5-4-5-4------7--5-4-----4-5--|
G#||--------------5---------------5---------------5-----------5-7------|
D#||-------------------------------------------------------------------|



Chorus
Guitar 1:
D#||--------------------------------------------------------|
A#||--------------------------------------------------------|
F#||--------------------------------------------------7--9--|
C#||--9b10------9---9b10------9---9b10------9---9--99-------|
G#||-------7777---7------7777---7------7777---7-------------|
D#||--------------------------------------------------------|


D#||---------------------------------------------------------|
A#||--------------------------------------------------'7-----|
F#||-----------------------------------------------------'7--|
C#||--9b10------9---9b10------9---9b10------9---9--99--------|
G#||-------7777---7------7777---7------7777---7--------------|
D#||---------------------------------------------------------|


D#||---------------------------------------------------------|
A#||---------------------------------------------------------|
F#||--9-99-999-12-1212-121212-14-1414-141414-16-1616-161616--|
C#||--x-xx-xxx-x--x-x--x-x-x--x--x-x--x-x-x--x--x-x--x-x-x---|
G#||--7-77-777-10-1010-101010-12-1212-121212-14-1414-141414--|
D#||---------------------------------------------------------|


D#||---------------------------------------------------------|
A#||---------------------------------------------------------|
F#||--9-99-999-12-1212-111111-12-1212-121212-14-1414-141414--|
C#||--x-xx-xxx-x--x-x--x-x-x--x--x-x--x-x-x--x--x-x--x-x-x---|
G#||--7-77-777-10-1010-9-9-9--10-1010-101010-12-1212-121212--|
D#||---------------------------------------------------------|


Guitar 2:
D#||-----------------------------------------|
A#||-----------------------------------------|
F#||-----------5-55-555----------------------| x4
C#||--2-22-222-5-55-555-7-77-777-5--5--4--4--|
G#||--2-22-222-3-33-333-7-77-777-5--5--4--4--|
D#||--0-00-000----------5-55-555-3--3--2--2--|


Guitar 1:
D#||----------------------------------------------------|
A#||----------------------------------------------------|
F#||--16-1616-161616-16-1616-121212-14-1414-141414-16---|
C#||--x--x-x--x-x-x--x--x-x--x-x-x--x--x-x--x-x-x--x----|
G#||--14-1414-141414-14-1414-101010-12-1212-121212-14---|
D#||----------------------------------------------------|


Guitar 2:
D#||---------------------------------|
A#||---------------------------------|
F#||--5-55-555-5-55-555-2-22-222-4---|
C#||--5-55-555-5-55-555-2-22-222-4---|
G#||--3-33-333-3-33-333-0-00-000-2---|
D#||---------------------------------|


Guitar 1/2:
D#||----------------------|
A#||----------------------|
F#||---2~-----------------|
C#||---0~------------2b---|
G#||----------------------|
D#||----------------------|



Verse
Guitar 1/2:
D#||-----------------------------|
A#||-----------------------------|
F#||------------------------7-7--| x2
C#||--2------2-2------5-5---7-7--|
G#||--2------2-2------5-5---5-5--|
D#||--0------0-0------3-3--------|


D#||---------------------------|
A#||---------------------------|
F#||-----------------------7---|
C#||--2-------2-------5----7---|
G#||--2-------2-------5----5---|
D#||--0--0-0-00--0-0-03--------|
         . . .   . . .

Guitar 1:
D#||-----------------------------------------------|
A#||-----------------------------------------------|
F#||--5-55555----5-55555----5-55555----------7-7---|
C#||--5-55555----5-55555----5-55555----5-5---7-7---|
G#||--3-33333----3-33333----3-33333----5-5---5-5---|
D#||-----------------------------------3-3---------|


Guitar 2:
D#||-------------------------------------------------------------------|
A#||-------------------------------------------------------------------|
F#||-------------------------------------------------------------------|
C#||---7--5-4-5-4------7--5-4-5-4------7--5-4-5-4------7--5-4-5-4------|
G#||--------------5---------------5---------------5---------------7-7--|
D#||-------------------------------------------------------------------|



Pre-Chorus
Guitar 1:
D#||--------------------------------------|
A#||--------------------------------------|
F#||--9---9-9-9-7-7-4-4-10--10-10-10-12---|
C#||--x---x-x-x-x-x-x-x-x---x--x--x--x----|
G#||--7---7-7-7-5-5-2-2-9---9--9--9--10---|
D#||--------------------------------------|


Guitar 2:
D#||------------------------------|
A#||------------------------------|
F#||--2---------------4------4-7--|
C#||--2---------------4------4-7--|
G#||--0--0-0-0-0-0-0-02--2-2-2-5--|
D#||------------------------------|
         . . . . . . .   . .


Chorus
Guitar 1:
D#||--------------------------------------------------------|
A#||--------------------------------------------------------|
F#||--------------------------------------------------7--9--|
C#||--9b10------9---9b10------9---9b10------9---9--99-------|
G#||-------7777---7------7777---7------7777---7-------------|
D#||--------------------------------------------------------|


D#||---------------------------------------------------------|
A#||--------------------------------------------------'7-----|
F#||-----------------------------------------------------'7--|
C#||--9b10------9---9b10------9---9b10------9---9--99--------|
G#||-------7777---7------7777---7------7777---7--------------|
D#||---------------------------------------------------------|


D#||---------------------------------------------------------|
A#||---------------------------------------------------------|
F#||--9-99-999-12-1212-121212-14-1414-141414-16-1616-161616--|
C#||--x-xx-xxx-x--x-x--x-x-x--x--x-x--x-x-x--x--x-x--x-x-x---|
G#||--7-77-777-10-1010-101010-12-1212-121212-14-1414-141414--|
D#||---------------------------------------------------------|


D#||---------------------------------------------------------|
A#||---------------------------------------------------------|
F#||--9-99-999-12-1212-111111-12-1212-121212-14-1414-141414--|
C#||--x-xx-xxx-x--x-x--x-x-x--x--x-x--x-x-x--x--x-x--x-x-x---|
G#||--7-77-777-10-1010-9-9-9--10-1010-101010-12-1212-121212--|
D#||---------------------------------------------------------|


Guitar 2:
D#||-----------------------------------------|
A#||-----------------------------------------|
F#||-----------5-55-555----------------------| x4
C#||--2-22-222-5-55-555-7-77-777-5--5--4--4--|
G#||--2-22-222-3-33-333-7-77-777-5--5--4--4--|
D#||--0-00-000----------5-55-555-3--3--2--2--|


Guitar 1:
D#||----------------------------------------------------|
A#||----------------------------------------------------|
F#||--16-1616-161616-16-1616-121212-14-1414-141414-16---|
C#||--x--x-x--x-x-x--x--x-x--x-x-x--x--x-x--x-x-x--x----|
G#||--14-1414-141414-14-1414-101010-12-1212-121212-14---|
D#||----------------------------------------------------|


Guitar 2:
D#||---------------------------------|
A#||---------------------------------|
F#||--5-55-555-5-55-555-2-22-222-4---|
C#||--5-55-555-5-55-555-2-22-222-4---|
G#||--3-33-333-3-33-333-0-00-000-2---|
D#||---------------------------------|



Breakdown
Guitar 1:
D#||------------|--------------------------------------|
A#||------------|--------------------------------------|
F#||------------|--------------------------------------|
C#||------------|----------------------------------x7--|
G#||--7---------|-7-----7---------7-----7--------------|
D#||----0-0-0-0-|---0-0---0-0-0-0---0-0---0-0-0-0------|
        . . . .     . .   . . . .   . .   . . . .

D#||-----------------------------------|
A#||-----------------------------------|
F#||--9-----9\7---------7/9---9--------| x2
C#||--x-----x\x---------x/x---x--------|
G#||--7-----7\5---------5/7---7--------|
D#||----0-0-----0-0-0-0-----0---0-0-0--|
        . .     . . . .     .   . . .

D#||-------------------------------------------------------------------|
A#||-------------------------------------------------------------------|
F#||--9-----9\7---------7/9------12--12--12--12--10--10--10--10--12~---| 
C#||--x-----x\x---------x/x------x---x---x---x---x---x---x---x---x-~---|
G#||--7-----7\5---------5/7------10--10--10--10--9---9---9---9---10~---|
D#||----0-0-----0-0-0-0-----0-0----------------------------------------|
        . .     . . . .     . .


Guitar 2:
D#||------0~------|
A#||------0~------|
F#||--------------|
C#||--------------|
G#||--------------|
D#||--------------|


D#||---0~----------0~----------0~----------0~---|
A#||---0~----------0~----------0~----------0~---|
F#||--------------------------------------------|
C#||--------------------------------------------|
G#||-----------4-----------5-----------7--------|
D#||-----------2-----------3-----------5--------|


D#||-------------------------------------------------------------------|
A#||-------------------------------------------------------------------|
F#||---9~------7~------5~--------12--12--12--12--10--10--10--10--12~---|
C#||---x~------x~------x~--------x---x---x---x---x---x---x---x---x-~---|
G#||---7~------5~------3~--------10--10--10--10--9---9---9---9---10~---|
D#||-------------------------------------------------------------------|



Interlude
Guitar 1:
D#||-------------------------------------|
A#||-------------------------------------|
F#||---7-7-7-7-5-5-5-5-4-4-4-4-5-5-5-5---| x4
C#||---5-5-5-5-7-7-7-7-2-2-2-2-5-5-5-5---|
G#||-------------------------------------|
D#||-------------------------------------|


Guitar 2:
D#||-------------------------|--------------------------------------------------------|
A#||-------------------------|--------------------------------------------------------|
F#||---(12)------------------|--12----12----12----12----12----12----12----12----------|
C#||---(x-)------------------|-----12----12----12----12----12----12----12----12---x2--|
G#||---(10)------10h12p10----|--------------------------------------------------------|
D#||-------------------------|--------------------------------------------------------|


Guitar 1:
D#||---------|
A#||---------|
F#||--4-2-4--|
C#||---------|
G#||---------|
D#||---------|


Guitar 2:
D#||-------------|
A#||-------------|
F#||--11-12--14--|
C#||--x--x---x---|
G#||--9--10--12--|
D#||-------------|



Bridge
Guitar 1:
D#||------------------------------------|
A#||------------------------------------|
F#||---------------------------5-4-2-4--| x2
C#||--5-5-5-5-7-7-7-7-2-2-2-2-----------|
G#||--5-5-5-5-7-7-7-7-2-2-2-2-----------|
D#||--3-3-3-3-5-5-5-5-0-0-0-0-----------|


D#||------------------------------------|
A#||--7-7-7-7-7-7-7-7-7-7-7-7-----------|
F#||--x-x-x-x-x-x-x-x-x-x-x-x--5-4-2-4--|
C#||--5-5-5-5-5-5-5-5-5-5-5-5-----------|
G#||------------------------------------|
D#||------------------------------------|


D#||---------------------------|
A#||--7-7-7-7-7-7-7-7-7-7-7-7--|
F#||--x-x-x-x-x-x-x-x-x-x-x-x--|
C#||--5-5-5-5-5-5-5-5-5-5-5-5--|
G#||---------------------------|
D#||---------------------------|


Guitar 2:
D#||-----------------------------------|
A#||-----------------------------------|
F#||--------------------------5-5-5-5--| x3
C#||--5-5-5-5-7-7-7-7-2-2-2-2-5-5-5-5--|
G#||--5-5-5-5-7-7-7-7-2-2-2-2-3-3-3-3--|
D#||--3-3-3-3-5-5-5-5-0-0-0-0----------|



Pre-Chorus
Guitar 1:
D#||--------------------------------------------------------|
A#||--------------------------------------------------------|
F#||--------------------------------------------------7--9--| x2
C#||--9b10------9---9b10------9---9b10------9---9--99-------|
G#||-------7777---7------7777---7------7777---7-------------|
D#||--------------------------------------------------------|


Guitar 2:
D#||----------------------'12---------------|
A#||-----------------'7---------------------|
F#||------------'5--------------pick--------|
C#||--(2~)-------------------------slide----|
G#||----------------------------------------|
D#||----------------------------------------|



Chorus
Guitar 1/2:
D#||-----------------------------------------|
A#||-----------------------------------------|
F#||-----------5-55-555----------------------| x2
C#||--2-22-222-5-55-555-7-77-777-5--5--4--5--|
G#||--2-22-222-3-33-333-7-77-777-5--5--4--5--|
D#||--0-00-000----------5-55-555-3--3--2--3--|


Guitar 1:
D#||---------------------------------------------------------|
A#||---------------------------------------------------------|
F#||--9-99-999-12-1212-121212-14-1414-141414-16-1616-11--12--|
C#||--x-xx-xxx-x--x-x--x-x-x--x--x-x--x-x-x--x--x-x--x---x---|
G#||--7-77-777-10-1010-101010-12-1212-121212-14-1414-9---10--|
D#||---------------------------------------------------------|


D#||---------------------------------------------------------|
A#||---------------------------------------------------------|
F#||--9-99-999-12-1212-111111-12-1212-121212-14-1414-141414--|
C#||--x-xx-xxx-x--x-x--x-x-x--x--x-x--x-x-x--x--x-x--x-x-x---|
G#||--7-77-777-10-1010-9-9-9--10-1010-101010-12-1212-121212--|
D#||---------------------------------------------------------|


Guitar 2:
D#||---------------------------------------------------------------|
A#||---------------------------------------------------------------|
F#||--/16-99-999-12-1212-121212-/16-14-1414-141414-16-1616-11--12--|
C#||--/x--xx-xxx-x--x-x--x-x-x--/x--x--xx---x-x-x--x--x-x--x---x---|
G#||--/14-77-777-10-1010-101010-/14-12-1212-121212-14-1414-9---10--|
D#||---------------------------------------------------------------|


D#||---------------------------------------------------------------|
A#||---------------------------------------------------------------|
F#||--/16-99-999-12-1212-121212-/16-12-1212-121212-14-1414-141414--|
C#||--/x--xx-xxx-x--x-x--x-x-x--/x--x--xx---x-x-x--x--x-x--x-x-x---|
G#||--/14-77-777-10-1010-101010-/14-10-1010-101010-12-1212-121212--|
D#||---------------------------------------------------------------|



Outro
Guitar 1:
D#||----------------------------------------------------|
A#||----------------------------------------------------|
F#||--16-1616-161616-16-1616-121212-14-1414-141414-16---|
C#||--x--x-x--x-x-x--x--x-x--x-x-x--x--x-x--x-x-x--x----|
G#||--14-1414-141414-14-1414-101010-12-1212-121212-14---|
D#||----------------------------------------------------|


Guitar 2:
D#||---------------------------------|
A#||---------------------------------|
F#||--5-55-555-5-55-555-2-22-222-4---|
C#||--5-55-555-5-55-555-2-22-222-4---|
G#||--3-33-333-3-33-333-0-00-000-2---|
D#||---------------------------------|





Tablature Legend
----------------
Tabbed by: Joshua Garcia (joshuag523@aol.com)

Tabs for the song: A Gentlemen's Coup by Rise Against
Please rate and let me know if you have any corrections. Thank you.


Tuning: Half-Step Down (D# G# C# F# A# D#)


Intro
Guitar 1:
D#||--------------------------------------------------------|
A#||--------------------------------------------------------|
F#||--------------------------------------------------7--9--|
C#||--9b10------9---9b10------9---9b10------9---9--99-------|
G#||-------7777---7------7777---7------7777---7-------------|
D#||--------------------------------------------------------|


Guitar 2:
D#||--------------|
A#||--------------|
F#||--------------|
C#||---pick-------|
G#||------slide---|
D#||--------------|



Pre-Verse
Guitar 1:
D#||--------------------------------------------------------|
A#||--------------------------------------------------------|
F#||--------------------------------------------------7--9--|
C#||--9b10------9---9b10------9---9b10------9---9--99-------|
G#||-------7777---7------7777---7------7777---7-------------|
D#||--------------------------------------------------------|


D#||---------------------------------------------------------|
A#||--------------------------------------------------'7-----|
F#||-----------------------------------------------------'7--|
C#||--9b10------9---9b10------9---9b10------9---9--99--------|
G#||-------7777---7------7777---7------7777---7--------------|
D#||---------------------------------------------------------|


Guitar 2:
D#||-----------------------------------------|
A#||-----------------------------------------|
F#||-----------5-55-555----------------------| x2
C#||--2-22-222-5-55-555-7-77-777-5--5--4--4--|
G#||--2-22-222-3-33-333-7-77-777-5--5--4--4--|
D#||--0-00-000----------5-55-555-3--3--2--2--|



Guitar 1:
D#||--------------------------------------------------------|
A#||--------------------------------------------------------|
F#||--------------------------------------------------7--9--| x2
C#||--9b10------9---9b10------9---9b10------9---9--99-------|
G#||-------7777---7------7777---7------7777---7-------------|
D#||--------------------------------------------------------|


Guitar 2:
D#||--------------------------------------------------------------------|
A#||--------------------------------------------------------------------|
F#||--9--999-11/-12----11--999-11/-12----7--777\4-4----14--14---12-10---|
C#||--x--xxx-x-/-x-----x---xxx-x-/-x-----x--xxx\x-x----x---x----x--x----|
G#||--7--777-9-/-10----9---777-9-/-10----5--555\2-2----12--12---10-9----|
D#||--------------------------------------------------------------------|


D#||----------------------------------------------------|
A#||----------------------------------------------------|
F#||--9--999-11/-12----11--999-11/-12----7--777777--4---|
C#||--x--xxx-x-/-x-----x---xxx-x-/-x-----x--xxxxxx--x---|
G#||--7--777-9-/-10----9---777-9-/-10----5--555555--2---|
D#||----------------------------------------------------|



Verse
Guitar 1/2:
D#||-----------------------------|
A#||-----------------------------|
F#||------------------------7-7--| x3
C#||--2------2-2------5-5---7-7--|
G#||--2------2-2------5-5---5-5--|
D#||--0------0-0------3-3--------|


Guitar 1:
D#||-----------------------------------------------|
A#||-----------------------------------------------|
F#||--5-55555----5-55555----5-55555----------7-7---|
C#||--5-55555----5-55555----5-55555----5-5---7-7---|
G#||--3-33333----3-33333----3-33333----5-5---5-5---|
D#||-----------------------------------3-3---------|


Guitar 2:
D#||-------------------------------------------------------------------|
A#||-------------------------------------------------------------------|
F#||-------------------------------------------------------------------|
C#||---7--5-4-5-4------7--5-4-5-4------7--5-4-5-4------7--5-4-5-4------|
G#||--------------5---------------5---------------5---------------7-7--|
D#||-------------------------------------------------------------------|


Guitar 1/2:
D#||-----------------------------|
A#||-----------------------------|
F#||------------------------7-7--| x2
C#||--2------2-2------5-5---7-7--|
G#||--2------2-2------5-5---5-5--|
D#||--0------0-0------3-3--------|


D#||---------------------------|
A#||---------------------------|
F#||-----------------------7---|
C#||--2-------2-------5----7---|
G#||--2-------2-------5----5---|
D#||--0--0-0-00--0-0-03--------|
         . . .   . . .


Guitar 1:
D#||-----------------------------------------------|
A#||-----------------------------------------------|
F#||--5-55555----5-55555----5-55555----------7-7---|
C#||--5-55555----5-55555----5-55555----5-5---7-7---|
G#||--3-33333----3-33333----3-33333----5-5---5-5---|
D#||-----------------------------------3-3---------|


Guitar 2:
D#||-------------------------------------------------------------------|
A#||-------------------------------------------------------------------|
F#||-------------------------------------------------------------------|
C#||---7--5-4-5-4------7--5-4-5-4------7--5-4-5-4------7--5-4-----4-5--|
G#||--------------5---------------5---------------5-----------5-7------|
D#||-------------------------------------------------------------------|



Chorus
Guitar 1:
D#||--------------------------------------------------------|
A#||--------------------------------------------------------|
F#||--------------------------------------------------7--9--|
C#||--9b10------9---9b10------9---9b10------9---9--99-------|
G#||-------7777---7------7777---7------7777---7-------------|
D#||--------------------------------------------------------|


D#||---------------------------------------------------------|
A#||--------------------------------------------------'7-----|
F#||-----------------------------------------------------'7--|
C#||--9b10------9---9b10------9---9b10------9---9--99--------|
G#||-------7777---7------7777---7------7777---7--------------|
D#||---------------------------------------------------------|


D#||---------------------------------------------------------|
A#||---------------------------------------------------------|
F#||--9-99-999-12-1212-121212-14-1414-141414-16-1616-161616--|
C#||--x-xx-xxx-x--x-x--x-x-x--x--x-x--x-x-x--x--x-x--x-x-x---|
G#||--7-77-777-10-1010-101010-12-1212-121212-14-1414-141414--|
D#||---------------------------------------------------------|


D#||---------------------------------------------------------|
A#||---------------------------------------------------------|
F#||--9-99-999-12-1212-111111-12-1212-121212-14-1414-141414--|
C#||--x-xx-xxx-x--x-x--x-x-x--x--x-x--x-x-x--x--x-x--x-x-x---|
G#||--7-77-777-10-1010-9-9-9--10-1010-101010-12-1212-121212--|
D#||---------------------------------------------------------|


Guitar 2:
D#||-----------------------------------------|
A#||-----------------------------------------|
F#||-----------5-55-555----------------------| x4
C#||--2-22-222-5-55-555-7-77-777-5--5--4--4--|
G#||--2-22-222-3-33-333-7-77-777-5--5--4--4--|
D#||--0-00-000----------5-55-555-3--3--2--2--|


Guitar 1:
D#||----------------------------------------------------|
A#||----------------------------------------------------|
F#||--16-1616-161616-16-1616-121212-14-1414-141414-16---|
C#||--x--x-x--x-x-x--x--x-x--x-x-x--x--x-x--x-x-x--x----|
G#||--14-1414-141414-14-1414-101010-12-1212-121212-14---|
D#||----------------------------------------------------|


Guitar 2:
D#||---------------------------------|
A#||---------------------------------|
F#||--5-55-555-5-55-555-2-22-222-4---|
C#||--5-55-555-5-55-555-2-22-222-4---|
G#||--3-33-333-3-33-333-0-00-000-2---|
D#||---------------------------------|


Guitar 1/2:
D#||----------------------|
A#||----------------------|
F#||---2~-----------------|
C#||---0~------------2b---|
G#||----------------------|
D#||----------------------|



Verse
Guitar 1/2:
D#||-----------------------------|
A#||-----------------------------|
F#||------------------------7-7--| x2
C#||--2------2-2------5-5---7-7--|
G#||--2------2-2------5-5---5-5--|
D#||--0------0-0------3-3--------|


D#||---------------------------|
A#||---------------------------|
F#||-----------------------7---|
C#||--2-------2-------5----7---|
G#||--2-------2-------5----5---|
D#||--0--0-0-00--0-0-03--------|
         . . .   . . .

Guitar 1:
D#||-----------------------------------------------|
A#||-----------------------------------------------|
F#||--5-55555----5-55555----5-55555----------7-7---|
C#||--5-55555----5-55555----5-55555----5-5---7-7---|
G#||--3-33333----3-33333----3-33333----5-5---5-5---|
D#||-----------------------------------3-3---------|


Guitar 2:
D#||-------------------------------------------------------------------|
A#||-------------------------------------------------------------------|
F#||-------------------------------------------------------------------|
C#||---7--5-4-5-4------7--5-4-5-4------7--5-4-5-4------7--5-4-5-4------|
G#||--------------5---------------5---------------5---------------7-7--|
D#||-------------------------------------------------------------------|



Pre-Chorus
Guitar 1:
D#||--------------------------------------|
A#||--------------------------------------|
F#||--9---9-9-9-7-7-4-4-10--10-10-10-12---|
C#||--x---x-x-x-x-x-x-x-x---x--x--x--x----|
G#||--7---7-7-7-5-5-2-2-9---9--9--9--10---|
D#||--------------------------------------|


Guitar 2:
D#||------------------------------|
A#||------------------------------|
F#||--2---------------4------4-7--|
C#||--2---------------4------4-7--|
G#||--0--0-0-0-0-0-0-02--2-2-2-5--|
D#||------------------------------|
         . . . . . . .   . .


Chorus
Guitar 1:
D#||--------------------------------------------------------|
A#||--------------------------------------------------------|
F#||--------------------------------------------------7--9--|
C#||--9b10------9---9b10------9---9b10------9---9--99-------|
G#||-------7777---7------7777---7------7777---7-------------|
D#||--------------------------------------------------------|


D#||---------------------------------------------------------|
A#||--------------------------------------------------'7-----|
F#||-----------------------------------------------------'7--|
C#||--9b10------9---9b10------9---9b10------9---9--99--------|
G#||-------7777---7------7777---7------7777---7--------------|
D#||---------------------------------------------------------|


D#||---------------------------------------------------------|
A#||---------------------------------------------------------|
F#||--9-99-999-12-1212-121212-14-1414-141414-16-1616-161616--|
C#||--x-xx-xxx-x--x-x--x-x-x--x--x-x--x-x-x--x--x-x--x-x-x---|
G#||--7-77-777-10-1010-101010-12-1212-121212-14-1414-141414--|
D#||---------------------------------------------------------|


D#||---------------------------------------------------------|
A#||---------------------------------------------------------|
F#||--9-99-999-12-1212-111111-12-1212-121212-14-1414-141414--|
C#||--x-xx-xxx-x--x-x--x-x-x--x--x-x--x-x-x--x--x-x--x-x-x---|
G#||--7-77-777-10-1010-9-9-9--10-1010-101010-12-1212-121212--|
D#||---------------------------------------------------------|


Guitar 2:
D#||-----------------------------------------|
A#||-----------------------------------------|
F#||-----------5-55-555----------------------| x4
C#||--2-22-222-5-55-555-7-77-777-5--5--4--4--|
G#||--2-22-222-3-33-333-7-77-777-5--5--4--4--|
D#||--0-00-000----------5-55-555-3--3--2--2--|


Guitar 1:
D#||----------------------------------------------------|
A#||----------------------------------------------------|
F#||--16-1616-161616-16-1616-121212-14-1414-141414-16---|
C#||--x--x-x--x-x-x--x--x-x--x-x-x--x--x-x--x-x-x--x----|
G#||--14-1414-141414-14-1414-101010-12-1212-121212-14---|
D#||----------------------------------------------------|


Guitar 2:
D#||---------------------------------|
A#||---------------------------------|
F#||--5-55-555-5-55-555-2-22-222-4---|
C#||--5-55-555-5-55-555-2-22-222-4---|
G#||--3-33-333-3-33-333-0-00-000-2---|
D#||---------------------------------|



Breakdown
Guitar 1:
D#||------------|--------------------------------------|
A#||------------|--------------------------------------|
F#||------------|--------------------------------------|
C#||------------|----------------------------------x7--|
G#||--7---------|-7-----7---------7-----7--------------|
D#||----0-0-0-0-|---0-0---0-0-0-0---0-0---0-0-0-0------|
        . . . .     . .   . . . .   . .   . . . .

D#||-----------------------------------|
A#||-----------------------------------|
F#||--9-----9\7---------7/9---9--------| x2
C#||--x-----x\x---------x/x---x--------|
G#||--7-----7\5---------5/7---7--------|
D#||----0-0-----0-0-0-0-----0---0-0-0--|
        . .     . . . .     .   . . .

D#||-------------------------------------------------------------------|
A#||-------------------------------------------------------------------|
F#||--9-----9\7---------7/9------12--12--12--12--10--10--10--10--12~---| 
C#||--x-----x\x---------x/x------x---x---x---x---x---x---x---x---x-~---|
G#||--7-----7\5---------5/7------10--10--10--10--9---9---9---9---10~---|
D#||----0-0-----0-0-0-0-----0-0----------------------------------------|
        . .     . . . .     . .


Guitar 2:
D#||------0~------|
A#||------0~------|
F#||--------------|
C#||--------------|
G#||--------------|
D#||--------------|


D#||---0~----------0~----------0~----------0~---|
A#||---0~----------0~----------0~----------0~---|
F#||--------------------------------------------|
C#||--------------------------------------------|
G#||-----------4-----------5-----------7--------|
D#||-----------2-----------3-----------5--------|


D#||-------------------------------------------------------------------|
A#||-------------------------------------------------------------------|
F#||---9~------7~------5~--------12--12--12--12--10--10--10--10--12~---|
C#||---x~------x~------x~--------x---x---x---x---x---x---x---x---x-~---|
G#||---7~------5~------3~--------10--10--10--10--9---9---9---9---10~---|
D#||-------------------------------------------------------------------|



Interlude
Guitar 1:
D#||-------------------------------------|
A#||-------------------------------------|
F#||---7-7-7-7-5-5-5-5-4-4-4-4-5-5-5-5---| x4
C#||---5-5-5-5-7-7-7-7-2-2-2-2-5-5-5-5---|
G#||-------------------------------------|
D#||-------------------------------------|


Guitar 2:
D#||-------------------------|--------------------------------------------------------|
A#||-------------------------|--------------------------------------------------------|
F#||---(12)------------------|--12----12----12----12----12----12----12----12----------|
C#||---(x-)------------------|-----12----12----12----12----12----12----12----12---x2--|
G#||---(10)------10h12p10----|--------------------------------------------------------|
D#||-------------------------|--------------------------------------------------------|


Guitar 1:
D#||---------|
A#||---------|
F#||--4-2-4--|
C#||---------|
G#||---------|
D#||---------|


Guitar 2:
D#||-------------|
A#||-------------|
F#||--11-12--14--|
C#||--x--x---x---|
G#||--9--10--12--|
D#||-------------|



Bridge
Guitar 1:
D#||------------------------------------|
A#||------------------------------------|
F#||---------------------------5-4-2-4--| x2
C#||--5-5-5-5-7-7-7-7-2-2-2-2-----------|
G#||--5-5-5-5-7-7-7-7-2-2-2-2-----------|
D#||--3-3-3-3-5-5-5-5-0-0-0-0-----------|


D#||------------------------------------|
A#||--7-7-7-7-7-7-7-7-7-7-7-7-----------|
F#||--x-x-x-x-x-x-x-x-x-x-x-x--5-4-2-4--|
C#||--5-5-5-5-5-5-5-5-5-5-5-5-----------|
G#||------------------------------------|
D#||------------------------------------|


D#||---------------------------|
A#||--7-7-7-7-7-7-7-7-7-7-7-7--|
F#||--x-x-x-x-x-x-x-x-x-x-x-x--|
C#||--5-5-5-5-5-5-5-5-5-5-5-5--|
G#||---------------------------|
D#||---------------------------|


Guitar 2:
D#||-----------------------------------|
A#||-----------------------------------|
F#||--------------------------5-5-5-5--| x3
C#||--5-5-5-5-7-7-7-7-2-2-2-2-5-5-5-5--|
G#||--5-5-5-5-7-7-7-7-2-2-2-2-3-3-3-3--|
D#||--3-3-3-3-5-5-5-5-0-0-0-0----------|



Pre-Chorus
Guitar 1:
D#||--------------------------------------------------------|
A#||--------------------------------------------------------|
F#||--------------------------------------------------7--9--| x2
C#||--9b10------9---9b10------9---9b10------9---9--99-------|
G#||-------7777---7------7777---7------7777---7-------------|
D#||--------------------------------------------------------|


Guitar 2:
D#||----------------------'12---------------|
A#||-----------------'7---------------------|
F#||------------'5--------------pick--------|
C#||--(2~)-------------------------slide----|
G#||----------------------------------------|
D#||----------------------------------------|



Chorus
Guitar 1/2:
D#||-----------------------------------------|
A#||-----------------------------------------|
F#||-----------5-55-555----------------------| x2
C#||--2-22-222-5-55-555-7-77-777-5--5--4--5--|
G#||--2-22-222-3-33-333-7-77-777-5--5--4--5--|
D#||--0-00-000----------5-55-555-3--3--2--3--|


Guitar 1:
D#||---------------------------------------------------------|
A#||---------------------------------------------------------|
F#||--9-99-999-12-1212-121212-14-1414-141414-16-1616-11--12--|
C#||--x-xx-xxx-x--x-x--x-x-x--x--x-x--x-x-x--x--x-x--x---x---|
G#||--7-77-777-10-1010-101010-12-1212-121212-14-1414-9---10--|
D#||---------------------------------------------------------|


D#||---------------------------------------------------------|
A#||---------------------------------------------------------|
F#||--9-99-999-12-1212-111111-12-1212-121212-14-1414-141414--|
C#||--x-xx-xxx-x--x-x--x-x-x--x--x-x--x-x-x--x--x-x--x-x-x---|
G#||--7-77-777-10-1010-9-9-9--10-1010-101010-12-1212-121212--|
D#||---------------------------------------------------------|


Guitar 2:
D#||---------------------------------------------------------------|
A#||---------------------------------------------------------------|
F#||--/16-99-999-12-1212-121212-/16-14-1414-141414-16-1616-11--12--|
C#||--/x--xx-xxx-x--x-x--x-x-x--/x--x--xx---x-x-x--x--x-x--x---x---|
G#||--/14-77-777-10-1010-101010-/14-12-1212-121212-14-1414-9---10--|
D#||---------------------------------------------------------------|


D#||---------------------------------------------------------------|
A#||---------------------------------------------------------------|
F#||--/16-99-999-12-1212-121212-/16-12-1212-121212-14-1414-141414--|
C#||--/x--xx-xxx-x--x-x--x-x-x--/x--x--xx---x-x-x--x--x-x--x-x-x---|
G#||--/14-77-777-10-1010-101010-/14-10-1010-101010-12-1212-121212--|
D#||---------------------------------------------------------------|



Outro
Guitar 1:
D#||----------------------------------------------------|
A#||----------------------------------------------------|
F#||--16-1616-161616-16-1616-121212-14-1414-141414-16---|
C#||--x--x-x--x-x-x--x--x-x--x-x-x--x--x-x--x-x-x--x----|
G#||--14-1414-141414-14-1414-101010-12-1212-121212-14---|
D#||----------------------------------------------------|


Guitar 2:
D#||---------------------------------|
A#||---------------------------------|
F#||--5-55-555-5-55-555-2-22-222-4---|
C#||--5-55-555-5-55-555-2-22-222-4---|
G#||--3-33-333-3-33-333-0-00-000-2---|
D#||---------------------------------|





Tablature Legend
----------------
 h   hammer-on
 p   pull-off
 b   bend
 pb  pre-bend
 r   release bend
 ~   hold / vibrato
 .   palm mute
 /   slide up
 \   slide down
 *   pinch harmonic
 '   natural harmonic
 x   mute note
 T   tap
comments
print report bad tab
2 comments total.
+2 reply
Gentubs wrote on August 12 2011, 04:40 pm

just a small correction from me listening to the song a couple times, i realized that

Eb||------------------------------|
Bb||------------------------------|
Gb||-------------------------7-7--|
Db||-2-2------2-2------5-5---7-7--|
Ab||-2-2------2-2------5-5---5-5--|
Eb||-0-0------0-0------3-3--------|

the first part should be just one strum, not 2, so it should be like this,

Eb||------------------------------|
Bb||------------------------------|
Gb||-------------------------7-7--|
Db||--2-------2-2------5-5---7-7--|
Ab||--2-------2-2------5-5---5-5--|
Eb||--0-------0-0------3-3--------|

this is just from my listening to it. from what i hear its correct with my ears. great tab othewise

+1 reply
Joshua Garcia wrote on August 12 2011, 08:21 pm

You're right. I'll fix that now. Thanks!

I want to post or [tab]
guest
You may want to rate the tab now too:
select rating
Please do not post tabs as comments. Select "correction" instead!