Oops, an error
Loading. Please wait.

Appeal To Reason Bass Tab

20,490 views 18 this week
7 commentsread comments
1 2 3 4 5
excellent!
x 13
add to favorites launch autoscroll
font size
0
reset
Autoscroll
+/-
esc
set tempo
stop
Contributor
WARNING: You are trying to view
                                    content from Ultimate-Guitar.com
                                    in an unauthorized application,
                                    which is prohibited.

                                    Please use an official Ultimate
                                    Guitar Tabs application for iPhone,
                                    iPad or Android to access legitimate
                                    chords, guitar, bass, and drum tabs
                                    from Ultimate-Guitar.com database.

                                    Type "ultimate guitar tabs" in Apple
                                    App Store's or Android Market's
                                    search to find the application.
RISE AGAINST - APPEAL TO REASON BASS ALBUM TAB - JOE PRINCIPE - BASS


TRACK 01)

Collapse (Post-Amerika)

INTRO - 8 Bars then:

Gb|-----------------------------3----|-----------------5---5-5---5-5----|
Db|-5-------------------5-5---5------|-3---3-3---3-3--------------------|
Ab|-----5-5---5-5---3----------------|----------------------------------|
Eb|----------------------------------|----------------------------------|
    1 + + + 2 + + + 3 + + + 4 + + +    1 + + + 2 + + + 3 + + + 4 + + +

Gb|-----------------------------3----|----------------------------------|
Db|-5-------------------5-5---5------|-3---3-3---3-3--------------------|
Ab|-----5-5---5-5---3----------------|-----------------3---3---3---3----|
Eb|----------------------------------|----------------------------------|
    1 + + + 2 + + + 3 + + + 4 + + +    1 + + + 2 + + + 3 + + + 4 + + +

Gb|-----------------------------3----|-----------------5---5-5---5-5----|
Db|-5-------------------5-5---5------|-3---3-3---3-3--------------------|
Ab|-----5-5---5-5---3----------------|----------------------------------|
Eb|----------------------------------|----------------------------------|
    1 + + + 2 + + + 3 + + + 4 + + +    1 + + + 2 + + + 3 + + + 4 + + +

Gb|-----------------------------3----|----------------------------------|
Db|-5-------------------5-5---5------|-3---3-3---3-3--------------------|
Ab|-----5-5---5-5---3----------------|-----------------3-3-3-3----------|
Eb|----------------------------------|----------------------------------|
    1 + + + 2 + + + 3 + + + 4 + + +    1 + + + 2 + + + 3 + + + 4 + + +


Gb|----------------------------------|----------------------------------|
Db|----------------------------------|----------------------------------|
Ab|-3-3-3-3---------3-3-3-3----------|-3-3-3-3---3-----5----------------|
Eb|----------------------------------|-------------3--------------------|
    1 + + + 2 + + + 3 + + + 4 + + +    1 + + + 2 + + + 3 + + + 4 + + +

Gb|----------------------------------|-----------------||
Db|----------------------------------|-----------------||
Ab|----------------------------------|-----3---5---3---||
Eb|-----------------3---5-------6----|-----------------||
    1 + + + 2 + + + 3 + + + 4 + + +    1 + + + 2 + + +

VERSE

Gb|----------------------------------|----------------------------------|
Db|----------------------------------|----------------------------------|
Ab|-5---5-5---5-5---5---5-5---5-5----|-5---5-5---5-5---5---5-5---5-5----|
Eb|----------------------------------|----------------------------------|
    1 + + + 2 + + + 3 + + + 4 + + +    1 + + + 2 + + + 3 + + + 4 + + +

Gb|----------------------------------|----------------------------------|
Db|----------------------------------|----------------------------------|
Ab|-1---1-1---1-1---3---0-0---0-0----|-5---5-5---5-5---5---5-5---5------|
Eb|----------------------------------|-----------------------------3----|
    1 + + + 2 + + + 3 + + + 4 + + +    1 + + + 2 + + + 3 + + + 4 + + +

Gb|----------------------------------|----------------------------------|
Db|----------------------------------|----------------------------------|
Ab|-5---5-5---5-5---5---5-5---5-5----|-5---5-5---5-5---5---5-5---5-5----|
Eb|----------------------------------|----------------------------------|
    1 + + + 2 + + + 3 + + + 4 + + +    1 + + + 2 + + + 3 + + + 4 + + +

Gb|----------------------------------|----------------------------------||
Db|----------------------------------|----------------------------------||
Ab|-1---1-1---1-1---3---0-0---0-0----|-5---5-5-5-5-5-5-5-5-5-5-5-5-5-5--||
Eb|----------------------------------|----------------------------------||
    1 + + + 2 + + + 3 + + + 4 + + +    1 + + + 2 + + + 3 + + + 4 + + +

PRE-CHORUS

Gb|----------------------------------|----------------------------------|
Db|----------------------------------|----------------------------------|
Ab|-1---1-1---1-1---1---1-1---1-1----|----------------------------------|
Eb|----------------------------------|-3---3-3---3-3---3---3-3---3------|
    1 + + + 2 + + + 3 + + + 4 + + +    1 + + + 2 + + + 3 + + + 4 + + +

Gb|----------------------------------|----------------------------------|
Db|----------------------------------|----------------------------------|
Ab|-5---5-5---5-5---5---5-5---5-5----|-0---0-0---0-0---0---0---0---0----|
Eb|----------------------------------|----------------------------------|
    1 + + + 2 + + + 3 + + + 4 + + +    1 + + + 2 + + + 3 + + + 4 + + +

Gb|----------------------------------|----------------------------------||
Db|----------------------------------|----------------------------------||
Ab|-1---1-1---1-1---1---1-1---1-1----|-3-3-3-3-3-3-3-3-3-3-3-3-3-3-3-3--||
Eb|----------------------------------|----------------------------------||
    1 + + + 2 + + + 3 + + + 4 + + +    1 + + + 2 + + + 3 + + + 4 + + +

CHORUS

Gb|-----------------------------3----|-----------------5---5-5---5-5----|
Db|-5-------------------5-5---5------|-3---3-3---3-3--------------------|
Ab|-----5-5---5-5---3----------------|----------------------------------|
Eb|----------------------------------|----------------------------------|
    1 + + + 2 + + + 3 + + + 4 + + +    1 + + + 2 + + + 3 + + + 4 + + +

Gb|-----------------------------3----|----------------------------------|
Db|-5-------------------5-5---5------|-3---3-3---3-3--------------------|
Ab|-----5-5---5-5---3----------------|-----------------3---3---3---3----|
Eb|----------------------------------|----------------------------------|
    1 + + + 2 + + + 3 + + + 4 + + +    1 + + + 2 + + + 3 + + + 4 + + +

Gb|-----------------------------3----|-----------------5---5-5---5-5----|
Db|-5-------------------5-5---5------|-3---3-3---3-3--------------------|
Ab|-----5-5---5-5---3----------------|----------------------------------|
Eb|----------------------------------|----------------------------------|
    1 + + + 2 + + + 3 + + + 4 + + +    1 + + + 2 + + + 3 + + + 4 + + +

Gb|-----------------------------3----|-----------------5----------------||
Db|-5-------------------5-5---5------|-3---3-3---3-3-------5-5-5-5-5\---||
Ab|-----5-5---5-5---3----------------|----------------------------------||
Eb|----------------------------------|----------------------------------||
    1 + + + 2 + + + 3 + + + 4 + + +    1 + + + 2 + + + 3 + + + 4 + + +

INTERLUDE

Gb|----------------------------------|----------------------------------||
Db|-0--------------------------------|----------------------------------||
Ab|----------------------------------|---------------------3---5---3----||
Eb|----------------------------------|-3---5-5---5-6--------------------||
    1 + + + 2 + + + 3 + + + 4 + + +    1 + + + 2 + + + 3 + + + 4 + + +

VERSE

Gb|----------------------------------|----------------------------------|
Db|----------------------------------|----------------------------------|
Ab|-5--------------------------------|----------------------------------|
Eb|----------------------------------|----------------------------------|
    1 + + + 2 + + + 3 + + + 4 + + +    1 + + + 2 + + + 3 + + + 4 + + +

Gb|----------------------------------|----------------------------------|
Db|----------------------------------|----------------------------------|
Ab|-1---1-1---1-1---3---0-0---0-0----|-5---5-5---5-5---5---5-5---5------|
Eb|----------------------------------|-----------------------------3----|
    1 + + + 2 + + + 3 + + + 4 + + +    1 + + + 2 + + + 3 + + + 4 + + +

Gb|----------------------------------|----------------------------------|
Db|----------------------------------|----------------------------------|
Ab|-5---5-5---5-5---5---5-5---5------|-5---5-5---5-5---5---5-5---5-5----|
Eb|-----------------------------3----|----------------------------------|
    1 + + + 2 + + + 3 + + + 4 + + +    1 + + + 2 + + + 3 + + + 4 + + +

Gb|----------------------------------|----------------------------------||
Db|----------------------------------|----------------------------------||
Ab|-1---1-1---1-1---3---0-0---0-0----|-5---5---5---5///17\\-------------||
Eb|----------------------------------|----------------------------------||
    1 + + + 2 + + + 3 + + + 4 + + +    1 + + + 2 + + + 3 + + + 4 + + +

PRE-CHORUS

Gb|----------------------------------|----------------------------------|
Db|----------------------------------|----------------------------------|
Ab|-1---1-1---1-1---1---1-1---1-1----|----------------------------------|
Eb|----------------------------------|-3---3-3---3-3---3---3-3---3------|
    1 + + + 2 + + + 3 + + + 4 + + +    1 + + + 2 + + + 3 + + + 4 + + +

Gb|----------------------------------|----------------------------------|
Db|----------------------------------|----------------------------------|
Ab|-5---5-5---5-5---5---5-5---5-5----|-0---0-0---0-0---0---0---0---0----|
Eb|----------------------------------|----------------------------------|
    1 + + + 2 + + + 3 + + + 4 + + +    1 + + + 2 + + + 3 + + + 4 + + +

Gb|----------------------------------|----------------------------------||
Db|----------------------------------|----------------------------------||
Ab|-1---1-1---1-1---1---1-1---1-1----|-3-3-3-3-3-3-3-3/15151515151515---||
Eb|----------------------------------|----------------------------------||
    1 + + + 2 + + + 3 + + + 4 + + +    1 + + + 2 + + + 3 + + + 4 + + +

CHORUS

Gb|-----------------------------3----|-----------------5---5-5---5-5----|
Db|-5-------------------5-5---5------|-3---3-3---3-3--------------------|
Ab|-----5-5---5-5---3----------------|----------------------------------|
Eb|----------------------------------|----------------------------------|
    1 + + + 2 + + + 3 + + + 4 + + +    1 + + + 2 + + + 3 + + + 4 + + +

Gb|-----------------------------3----|----------------------------------|
Db|-5-------------------5-5---5------|-3---3-3---3-3--------------------|
Ab|-----5-5---5-5---3----------------|-----------------3---3-3---3-3----|
Eb|----------------------------------|----------------------------------|
    1 + + + 2 + + + 3 + + + 4 + + +    1 + + + 2 + + + 3 + + + 4 + + +

Gb|-----------------------------3----|-----------------5---5-5---5-5----|
Db|-5-------------------5-5---5------|-3---3-3---3-3--------------------|
Ab|-----5-5---5-5---3----------------|----------------------------------|
Eb|----------------------------------|----------------------------------|
    1 + + + 2 + + + 3 + + + 4 + + +    1 + + + 2 + + + 3 + + + 4 + + +

Gb|-----------------------------3----|----------------------------------||
Db|-5-------------------5-5---5------|-3---3---3---3--------------------||
Ab|-----5-5---5-5---3----------------|-----------------3---3---3---3----||
Eb|----------------------------------|----------------------------------||
    1 + + + 2 + + + 3 + + + 4 + + +    1 + + + 2 + + + 3 + + + 4 + + +


INTERLUDE

Gb|----------------------------------|----------------------------------|
Db|-------------3---3----------------|----------------------------------|
Ab|-5---5---5-----------5---5---3----|-1---1---1------------------------|
Eb|----------------------------------|-------------3---3---3---3--------|
    1 + + + 2 + + + 3 + + + 4 + + +    1 + + + 2 + + + 3 + + + 4 + + +

Gb|----------------------------------|----------------------------------|
Db|-------------3---3----------------|----------------------------------|
Ab|-5---5---5-----------5---5---3----|-1---1---1---3---3---3---3---5----|
Eb|----------------------------------|----------------------------------|
    1 + + + 2 + + + 3 + + + 4 + + +    1 + + + 2 + + + 3 + + + 4 + + +

Gb|----------------------------------|----------------------------------|
Db|-------------3---3----------------|----------------------------------|
Ab|-5---5---5-----------5---5---3----|-1---1---1-------------------3----|
Eb|----------------------------------|-------------3---3---3---3--------|
    1 + + + 2 + + + 3 + + + 4 + + +    1 + + + 2 + + + 3 + + + 4 + + +

Gb|----------------------------------|----------------------------------||
Db|----------------------------------|----------------------------------||
Ab|-3---3---3---3-----------0---3----|-3---3---3---3---3---3---3---3----||
Eb|-----------------1---3------------|----------------------------------||
    1 + + + 2 + + + 3 + + + 4 + + +    1 + + + 2 + + + 3 + + + 4 + + +

BRIDGE

Gb|----------------------------------|----------------------------------|
Db|-------------3---3----------------|----------------------------------|
Ab|-5---5---5-----------5---5---3----|-1---1---1-------------------5----|
Eb|----------------------------------|-------------3---3---3---3--------|
    1 + + + 2 + + + 3 + + + 4 + + +    1 + + + 2 + + + 3 + + + 4 + + +

Gb|----------------------------------|----------------------------------|
Db|-------------3---3----------------|----------------------------------|
Ab|-5---5---5-----------5---5---3----|-1---1---1---3---3---3---3---5----|
Eb|----------------------------------|----------------------------------|
    1 + + + 2 + + + 3 + + + 4 + + +    1 + + + 2 + + + 3 + + + 4 + + +

Gb|----------------------------------|----------------------------------|
Db|-------------3---3----------------|----------------------------------|
Ab|-5---5---5-----------5---5---3----|-1---1---1-------------------3----|
Eb|----------------------------------|-------------3---3---3---3--------|
    1 + + + 2 + + + 3 + + + 4 + + +    1 + + + 2 + + + 3 + + + 4 + + +

Gb|----------------------------------|----------------------------------|
Db|----------------------------------|----------------------------------|
Ab|-3---3---3---3---3---3---3---3////|/15--15--15--15--15--15--15--15---|
Eb|----------------------------------|----------------------------------|
    1 + + + 2 + + + 3 + + + 4 + + +    1 + + + 2 + + + 3 + + + 4 + + +

Gb|----------------------------------|----------------------------------|
Db|-------------3---3----------------|----------------------------------|
Ab|-5---5---5-----------5---5---3----|-1---1---1-------------------5----|
Eb|----------------------------------|-------------3---3---3---3--------|
    1 + + + 2 + + + 3 + + + 4 + + +    1 + + + 2 + + + 3 + + + 4 + + +

Gb|----------------------------------|----------------------------------|
Db|-------------3---3----------------|----------------------------------|
Ab|-5---5---5-----------5---5---3----|-1---1---1---3---3---3---3---5----|
Eb|----------------------------------|----------------------------------|
    1 + + + 2 + + + 3 + + + 4 + + +    1 + + + 2 + + + 3 + + + 4 + + +

Gb|----------------------------------|----------------------------------||
Db|-------------3---3----------------|----------------------------------||
Ab|-5---5---5-----------5---5---3----|-1---1---1------------------------||
Eb|----------------------------------|-------------3---3---3---3---3----||
    1 + + + 2 + + + 3 + + + 4 + + +    1 + + + 2 + + + 3 + + + 4 + + +

INTERLUDE

Gb|----------------------------------|----------------------------------|
Db|----------------------------------|----------------------------------|
Ab|----------------------------------|-3---3---3---3---0---0---0---0----|
Eb|-1---1---1---1---1---1---1---1----|----------------------------------|
    1 + + + 2 + + + 3 + + + 4 + + +    1 + + + 2 + + + 3 + + + 4 + + +

Gb|----------------------------------|----------------------------------|
Db|----------------------------------|----------------------------------|
Ab|-1---1---1---1---1---1---1---1----|----------------------------------|
Eb|----------------------------------|-3---3---3---3---3---3---3---3----|
    1 + + + 2 + + + 3 + + + 4 + + +    1 + + + 2 + + + 3 + + + 4 + + +

Gb|----------------------------------|----------------------------------|
Db|----------------------------------|----------------------------------|
Ab|-5---5---5---5---5---5---5---5----|-5---5---5---5---5---5---5---5----|
Eb|----------------------------------|----------------------------------|
    1 + + + 2 + + + 3 + + + 4 + + +    1 + + + 2 + + + 3 + + + 4 + + +

Gb|----------------------------------|----------------------------------|
Db|----------------------------------|----------------------------------|
Ab|-1---1---1---1---1---1---1---1----|----------------------------------|
Eb|----------------------------------|-3---3---3---3---3---3---3---3----|
    1 + + + 2 + + + 3 + + + 4 + + +    1 + + + 2 + + + 3 + + + 4 + + +

Gb|----------------------------------|----------------------------------|
Db|----------------------------------|-------------3-------5------------|
Ab|-5---5---5---5---5---5---5---5----|-5---7-----------------------3----|
Eb|----------------------------------|----------------------------------|
    1 + + + 2 + + + 3 + + + 4 + + +    1 + + + 2 + + + 3 + + + 4 + + +

Gb|----------------------------------|----------------------------------|
Db|----------------------------------|----------------------------------|
Ab|-1-----1-----1---1----------------|----------------------------------|
Eb|----------------------------------|-3---3---3---3---3---3---3---3----|
    1 + + + 2 + + + 3 + + + 4 + + +    1 + + + 2 + + + 3 + + + 4 + + +

Gb|----------------------------------|----------------------------------|
Db|----------------------------------|----------------------------------|
Ab|-5---5---5---5---5---5---5---5----|-0---0---0---0---0---0---0---0----|
Eb|----------------------------------|----------------------------------|
    1 + + + 2 + + + 3 + + + 4 + + +    1 + + + 2 + + + 3 + + + 4 + + +

Gb|----------------------------------|----------------------------------|
Db|----------------------------------|----------------------------------|
Ab|-1---1---1---1---1---1---1---1----|----------------------------------|
Eb|----------------------------------|-3---3---3---3---3---3---3---3----|
    1 + + + 2 + + + 3 + + + 4 + + +    1 + + + 2 + + + 3 + + + 4 + + +

Gb|----------------------------------|----------------------------------|
Db|----------------------------------|----------------------------------|
Ab|-5---5---5---5---5---5---5---5----|---------------------1-------3----|
Eb|----------------------------------|-1---3-------5--------------------|
    1 + + + 2 + + + 3 + + + 4 + + +    1 + + + 2 + + + 3 + + + 4 + + +

Gb|----------------------------------|----------------------------------|
Db|----------------------------------|----------------------------------|
Ab|-1-----1-----1---1----------------|----------------------------------|
Eb|----------------------------------|-3---3---3---3---3---3---3---3----|
    1 + + + 2 + + + 3 + + + 4 + + +    1 + + + 2 + + + 3 + + + 4 + + +

Gb|----------------------------------|----------------------------------|
Db|----------------------------------|----------------------------------|
Ab|-5-----5-----5---5----------------|-0---0---0---0---0---0---0---0----|
Eb|----------------------------------|----------------------------------|
    1 + + + 2 + + + 3 + + + 4 + + +    1 + + + 2 + + + 3 + + + 4 + + +

Gb|----------------------------------|----------------------------------|
Db|----------------------------------|----------------------------------|
Ab|-1-----1-----1---1-----1-----1----|-3---3---3---3---3---3---3---3----|
Eb|----------------------------------|----------------------------------|
    1 + + + 2 + + + 3 + + + 4 + + +    1 + + + 2 + + + 3 + + + 4 + + +

Gb|----------------------------------||
Db|----------------------------------||
Ab|-3--------------------------------||
Eb|----------------------------------||
    1 + + + 2 + + + 3 + + + 4 + + +

CHORUS

Gb|-----------------------------3----|-----------------5---5-5---5-5----|
Db|-5-------------------5-5---5------|-3---3-3---3-3--------------------|
Ab|-----5-5---5-5---3----------------|----------------------------------|
Eb|----------------------------------|----------------------------------|
    1 + + + 2 + + + 3 + + + 4 + + +    1 + + + 2 + + + 3 + + + 4 + + +

Gb|-----------------------------3----|----------------------------------|
Db|-5-------------------5-5---5------|-3---3-3---3-3--------------------|
Ab|-----5-5---5-5---3----------------|-----------------3---3-3-3-3-3-3--|
Eb|----------------------------------|----------------------------------|
    1 + + + 2 + + + 3 + + + 4 + + +    1 + + + 2 + + + 3 + + + 4 + + +

Gb|-----------------------------3----|-----------------5---5-5---5-5----|
Db|-5-------------------5-5---5------|-3---3-3---3-3--------------------|
Ab|-----5-5---5-5---3----------------|----------------------------------|
Eb|----------------------------------|----------------------------------|
    1 + + + 2 + + + 3 + + + 4 + + +    1 + + + 2 + + + 3 + + + 4 + + +

Gb|-----------------------------3----|----------------------------------|
Db|-5-------------------5-5---5------|-3---3-3---3-3--------------------|
Ab|-----5-5---5-5---3----------------|-----------------3-3-3-3-3--------|
Eb|----------------------------------|----------------------------------|
    1 + + + 2 + + + 3 + + + 4 + + +    1 + + + 2 + + + 3 + + + 4 + + +


Gb|----------------------------------|----------------------------------||
Db|----------------------------------|----------------------------------||
Ab|-3-3-3-3---------3-3-3-3----------|-3-3-3-3---------5~~~~------------||
Eb|----------------------------------|-------------3--------------------||
    1 + + + 2 + + + 3 + + + 4 + + +    1 + + + 2 + + + 3 + + + 4 + + +

TRACK 02)

LONG FORGOTTEN SONS

INTRO

Gb|---------------------------------|----------------------------------|
Db|-0-0-0-0-0-0-0-0-0-0-0-0-0-0-0-0-|-3-3-3-3-3-3-3-3------------------|
Ab|---------------------------------|-----------------1-1-1-1-1-1-1-1--|
Eb|---------------------------------|----------------------------------|
    1 + + + 2 + + + 3 + + + 4 + + +   1 + + + 2 + + + 3 + + + 4 + + +

Gb|---------------------------------|----------------------------------|
Db|-5-5-5-5-5-5-5-5-5-5-5-5-5-5-5-5-|-3-3-3-3-3-3-3-3-2-2-2-2-2-2-2-2--|
Ab|---------------------------------|----------------------------------|
Eb|---------------------------------|----------------------------------|
    1 + + + 2 + + + 3 + + + 4 + + +   1 + + + 2 + + + 3 + + + 4 + + +

Gb|---------------------------------|----------------------------------|
Db|-0-0-0-0-0-0-0-0-0-0-0-0-0-0-0-0-|-3-3-3-3-3-3-3-3------------------|
Ab|---------------------------------|-----------------1-1-1-1-1-1-1-1--|
Eb|---------------------------------|----------------------------------|
    1 + + + 2 + + + 3 + + + 4 + + +   1 + + + 2 + + + 3 + + + 4 + + +

Gb|---------------------------------|----------------------------------|
Db|-5-5-5-5-5-5-5-5-5-5-5-5-5-5-5-5-|-3-3-3-3-3-3-3-3-2-2-2-2-2-2-2-2--|
Ab|---------------------------------|----------------------------------|
Eb|---------------------------------|----------------------------------|
    1 + + + 2 + + + 3 + + + 4 + + +   1 + + + 2 + + + 3 + + + 4 + + +

Gb|---------------------------------|----------------------------------|
Db|-0-0-0-0-0-0-0-0-0-0-0-0-0-0-0-0-|-3-3-3-3-3-3-3-3------------------|
Ab|---------------------------------|-----------------1-1-1-1-1-1-1-1--|
Eb|---------------------------------|----------------------------------|
    1 + + + 2 + + + 3 + + + 4 + + +   1 + + + 2 + + + 3 + + + 4 + + +

Gb|---------------------------------|----------------------------------|
Db|-5-5-5-5-5-5-5-5-5-5-5-5-5-5-5-5-|-3-3-3-3-3-3-3-3-2-2-2-2-2-2-2-2--|
Ab|---------------------------------|----------------------------------|
Eb|---------------------------------|----------------------------------|
    1 + + + 2 + + + 3 + + + 4 + + +   1 + + + 2 + + + 3 + + + 4 + + +

Gb|---------------------------------|----------------------------------|
Db|-0-0-0-0-0-0-0-0-0-0-0-0-0-0-0-0-|-3-3-3-3-3-3-3-3------------------|
Ab|---------------------------------|-----------------1-1-1-1-1-1-1-1--|
Eb|---------------------------------|----------------------------------|
    1 + + + 2 + + + 3 + + + 4 + + +   1 + + + 2 + + + 3 + + + 4 + + +

Gb|---------------------------------|----------------------------------||
Db|---------------------------------|----------------------------------||
Ab|-3-3-3-3-3-3-3-3-3-3-3-3-3-3-3-3-|-------------1-------3---5---3----||
Eb|---------------------------------|-1---3----------------------------||
    1 + + + 2 + + + 3 + + + 4 + + +   1 + + + 2 + + + 3 + + + 4 + + +

VERSE

Gb|------------------|------------------|------------------|------------------|
Db|-----3-------3----|-----3-------3----|-----3-------3----|-----3-------3----|
Ab|-5-5---5-5-5---5--|-5-5---5-5-5------|-5-5---5-5-5---5--|-5-5---5-5-5------|
Eb|------------------|------------------|------------------|------------------|
    1 + 2 + 3 + 4 +    1 + 2 + 3 + 4 +    1 + 2 + 3 + 4 +    1 + 2 + 3 + 4 +

Gb|------------------|------------------|------------------|------------------|
Db|-5-------5--------|------------------|------------------|------------------|
Ab|---3-3-3---3-3-3--|-1-1-1-1-0---1-3--|-5-5-5-5-5-5-5-5--|-5-5-5-5----------|
Eb|------------------|-----------1------|------------------|---------33-3-33--|
    1 + 2 + 3 + 4 +    1 + 2 + 3 + 4 +    1 + 2 + 3 + 4 +    1 + 2 + 3 + 4 +

Gb|------------------|------------------|------------------|------------------|
Db|-----3-------3----|-----3-------3----|-----3-------3----|---3-5-7-5-3-5-3--|
Ab|-5-5---5-5-5---5--|-5-5---5-5-5------|-5-5---5-5-5---5--|-5----------------|
Eb|------------------|------------------|------------------|------------------|
    1 + 2 + 3 + 4 +    1 + 2 + 3 + 4 +    1 + 2 + 3 + 4 +    1 + 2 + 3 + 4 +

Gb|------------------|------------------|------------------|------------------|
Db|-5-------5--------|------------------|------------------|------------------|
Ab|---3-3-3---3-3-3--|-1-1-1-1-0---1-3--|-1-1-1-1-1-1-1-1--|-1-1-1-1----------|
Eb|------------------|-----------1------|------------------|---------1-1-1-1--|
    1 + 2 + 3 + 4 +    1 + 2 + 3 + 4 +    1 + 2 + 3 + 4 +    1 + 2 + 3 + 4 +

Gb|------------------|------------------||
Db|------------------|-5555555555555555-||
Ab|-3-3-3-3-3-3-3-3--|------------------||
Eb|------------------|------------------||
    1 + 2 + 3 + 4 +    1 + 2 + 3 + 4 +

CHORUS

Gb|---------------------------------|----------------------------------|
Db|-0-0-0-0-0-0-0-0-0-0-0-0-0-0-0-0-|-3-3-3-3-3-3-3-3------------------|
Ab|---------------------------------|-----------------1-1-1-1-1-1-1-1--|
Eb|---------------------------------|----------------------------------|
    1 + + + 2 + + + 3 + + + 4 + + +   1 + + + 2 + + + 3 + + + 4 + + +

Gb|---------------------------------|----------------------------------|
Db|-5-5-5-5-5-5-5-5-5-5-5-5-5-5-5-5-|-3-3-3-3-3-3-3-3-2-2-2-2-2-2-2-2--|
Ab|---------------------------------|----------------------------------|
Eb|---------------------------------|----------------------------------|
    1 + + + 2 + + + 3 + + + 4 + + +   1 + + + 2 + + + 3 + + + 4 + + +

Gb|---------------------------------|----------------------------------|
Db|-0-0-0-0-0-0-0-0-0-0-0-0-0-0-0-0-|-3-3-3-3-3-3-3-3------------------|
Ab|---------------------------------|-----------------1-1-1-1-1-1-1-1--|
Eb|---------------------------------|----------------------------------|
    1 + + + 2 + + + 3 + + + 4 + + +   1 + + + 2 + + + 3 + + + 4 + + +

Gb|---------------------------------|----------------------------------|
Db|---------------------------------|-7-7-7-7-7-7-7-7-3-3-3-3-3-3-3-3--|
Ab|-3-3-3-3-3-3-3-3-3-3-3-3-3-3-3-3-|----------------------------------|
Eb|---------------------------------|----------------------------------|
    1 + + + 2 + + + 3 + + + 4 + + +   1 + + + 2 + + + 3 + + + 4 + + +

Gb|---------------------------------|----------------------------------|
Db|-0-0-0-0-0-0-0-0-0-0-0-0-0-0-0-0-|-3-3-3-3-3-3-3-3------------------|
Ab|---------------------------------|-----------------1-1-1-1-1-1-1-1--|
Eb|---------------------------------|----------------------------------|
    1 + + + 2 + + + 3 + + + 4 + + +   1 + + + 2 + + + 3 + + + 4 + + +

Gb|---------------------------------|----------------------------------|
Db|-5-5-5-5-5-5-5-5-5-5-5-5-5-5-5-5-|-3-3-3-3-3-3-3-3-2-2-2-2-2-2-2-2--|
Ab|---------------------------------|----------------------------------|
Eb|---------------------------------|----------------------------------|
    1 + + + 2 + + + 3 + + + 4 + + +   1 + + + 2 + + + 3 + + + 4 + + +

Gb|---------------------------------|----------------------------------|
Db|-0-0-0-0-0-0-0-0-0-0-0-0-0-0-0-0-|-3-3-3-3-3-3-3-3------------------|
Ab|---------------------------------|-----------------1-1-1-1-1-1-1-1--|
Eb|---------------------------------|----------------------------------|
    1 + + + 2 + + + 3 + + + 4 + + +   1 + + + 2 + + + 3 + + + 4 + + +

Gb|---------------------------------|----------------------------------||
Db|---------------------------------|----------------------------------||
Ab|-3-3-3-3-3-3-3-3-3-3-3-3-3-3-3-3-|-3-3-3-3-3-3-3-3-3-3-3-3-3-3-3-3--||
Eb|---------------------------------|----------------------------------||
    1 + + + 2 + + + 3 + + + 4 + + +   1 + + + 2 + + + 3 + + + 4 + + +

INTERLUDE

Gb|------------------|------------------|------------------|------------------||
Db|-----3-------3----|-----3-------3----|-----3-------3----|------------------||
Ab|-5-5---5-5-5---5--|-5-5---5-5-5------|-5-5---5-5-5---5--|-------1---3-5-3--||
Eb|------------------|------------------|------------------|-1-3--------------||
    1 + 2 + 3 + 4 +    1 + 2 + 3 + 4 +    1 + 2 + 3 + 4 +    1 + 2 + 3 + 4 +

VERSE

Gb|------------------|------------------|------------------|------------------|
Db|-----3-------3----|-----3-------3----|-----3-------3----|-----3-------3----|
Ab|-5-5---5-5-5---5--|-5-5---5-5-5------|-5-5---5-5-5---5--|-5-5---5-5-5------|
Eb|------------------|------------------|------------------|------------------|
    1 + 2 + 3 + 4 +    1 + 2 + 3 + 4 +    1 + 2 + 3 + 4 +    1 + 2 + 3 + 4 +

Gb|------------------|------------------|------------------|------------------|
Db|-5-------5--------|------------------|------------------|------------------|
Ab|---3-3-3---3-3-3--|-1-1-1-1-0---1-3--|-5-5-5-5-5-5-5-5--|-5-5-5-5----------|
Eb|------------------|-----------1------|------------------|---------33333333-|
    1 + 2 + 3 + 4 +    1 + 2 + 3 + 4 +    1 + 2 + 3 + 4 +    1 + 2 + 3 + 4 +

Gb|------------------|------------------|------------------|------------------|
Db|-----3-------3----|-----3-------3----|-----3------------|---3-5-7-5-3-5-3--|
Ab|-5-5---5-5-5---5--|-5-5---5-5-5------|-5-5---5-0-3-5-0--|-5----------------|
Eb|------------------|------------------|------------------|------------------|
    1 + 2 + 3 + 4 +    1 + 2 + 3 + 4 +    1 + 2 + 3 + 4 +    1 + 2 + 3 + 4 +

Gb|------------------|------------------|------------------|------------------|
Db|-5-------5--------|------------------|------------------|------------------|
Ab|---3-3-3---3-3-3--|-1-1-1-1-0---1-3--|-1-1-1-1-1-1-1-1--|-1-1-1-1----------|
Eb|------------------|-----------1------|------------------|---------1-1-1-1--|
    1 + 2 + 3 + 4 +    1 + 2 + 3 + 4 +    1 + 2 + 3 + 4 +    1 + 2 + 3 + 4 +

Gb|------------------|------------------||
Db|------------------|-5555555555555555-||
Ab|-3-3-3-3-3-3-3-3--|------------------||
Eb|------------------|------------------||
    1 + 2 + 3 + 4 +    1 + 2 + 3 + 4 +

CHORUS

Gb|---------------------------------|----------------------------------|
Db|-0-0-0-0-0-0-0-0-0-0-0-0-0-0-0-0-|-3-3-3-3-3-3-3-3------------------|
Ab|---------------------------------|-----------------1-1-1-1-1-1-1-1--|
Eb|---------------------------------|----------------------------------|
    1 + + + 2 + + + 3 + + + 4 + + +   1 + + + 2 + + + 3 + + + 4 + + +

Gb|---------------------------------|----------------------------------|
Db|-5-5-5-5-5-5-5-5-5-5-5-5-5-5-5-5-|-3-3-3-3-3-3-3-3-2-2-2-2-2-2-2-2--|
Ab|---------------------------------|----------------------------------|
Eb|---------------------------------|----------------------------------|
    1 + + + 2 + + + 3 + + + 4 + + +   1 + + + 2 + + + 3 + + + 4 + + +

Gb|---------------------------------|----------------------------------|
Db|-0-0-0-0-0-0-0-0-0-0-0-0-0-0-0-0-|-3-3-3-3-3-3-3-3------------------|
Ab|---------------------------------|-----------------1-1-1-1-1-1-1-1--|
Eb|---------------------------------|----------------------------------|
    1 + + + 2 + + + 3 + + + 4 + + +   1 + + + 2 + + + 3 + + + 4 + + +

Gb|---------------------------------|----------------------------------|
Db|---------------------------------|-7-7-7-7-7-7-7-7-3-3-3-3-3-3-3-3--|
Ab|-3-3-3-3-3-3-3-3-3-3-3-3-3-3-3-3-|----------------------------------|
Eb|---------------------------------|----------------------------------|
    1 + + + 2 + + + 3 + + + 4 + + +   1 + + + 2 + + + 3 + + + 4 + + +

Gb|---------------------------------|----------------------------------|
Db|-0-0-0-0-0-0-0-0-0-0-0-0-0-0-0-0-|-3-3-3-3-3-3-3-3------------------|
Ab|---------------------------------|-----------------1-1-1-1-1-1-1-1--|
Eb|---------------------------------|----------------------------------|
    1 + + + 2 + + + 3 + + + 4 + + +   1 + + + 2 + + + 3 + + + 4 + + +

Gb|---------------------------------|----------------------------------|
Db|-5-5-5-5-5-5-5-5-5-5-5-5-5-5-5-5-|-3-3-3-3-3-3-3-3-2-2-2-2-2-2-2-2--|
Ab|---------------------------------|----------------------------------|
Eb|---------------------------------|----------------------------------|
    1 + + + 2 + + + 3 + + + 4 + + +   1 + + + 2 + + + 3 + + + 4 + + +

Gb|---------------------------------|----------------------------------|
Db|-0-0-0-0-0-0-0-0-0-0-0-0-0-0-0-0-|-3-3-3-3-3-3-3-3------------------|
Ab|---------------------------------|-----------------1-1-1-1-1-1-1-1--|
Eb|---------------------------------|----------------------------------|
    1 + + + 2 + + + 3 + + + 4 + + +   1 + + + 2 + + + 3 + + + 4 + + +

Gb|---------------------------------|----------------------------------||
Db|---------------------------------|----------------------------------||
Ab|-3-3-3-3-3-3-3-3-3-3-3-3-3-3-3-3-|-3-3-3-3-3-3-3-3-3-3-3-3-3-3-3-3--||
Eb|---------------------------------|----------------------------------||
    1 + + + 2 + + + 3 + + + 4 + + +   1 + + + 2 + + + 3 + + + 4 + + +

BRIDGE

Gb|------------------|------------------|------------------|------------------|
Db|------------------|-8-8-8-7-7-7------|-5-5-5------------|-2-2-2-3-3-3-5-5--|
Ab|-1-1-1-1-1-1-1-1/-|-------------8-8--|-------3-3-3-3-3--|------------------|
Eb|------------------|------------------|------------------|------------------|
    1 + 2 + 3 + 4 +    1 + 2 + 3 + 4 +    1 + 2 + 3 + 4 +    1 + 2 + 3 + 4 +

Gb|------------------|------------------|------------------|------------------|
Db|------------------|-8-8-8-7-7-7------|------------------|-2-2-2-3-3-3-5-5--|
Ab|-1-1-1-1-1-1-1-1/-|-------------8-8--|-3-3-3-3-3-3-3-3--|------------------|
Eb|------------------|------------------|------------------|------------------|
    1 + 2 + 3 + 4 +    1 + 2 + 3 + 4 +    1 + 2 + 3 + 4 +    1 + 2 + 3 + 4 +

Gb|------------------|------------------|------------------|------------------|
Db|------------------|-8-8-8-7-7-7------|-5-5-5------------|-2-2-2-3-3-3-5-5--|
Ab|-1-1-1-1-1-1-1-1/-|-------------8-8--|-------3-3-3-3-3--|------------------|
Eb|------------------|------------------|------------------|------------------|
    1 + 2 + 3 + 4 +    1 + 2 + 3 + 4 +    1 + 2 + 3 + 4 +    1 + 2 + 3 + 4 +

Gb|------------------|------------------|------------------|------------------||
Db|------------------|-8-8-8-7-7-7------|------------------|------------------||
Ab|-1-1-1-1-1-1-1-1/-|-------------8-8--|-3-3-3-3-3-3-3-3--|------------------||
Eb|------------------|------------------|------------------|-1-----3-3-5-5-3--||
    1 + 2 + 3 + 4 +    1 + 2 + 3 + 4 +    1 + 2 + 3 + 4 +    1 + 2 + 3 + 4 +

CHORUS

Gb|------------------|------------------|------------------|------------------|
Db|-0-0-0-0-0-0-0-0--|-3-3-3-3----------|-5-5-5-5-5-5-5-5--|-3-3-3-3-2-2-2-2--|
Ab|------------------|---------1-1-1-1--|------------------|------------------|
Eb|------------------|------------------|------------------|------------------|
    1 + 2 + 3 + 4 +    1 + 2 + 3 + 4 +    1 + 2 + 3 + 4 +    1 + 2 + 3 + 4 +

Gb|------------------|------------------|------------------|------------------||
Db|-0-0-0-0-0-0-0-0--|-3-3-3-3----------|------------------|------------------||
Ab|------------------|---------1-1-1-1--|-3-3-3-3-3-3-3-3--|-3----------------||
Eb|------------------|------------------|------------------|------------------||
    1 + 2 + 3 + 4 +    1 + 2 + 3 + 4 +    1 + 2 + 3 + 4 +    1 + 2 + 3 + 4 +

Chorus

Gb|---------------------------------|----------------------------------|
Db|-0-0-0-0-0-0-0-0-0-0-0-0-0-0-0-0-|-3-3-3-3-3-3-3-3------------------|
Ab|---------------------------------|-----------------1-1-1-1-1-1-1-1--|
Eb|---------------------------------|----------------------------------|
    1 + + + 2 + + + 3 + + + 4 + + +   1 + + + 2 + + + 3 + + + 4 + + +

Gb|---------------------------------|----------------------------------|
Db|-5-5-5-5-5-5-5-5-5-5-5-5-5-5-5-5-|-3-3-3-3-3-3-3-3-2-2-2-2-2-2-2-2--|
Ab|---------------------------------|----------------------------------|
Eb|---------------------------------|----------------------------------|
    1 + + + 2 + + + 3 + + + 4 + + +   1 + + + 2 + + + 3 + + + 4 + + +

Gb|---------------------------------|----------------------------------|
Db|-0-0-0-0-0-0-0-0-0-0-0-0-0-0-0-0-|-3-3-3-3-3-3-3-3------------------|
Ab|---------------------------------|-----------------1-1-1-1-1-1-1-1--|
Eb|---------------------------------|----------------------------------|
    1 + + + 2 + + + 3 + + + 4 + + +   1 + + + 2 + + + 3 + + + 4 + + +

Gb|---------------------------------|----------------------------------|
Db|---------------------------------|-7-7-7-7-7-7-7-7-3-3-3-3-3-3-3-3--|
Ab|-3-3-3-3-3-3-3-3-3-3-3-3-3-3-3-3-|----------------------------------|
Eb|---------------------------------|----------------------------------|
    1 + + + 2 + + + 3 + + + 4 + + +   1 + + + 2 + + + 3 + + + 4 + + +

Gb|---------------------------------|----------------------------------|
Db|-0-0-0-0-0-0-0-0-0-0-0-0-0-0-0-0-|-3-3-3-3-3-3-3-3------------------|
Ab|---------------------------------|-----------------1-1-1-1-1-1-1-1--|
Eb|---------------------------------|----------------------------------|
    1 + + + 2 + + + 3 + + + 4 + + +   1 + + + 2 + + + 3 + + + 4 + + +

Gb|---------------------------------|----------------------------------|
Db|-5-5-5-5-5-5-5-5-5-5-5-5-5-5-5-5-|-3-3-3-3-3-3-3-3-2-2-2-2-2-2-2-2--|
Ab|---------------------------------|----------------------------------|
Eb|---------------------------------|----------------------------------|
    1 + + + 2 + + + 3 + + + 4 + + +   1 + + + 2 + + + 3 + + + 4 + + +

Gb|---------------------------------|----------------------------------|
Db|-0-0-0-0-0-0-0-0-0-0-0-0-0-0-0-0-|-3-3-3-3-3-3-3-3------------------|
Ab|---------------------------------|-----------------1-1-1-1-1-1-1-1--|
Eb|---------------------------------|----------------------------------|
    1 + + + 2 + + + 3 + + + 4 + + +   1 + + + 2 + + + 3 + + + 4 + + +

Gb|---------------------------------|----------------------------------|
Db|---------------------------------|----------------------------------|
Ab|-3-3-3-3-3-3-3-3-3-3-3-3-3-3-3-3-|-3---3---3---3---3---3---3---3----|
Eb|---------------------------------|----------------------------------|
    1 + + + 2 + + + 3 + + + 4 + + +   1 + + + 2 + + + 3 + + + 4 + + +

Gb|---------------------------------||
Db|---------------------------------||
Ab|-5-------------------------------||
Eb|---------------------------------||
    1 + + + 2 + + + 3 + + + 4 + + +

TRACK 03)

RE-EDUCATION (THROUGH LABOR)

INTRO

Gb|-----------------|-----------------|-----------------|-----------------|
Db|-----------------|-----------------|-----------------|-----------------|
Ab|-----------------|-----------------|-----------------|-----------------|
Eb|-0-0-0-0-0-0-0-0-|-0-0-0-0-0-0-0-0-|-0-0-0-0-0-0-0-0-|-0-0-0-0-0-0-0-0-|
    1 + 2 + 3 + 4 +   1 + 2 + 3 + 4 +   1 + 2 + 3 + 4 +   1 + 2 + 3 + 4 +

Gb|-----------------|-----------------|-----------------|-----------------|
Db|-----------------|-----------------|-----------------|-----------------|
Ab|-----------------|-----------------|-----------------|-----------------|
Eb|-0-0-0-0-0-0-0-0-|-0-0-0-0-0-0-0-0-|-0-0-0-0-0-0-0-0-|-0-0-0-0-0-0-0-0-|
    1 + 2 + 3 + 4 +   1 + 2 + 3 + 4 +   1 + 2 + 3 + 4 +   1 + 2 + 3 + 4 +

Gb|-----------------|-----------------|-----------------|-----------------|
Db|-----------------|-----------------|-----------------|-----------------|
Ab|-------3-3-------|-------3-3-------|-------3-3-------|-------3-3-------|
Eb|-0---0-----3-3-5-|-0-0-0-----3-3-5-|-0---0-----3-3-5-|-0-0-0-----3-3---|
    1 + 2 + 3 + 4 +   1 + 2 + 3 + 4 +   1 + 2 + 3 + 4 +   1 + 2 + 3 + 4 +

Gb|-----------------|-----------------|-----------------|-----------------||
Db|-----------------|-----------------|-----------------|-----------------||
Ab|-------3-3-------|-------3-3-------|-------3-3-------|-------3-3-------||
Eb|-0---0-----3-3-5-|-0-0-0-----3-3-5-|-0---0-----3-3-5-|-0-0-0-----3-3-5-||
    1 + 2 + 3 + 4 +   1 + 2 + 3 + 4 +   1 + 2 + 3 + 4 +   1 + 2 + 3 + 4 +

VERSE

Gb|-----------------|-----------------|-----------------|-----------------|
Db|-----------------|-----------------|-----------------|-----------------|
Ab|-----------------|-----------------|-------3-3-------|-------3-3-------|
Eb|-0---------------|-----------------|-0---0-----3-3-5-|-0-0-0-----3-3-5-|
    1 + 2 + 3 + 4 +   1 + 2 + 3 + 4 +   1 + 2 + 3 + 4 +   1 + 2 + 3 + 4 +

Gb|-----------------|-----------------|-----------------|-----------------|
Db|-----------------|-----------------|-----------------|-----------------|
Ab|-------3-3-------|-------3-3-------|-------3-3-------|-------3-3-------|
Eb|-0-0-0-----3-3-5-|-0-0-0-----3-3-5-|-0---0-----3-3-5-|-0-0-0-----3-3-5-|
    1 + 2 + 3 + 4 +   1 + 2 + 3 + 4 +   1 + 2 + 3 + 4 +   1 + 2 + 3 + 4 +

Gb|-----------------|-----------------|-----------------|-----------------|
Db|-----------------|-----------------|-----------------|-----------------|
Ab|-----------------|-----------------|-----------------|-----------------|
Eb|-5-5---5-5-5---5-|-5-5---5-5-5-5-3-|-5-5---5-5-5---5-|-5-5---5-5-5-5-5-|
    1 + 2 + 3 + 4 +   1 + 2 + 3 + 4 +   1 + 2 + 3 + 4 +   1 + 2 + 3 + 4 +

Gb|-----------------|-----------------|-----------------|-----------------||
Db|-----------------|-----------------|-----------------|-----------------||
Ab|-3-3---3-3-3---3-|-3-3---3-3-3-3-3-|-5-5-5-5-5-5-5-5-|-5---------------||
Eb|-----------------|-----------------|-----------------|-----------------||
    1 + 2 + 3 + 4 +   1 + 2 + 3 + 4 +   1 + 2 + 3 + 4 +   1 + 2 + 3 + 4 +

CHORUS

Gb|-----------------|-----------------|-----------------|-----------------|
Db|-----------------|-----------------|-----------------|-----------------|
Ab|-----------------|-----------------|-5---5---5---5---|-0-0-0-0-0-0-0-5-|
Eb|-0---0---0---0---|-3-3-3-3-3-3-3-3-|-----------------|-----------------|
    1 + 2 + 3 + 4 +   1 + 2 + 3 + 4 +   1 + 2 + 3 + 4 +   1 + 2 + 3 + 4 +

Gb|-----------------|-----------------|-----------------|-----------------|
Db|-----------------|-----------------|-----------------|-----------------|
Ab|-7---7---7---7---|-5-5-5-5-5-5-5-5-|-0---0---0---0-2-|-3-2-0---------5-|
Eb|-----------------|-----------------|-----------------|-------3-2-0-2---|
    1 + 2 + 3 + 4 +   1 + 2 + 3 + 4 +   1 + 2 + 3 + 4 +   1 + 2 + 3 + 4 +

Gb|-----------------|-----------------|-----------------|-----------------|
Db|-----------------|-----------------|-----------------|-----------------|
Ab|-----------------|-----------------|-5-5-5-5-5-5-5-5-|-0-0-0-0-0-0-0-5-|
Eb|-0-0-0-0-0-0-0-0-|-3-3-3-3-3-3-3-3-|-----------------|-----------------|
    1 + 2 + 3 + 4 +   1 + 2 + 3 + 4 +   1 + 2 + 3 + 4 +   1 + 2 + 3 + 4 +

Gb|-----------------|-----------------|-----------------|-----------------||
Db|-----------------|-----------------|-----------------|-----------------||
Ab|-7-7-7-7-7-7-7-7-|-5-5-5-5-5-5-5-5-|-0-0-0-0-0-0-0-0-|-3-3-3-3-3-3-3-3-||
Eb|-----------------|-----------------|-----------------|-----------------||
    1 + 2 + 3 + 4 +   1 + 2 + 3 + 4 +   1 + 2 + 3 + 4 +   1 + 2 + 3 + 4 +

INTERLUDE

Gb|-----------------|-----------------|-----------------|-----------------|
Db|-----------------|-----------------|-----------------|-----------------|
Ab|-----------------|-----------------|-------3-3-------|-------3-3-------|
Eb|-0---------------|-----------2/14\-|-0---0-----3-3-5-|-0-0-0-----3-3-5-|
    1 + 2 + 3 + 4 +   1 + 2 + 3 + 4 +   1 + 2 + 3 + 4 +   1 + 2 + 3 + 4 +

Gb|-----------------|-----------------||
Db|-----------------|-----------------||
Ab|-------3-3-------|-3---------------||
Eb|-0---0-----3-3-5-|-----------------||
    1 + 2 + 3 + 4 +   1 + 2 + 3 + 4 +

VERSE

Gb|-----------------|-----------------|-----------------|-----------------|
Db|-----------------|-----------------|-----------------|-----------------|
Ab|-------3-3-------|-------3-3-------|-------3-3-------|-------3-3-------|
Eb|-0-0-0-----3-3-5-|-0-0-0-----3-3-5-|-0---0-----3-3-5-|-0-0-0-----3-3-5-|
    1 + 2 + 3 + 4 +   1 + 2 + 3 + 4 +   1 + 2 + 3 + 4 +   1 + 2 + 3 + 4 +

Gb|-----------------|-----------------|-----------------|-----------------|
Db|-----------------|-----------------|-----------------|-----------------|
Ab|-------3-3-------|-------3-3-------|-------3-3-------|-------3-3-------|
Eb|-0-0-0-----3-3-5-|-0-0-0-----3-3-5-|-0---0-----3-3-5-|-0-0-0-----3-3-5-|
    1 + 2 + 3 + 4 +   1 + 2 + 3 + 4 +   1 + 2 + 3 + 4 +   1 + 2 + 3 + 4 +

Gb|-----------------|-----------------|-----------------|-----------------||
Db|-----------------|-----------------|-----------------|-----------------||
Ab|-----------------|-----------------|-----------------|-----------------||
Eb|-5-5---5-5-5---5-|-5-5---5-5-5-5-3-|-5-5---5-5-5---5-|-5-5---5-5-7-8---||
    1 + 2 + 3 + 4 +   1 + 2 + 3 + 4 +   1 + 2 + 3 + 4 +   1 + 2 + 3 + 4 +

CHORUS

Gb|-----------------|-----------------|-----------------|-----------------|
Db|-----------------|-----------------|-----------------|-----------------|
Ab|-----------------|-----------------|-5---5---5---5---|-0-0-0-0-0-0-0-5-|
Eb|-0---0---0---0---|-3-3-3-3-3-3-3-3-|-----------------|-----------------|
    1 + 2 + 3 + 4 +   1 + 2 + 3 + 4 +   1 + 2 + 3 + 4 +   1 + 2 + 3 + 4 +

Gb|-----------------|-----------------|-----------------|-----------------|
Db|-----------------|-----------------|-----------------|-----------------|
Ab|-7---7---7---7---|-5-5-5-5-5-5-5-5-|-0---0---0---0-2-|-3-2-0---------5-|
Eb|-----------------|-----------------|-----------------|-------3-2-0-2---|
    1 + 2 + 3 + 4 +   1 + 2 + 3 + 4 +   1 + 2 + 3 + 4 +   1 + 2 + 3 + 4 +

Gb|-----------------|-----------------|-----------------|-----------------|
Db|-----------------|-----------------|-----------------|-----------------|
Ab|-----------------|-----------------|-5-5-5-5-5-5-5-5-|-0-0-0-0-0-0-0-5-|
Eb|-0-0-0-0-0-0-0-0-|-3-3-3-3-3-3-3-3-|-----------------|-----------------|
    1 + 2 + 3 + 4 +   1 + 2 + 3 + 4 +   1 + 2 + 3 + 4 +   1 + 2 + 3 + 4 +

Gb|-----------------|-----------------||
Db|-----------------|-----------------||
Ab|-7-7-7-7-7-7-7-7-|-5-5-5-5-5-5-5-5-||
Eb|-----------------|-----------------||
    1 + 2 + 3 + 4 +   1 + 2 + 3 + 4 +

BRIDGE

Gb|-----------------|-----------------|-----------------|-----------------|
Db|-----------------|-----------------|-----------------|-----------------|
Ab|-0-0-0-0-0-0-0-0-|-0-0-0-0-0---0-2-|-3-3-3-3-3-3-3-3-|-3-3-3-3-3-3-3-3-|
Eb|-----------------|-----------------|-----------------|-----------------|
    1 + 2 + 3 + 4 +   1 + 2 + 3 + 4 +   1 + 2 + 3 + 4 +   1 + 2 + 3 + 4 +

Gb|-----------------|-----------------|-----------------|-----------------|
Db|-----------------|-----------------|-----------------|-----------------|
Ab|-2-2-2-2-2-2-2-2-|-2-2-2-2-2-2-2-2-|-5-5-5-5-5-5-5-5-|-5-5-5-5-5-5-5-5-|
Eb|-----------------|-----------------|-----------------|-----------------|
    1 + 2 + 3 + 4 +   1 + 2 + 3 + 4 +   1 + 2 + 3 + 4 +   1 + 2 + 3 + 4 +

Gb|-----------------|-----------------|-----------------|-----------------|
Db|-----------------|-----------------|-----------------|-----------------|
Ab|-3---3---3-3-3-5-|---5-5---5-5-5-5-|---------------2-|---2-2---2-2-2-2-|
Eb|-----------------|-----------------|-0---0---0-0-0---|-----------------|
    1 + 2 + 3 + 4 +   1 + 2 + 3 + 4 +   1 + 2 + 3 + 4 +   1 + 2 + 3 + 4 +

Gb|-----------------|-----------------||
Db|-----------------|-----------------||
Ab|-3-3-3-3-3-3-3-3-|-5-5-5-5-5-5-5-5-||
Eb|-----------------|-----------------||
    1 + 2 + 3 + 4 +   1 + 2 + 3 + 4 +

INTERLUDE

Gb|-----------------|-----------------|-----------------|-----------------|
Db|-----------------|-----------------|-----------------|-----------------|
Ab|-----------------|-----------------|-5-5-5-5-5-5-5-5-|-0-0-0-0-0-0-0-0-|
Eb|-0-0-0-0-0-0-0-0-|-3-3-3-3-3-3-3-3-|-----------------|-----------------|
    1 + 2 + 3 + 4 +   1 + 2 + 3 + 4 +   1 + 2 + 3 + 4 +   1 + 2 + 3 + 4 +

Gb|-----------------|-----------------|-----------------|-----------------|
Db|-----------------|-----------------|-----------------|-----------------|
Ab|-7-7-7-7-7-7-7-7-|-5-5-5-5-5-5-5-5-|-0-0-0-0-0-0-0-2-|-3-3-3-3-3-3-3-3-|
Eb|-----------------|-----------------|-----------------|-----------------|
    1 + 2 + 3 + 4 +   1 + 2 + 3 + 4 +   1 + 2 + 3 + 4 +   1 + 2 + 3 + 4 +

Gb|-----------------|-----------------|-----------------|-----------------|
Db|-----------------|-----------------|-----------------|-----------------|
Ab|-----------------|-----------------|-5-5-5-5-5-5-5-5-|-0-0-0-0-0-0-0-0-|
Eb|-0-0-0-0-0-0-0-0-|-3-3-3-3-3-3-3-3-|-----------------|-----------------|
    1 + 2 + 3 + 4 +   1 + 2 + 3 + 4 +   1 + 2 + 3 + 4 +   1 + 2 + 3 + 4 +

Gb|-----------------|-----------------|-----------------|-----------------|
Db|-----------------|-----------------|-----------------|-----------------|
Ab|-7-7-7-7-7-7-7-7-|-5-5-5-5-5-5-5-5-|-0-0-0-0-0-0-0-2-|-3-3-3-3-3-3-3-3-|
Eb|-----------------|-----------------|-----------------|-----------------|
    1 + 2 + 3 + 4 +   1 + 2 + 3 + 4 +   1 + 2 + 3 + 4 +   1 + 2 + 3 + 4 +

Gb|-----------------|-----------------|-----------------|-----------------|
Db|-----------------|-----------------|-----------------|-----------------|
Ab|-----------------|-----------------|-5-5-5-5-5-5-5-5-|-0-0-0-0-0-0-0-5-|
Eb|-0-0-0-0-0-0-0-0-|-3-3-3-3-3-3-3-3-|-----------------|-----------------|
    1 + 2 + 3 + 4 +   1 + 2 + 3 + 4 +   1 + 2 + 3 + 4 +   1 + 2 + 3 + 4 +

Gb|-----------------|-----------------|-----------------|-----------------||
Db|-----------------|-----------------|-----------------|-----------------||
Ab|-7-7-7-7-7-7-7-7-|-5-5-5-5-5-5-5-5-|-0-0-0-0-0-0-0-2-|-3-3-3-3-3\\\----||
Eb|-----------------|-----------------|-----------------|-----------------||
    1 + 2 + 3 + 4 +   1 + 2 + 3 + 4 +   1 + 2 + 3 + 4 +   1 + 2 + 3 + 4 +

CHORUS

Gb|-----------------|-----------------|-----------------|-----------------|
Db|-----------------|-----------------|-----------------|-----------------|
Ab|-----------------|-----------------|-5-5-5-5-5-5-5-5-|-0-0-0-0-0-0-0-5-|
Eb|-0-0-0-0-0-0-0-0-|-3-3-3-3-3-3-3-3-|-----------------|-----------------|
    1 + 2 + 3 + 4 +   1 + 2 + 3 + 4 +   1 + 2 + 3 + 4 +   1 + 2 + 3 + 4 +

Gb|-----------------|-----------------|-----------------|-----------------|
Db|-----------------|-----------------|-----------------|-----------------|
Ab|-7-7-7-7-7-7-7-7-|-5-5-5-5-5-5-5-5-|-0-0-0-0-0-0-0-2-|-3-------5---0---|
Eb|-----------------|-----------------|-----------------|-----3-----------|
    1 + 2 + 3 + 4 +   1 + 2 + 3 + 4 +   1 + 2 + 3 + 4 +   1 + 2 + 3 + 4 +

Gb|-----------------|-----------------|-----------------|-----------------|
Db|-----------------|-----------------|-----------------|-----------------|
Ab|-----------------|-----------------|-5-5-5-5-5-5-5-5-|-0-0-0-0-0-0-0-5-|
Eb|-0-0-0-0-0-0-0-0-|-3-3-3-3-3-3-3-3-|-----------------|-----------------|
    1 + 2 + 3 + 4 +   1 + 2 + 3 + 4 +   1 + 2 + 3 + 4 +   1 + 2 + 3 + 4 +

Gb|-----------------|-----------------|-----------------|-----------------|
Db|-----------------|-----------------|-----------------|-----------------|
Ab|-7---7---7---7---|-5---5---5---5---|-0---0---0---0-2-|-3---------------|
Eb|-----------------|-----------------|-----------------|-----------------|
    1 + 2 + 3 + 4 +   1 + 2 + 3 + 4 +   1 + 2 + 3 + 4 +   1 + 2 + 3 + 4 +

Gb|-----------------||
Db|-----------------||
Ab|-7\\\\\\---------||
Eb|-----------------||
    1 + 2 + 3 + 4 +

TRACK 04)

THE DIRT WHISPERED

INTRO

Gb|-7---7-9-9-11--7---7-7-7-7-7-7-9-|-7---7-9-9-11--9---9-9-9-9-9-9-9-|
Db|-5---5-0-0-0---0---0-0-0-0-0-0-0-|-5---5-0-0-0---7---7-7-7-7-7-7-7-|
Ab|---------------------------------|---------------------------------|
Eb|---------------------------------|---------------------------------|
    1 + + + 2 + + + 3 + + + 4 + + +   1 + + + 2 + + + 3 + + + 4 + + +

Gb|-7---7-9-9-11--7---7-7-7-7-7-7-7-|-7---7-9-9-11--9---9-9-9-9-9-9-9-||
Db|-5---5-0-0-0---0---0-0-0-0-0-0-0-|-5---5-0-0-0---7---7-7-7-7-7-7-7-||
Ab|---------------------------------|---------------------------------||
Eb|---------------------------------|---------------------------------||
    1 + + + 2 + + + 3 + + + 4 + + +   1 + + + 2 + + + 3 + + + 4 + + +

INTERLUDE

Gb|---------------------------------|---------------------------------|
Db|---------------------------------|---------------------------------|
Ab|---------5-5-5-5---5-5---5-5-5-5-|---------5-5-5-0---0-0---0-0-0-0-|
Eb|-3---3-3-------------------------|-3---3-3-------------------------|
    1 + + + 2 + + + 3 + + + 4 + + +   1 + + + 2 + + + 3 + + + 4 + + +

Gb|---------------------------------|---------------------------------||
Db|---------------------------------|---------------------------------||
Ab|---------5-5-5-5---5-5---5-5-5-5-|---------5-5-5-0---0-0---0-0-0-0-||
Eb|-3---3-3-------------------------|-3---3-3-------------------------||
    1 + + + 2 + + + 3 + + + 4 + + +   1 + + + 2 + + + 3 + + + 4 + + +

VERSE

Gb|---------------------------------|---------------------------------|
Db|---------------------------------|---------------------------------|
Ab|---------5-5-5-5---5-5-5-5-5-5-5-|---------5-5-5-0---0-0-0-0-0-0-0-|
Eb|-3---3-3-------------------------|-3---3-3-------------------------|
    1 + + + 2 + + + 3 + + + 4 + + +   1 + + + 2 + + + 3 + + + 4 + + +

Gb|---------------------------------|---------------------------------||
Db|---------------------------------|---------------------------------||
Ab|---------5-5-5-5---5-5-555-5-5-5-|---------5-5-5-0---0-0-0-0-0-0-0-||
Eb|-3---3-3-------------------------|-3---3-3-------------------------||
    1 + + + 2 + + + 3 + + + 4 + + +   1 + + + 2 + + + 3 + + + 4 + + +

PRE-CHORUS

Gb|---------------------------------|---------------------------------|
Db|---------------------------------|---------------------------------|
Ab|-2---2---2---2---2---2---2---2---|-0---0---0---0---0---0---0---0-0-|
Eb|---------------------------------|---------------------------------|
    1 + + + 2 + + + 3 + + + 4 + + +   1 + + + 2 + + + 3 + + + 4 + + +

Gb|---------------------------------|---------------------------------||
Db|---------------------------------|---------------------------------||
Ab|---------------------------------|---------------------------------||
Eb|-3---3---3---3---3---3---3---3-3-|-3-3-3-3-3-3-3-3-3-3-3-3-3-3-3-3-||
    1 + + + 2 + + + 3 + + + 4 + + +   1 + + + 2 + + + 3 + + + 4 + + +

CHORUS

Gb|---------------------------------|---------------------------------|
Db|---------------------------------|---------------------------------|
Ab|-5---5-5-5-5-5-5-5-5-5-5-5-5-5-5-|-0---0-0-0-0-0-0-0-0-0-0-0-0-0-0-|
Eb|---------------------------------|---------------------------------|
    1 + + + 2 + + + 3 + + + 4 + + +   1 + + + 2 + + + 3 + + + 4 + + +

Gb|---------------------------------|---------------------------------|
Db|---------------------------------|---------------------------------|
Ab|---------------------------------|---------------------------------|
Eb|-3---3-3-3-3-3-3-3-3-3-3-3-3-3-3-|-3-3-3-3-3-3-3-3-3-3-3-3-3-3-3-3-|
    1 + + + 2 + + + 3 + + + 4 + + +   1 + + + 2 + + + 3 + + + 4 + + +

Gb|---------------------------------|---------------------------------|
Db|---------------------------------|---------------------------------|
Ab|-5---5-5-5-5-5-5-5-5-5-5-5-5-5-5-|-0---0-0-0-0-0-0-0-0-0-0-0-0-0-0-|
Eb|---------------------------------|---------------------------------|
    1 + + + 2 + + + 3 + + + 4 + + +   1 + + + 2 + + + 3 + + + 4 + + +

Gb|---------------------------------|---------------------------------||
Db|---------------------------------|---------------------------------||
Ab|---------------------------------|-5-5-5-5-5-5-5-5-0-0-0-0-0-0-0-0-||
Eb|-3---3-3-3-3-3-3-3-3-3-3-3-3-3-3-|---------------------------------||
    1 + + + 2 + + + 3 + + + 4 + + +   1 + + + 2 + + + 3 + + + 4 + + +


INTERLUDE

Gb|-7---7-9-9-11--7---7-7-7-7-7-7-7-|-7---7-9-9-11--9---9-9-9-9-9-9-9-|
Db|-5---5-0-0-0---0---0-0-0-0-0-0-0-|-5---5-0-0-0---7---7-7-7-7-7-7-7-|
Ab|---------------------------------|---------------------------------|
Eb|---------------------------------|---------------------------------|
    1 + + + 2 + + + 3 + + + 4 + + +   1 + + + 2 + + + 3 + + + 4 + + +

Gb|-7---7-9-9-11--7---7-7-7-7-7-7-7-|-12--12121111119---9-9-9-9-------||
Db|-5---5-0-0-0---0---0-0-0-0-0-0-0-|-0---0-0-0-0-0-7---7-7-7-7-------||
Ab|---------------------------------|---------------------------------||
Eb|---------------------------------|---------------------------------||
    1 + + + 2 + + + 3 + + + 4 + + +   1 + + + 2 + + + 3 + + + 4 + + +

VERSE

Gb|---------------------------------|---------------------------------|
Db|-------------5-------------------|---------------------------------|
Ab|---------------5---5-5-5-5-5-5-5-|---------5-5-5-0---0-0-0-0-0-0-0-|
Eb|---------------------------------|-3---3-3-------------------------|
    1 + + + 2 + + + 3 + + + 4 + + +   1 + + + 2 + + + 3 + + + 4 + + +

Gb|---------------------------------|---------------------------------||
Db|---------------------------------|---------------------------------||
Ab|---------5-5-5-5---5-5-555-5-5-5-|---------5-5-5-0---0-0-0-0-0-0-0-||
Eb|-3---3-3-------------------------|-3---3-3-------------------------||
    1 + + + 2 + + + 3 + + + 4 + + +   1 + + + 2 + + + 3 + + + 4 + + +

PRE-CHORUS

Gb|---------------------------------|---------------------------------|
Db|---------------------------------|---------------------------------|
Ab|-2---2---2---2---2---2---2---2-2-|-0---0---0---0---0---0---0---0-0-|
Eb|---------------------------------|---------------------------------|
    1 + + + 2 + + + 3 + + + 4 + + +   1 + + + 2 + + + 3 + + + 4 + + +

Gb|---------------------------------|---------------------------------||
Db|---------------------------------|---------------------------------||
Ab|---------------------------------|---------------------------------||
Eb|-3---3---3---3---3---3---3---3-3-|-3-3-3-3-3-3-3-3-3-3-3-3-3-3-3-3-||
    1 + + + 2 + + + 3 + + + 4 + + +   1 + + + 2 + + + 3 + + + 4 + + +

CHORUS

Gb|---------------------------------|---------------------------------|
Db|---------------------------------|---------------------------------|
Ab|-5---5-5-5-5-5-5-5-5-5-5-5-5-5-5-|-0---0-0-0-0-0-0-0-0-0-0-0-0-0-0-|
Eb|---------------------------------|---------------------------------|
    1 + + + 2 + + + 3 + + + 4 + + +   1 + + + 2 + + + 3 + + + 4 + + +

Gb|---------------------------------|---------------------------------|
Db|---------------------------------|---------------------------------|
Ab|---------------------------------|---------------------------------|
Eb|-3---3-3-3-3-3-3-3-3-3-3-3-3-3-3-|-3-3-3-3-3-3-3-3-3-3-3-3-3-3-3-3-|
    1 + + + 2 + + + 3 + + + 4 + + +   1 + + + 2 + + + 3 + + + 4 + + +

Gb|---------------------------------|---------------------------------|
Db|---------------------------------|---------------------------------|
Ab|-5---5-5-5-5-5-5-5-5-5-5-5-5-5-5-|-0---0-0-0-0-0-0-0-0-0-0-0-0-0-0-|
Eb|---------------------------------|---------------------------------|
    1 + + + 2 + + + 3 + + + 4 + + +   1 + + + 2 + + + 3 + + + 4 + + +

Gb|---------------------------------|---------------------------------||
Db|---------------------------------|---------------------------------||
Ab|---------------------------------|-5-5-5-5-5-5-5-5-0-0-0-0-1-1-1-1-||
Eb|-3---3-3-3-3-3-3-3-3-3-3-3-3-3-3-|---------------------------------||
    1 + + + 2 + + + 3 + + + 4 + + +   1 + + + 2 + + + 3 + + + 4 + + +


BRIDGE

Gb|---------------------------------|---------------------------------|
Db|---------------------------------|---------------------------------|
Ab|-2-2-2-2-2-2-2-2-2-2-2-2-2-2-2-2-|-0-0-0-0-0-0-0-0-0-0-0-0-0-0-0-0-|
Eb|---------------------------------|---------------------------------|
    1 + + + 2 + + + 3 + + + 4 + + +   1 + + + 2 + + + 3 + + + 4 + + +

Gb|---------------------------------|---------------------------------|
Db|---------------------------------|---------------------------------|
Ab|-5-5-5-5-5-5-5-5-5-5-5-5-5-5-5-5-|-7-7-7-7-7-7-7-7-7-7-7-7-7-7-7-7-|
Eb|---------------------------------|---------------------------------|
    1 + + + 2 + + + 3 + + + 4 + + +   1 + + + 2 + + + 3 + + + 4 + + +

Gb|---------------------------------|---------------------------------|
Db|---------------------------------|---------------------------------|
Ab|-2-2-2-2-2-2-2-2-2-2-2-2-2-2-2-2-|-0-0-0-0-0-0-0-0-0-0-0-0-0-0-0-0-|
Eb|---------------------------------|---------------------------------|
    1 + + + 2 + + + 3 + + + 4 + + +   1 + + + 2 + + + 3 + + + 4 + + +

Gb|---------------------------------|---------------------------------|
Db|---------------------------------|---------------------------------|
Ab|-5-5-5-5-5-5-5-5-5-5-5-5-5-5-5-5-|-7-7-7-7-7-7-7-7-7-7-7-7-7-7-7-7-|
Eb|---------------------------------|---------------------------------|
    1 + + + 2 + + + 3 + + + 4 + + +   1 + + + 2 + + + 3 + + + 4 + + +

Gb|---------------------------------|---------------------------------|
Db|-5-5-5-5-5-5-5-5-5-5-5-5-5-5-5-5-|-7-7-7-7-7-7-7-7-7-7-7-7-7-7-7-7-|
Ab|---------------------------------|---------------------------------|
Eb|---------------------------------|---------------------------------|
    1 + + + 2 + + + 3 + + + 4 + + +   1 + + + 2 + + + 3 + + + 4 + + +

Gb|---------------------------------|-7-------7-----------------------||
Db|-0-----0-------------------------|-5-------0-------7---------------||
Ab|---------------------------------|---------------------------------||
Eb|---------------------------------|---------------------------------||
    1 + + + 2 + + + 3 + + + 4 + + +   1 + + + 2 + + + 3 + + + 4 + + +

INTERLUDE

Gb|-7---7-9-9-11--7---7-7-7-7-7-7-9-|-7---7-9-9-11--9---9-9-9-9-9-9-9-|
Db|-5---5-0-0-0---0---0-0-0-0-0-0-0-|-5---5-0-0-0---7---7-7-7-7-7-7-7-|
Ab|---------------------------------|---------------------------------|
Eb|---------------------------------|---------------------------------|
    1 + + + 2 + + + 3 + + + 4 + + +   1 + + + 2 + + + 3 + + + 4 + + +

Gb|-7---7-9-9-11--7---7-7-7-7-7-7-7-|-7---7-9-9-11--9---9-9-9-9-9-9-9-|
Db|-5---5-0-0-0---0---0-0-0-0-0-0-0-|-5---5-0-0-0---7---7-7-7-7-7-7-7-|
Ab|---------------------------------|---------------------------------|
Eb|---------------------------------|---------------------------------|
    1 + + + 2 + + + 3 + + + 4 + + +   1 + + + 2 + + + 3 + + + 4 + + +

Gb|---------------------------------|---------------------------------||
Db|---------------------------------|---------------------------------||
Ab|---------------------------------|---------------------------------||
Eb|-3---3---3---3---3---3---3---3---|-3-------------------------------||
    1 + + + 2 + + + 3 + + + 4 + + +   1 + + + 2 + + + 3 + + + 4 + + +

CHORUS

Gb|---------------------------------|---------------------------------|
Db|---------------------------------|---------------------------------|
Ab|-5---5-5-5-5-5-5-5-5-5-5-5-5-5-5-|-0---0-0-0-0-0-0-0-0-0-0-0-0-0-0-|
Eb|---------------------------------|---------------------------------|
    1 + + + 2 + + + 3 + + + 4 + + +   1 + + + 2 + + + 3 + + + 4 + + +

Gb|---------------------------------|---------------------------------|
Db|---------------------------------|---------------------------------|
Ab|---------------------------------|---------------------------------|
Eb|-3---3-3-3-3-3-3-3-3-3-3-3-3-3-3-|-3-3-3-3-3-3-3-3-3-3-3-3-3-3-3-3-|
    1 + + + 2 + + + 3 + + + 4 + + +   1 + + + 2 + + + 3 + + + 4 + + +

Gb|---------------------------------|---------------------------------|
Db|---------------------------------|---------------------------------|
Ab|-5---5---5---5---5---5---5---5---|-0---0---0---0---0---0---0---0---|
Eb|---------------------------------|---------------------------------|
    1 + + + 2 + + + 3 + + + 4 + + +   1 + + + 2 + + + 3 + + + 4 + + +

Gb|---------------------------------|---------------------------------|
Db|---------------------------------|---------------------------------|
Ab|---------------------------------|-5---5---5---5---0---0---0---0---|
Eb|-3---3---3---3---3---3---3---3---|---------------------------------|
    1 + + + 2 + + + 3 + + + 4 + + +   1 + + + 2 + + + 3 + + + 4 + + +

Gb|---------------------------------|---------------------------------|
Db|---------------------------------|---------------------------------|
Ab|-5---5-5-5-5-5-5-5-5-5-5-2-2-----|-0---0-0-0-0-0-0-2-2-2-2-4-4-4-4-|
Eb|-----------------------------2-2-|---------------------------------|
    1 + + + 2 + + + 3 + + + 4 + + +   1 + + + 2 + + + 3 + + + 4 + + +

Gb|---------------------------------|---------------------------------|
Db|---------------------------------|---------------------------------|
Ab|-------------------------7-7-5\--|-----------------2-2-2-2-4-4-4-4-|
Eb|-3---3-3-3-3-3-3-3-3-3-3---------|-3-3-3-3-3-3-3-3-----------------|
    1 + + + 2 + + + 3 + + + 4 + + +   1 + + + 2 + + + 3 + + + 4 + + +


Gb|---------------------------------|---------------------------------|
Db|-----------------------2-2-2-4-4-|---------------------------------|
Ab|-5---5-5-5-5-5-5-5-5-5-----------|-0---0-0-0-0-0-0-0-0-0-0-2-2-4-4-|
Eb|---------------------------------|---------------------------------|
    1 + + + 2 + + + 3 + + + 4 + + +   1 + + + 2 + + + 3 + + + 4 + + +

Gb|---------------------------------|---------------------------------|
Db|---------------------------------|---------------------------------|
Ab|-----------------------------5--/|-1010--101010--101010--10101012--|
Eb|-3---3-3-3-3-3-3-3-3-3-3-3-3-----|---------------------------------|
    1 + + + 2 + + + 3 + + + 4 + + +   1 + + + 2 + + + 3 + + + 4 + + +

Gb|---------------------------------|---------------------------------||
Db|---------------------------------|---------------------------------||
Ab|-5-------------------------------|---------------------------------||
Eb|---------------------------------|---------------------------------||
    1 + + + 2 + + + 3 + + + 4 + + +   1 + + + 2 + + + 3 + + + 4 + + +

TRACK 05)

KOTOV SYNDROME

INTRO

     DRUMS
Gb||---------|----------------------------------|----------------------------------|
Db||---------|----------------------------------|----------------------------------|
Ab||---------|-----------------5---5-5---5-5----|----------------------------------|
Eb||---------|-2---2-2---2-2--------------------|-0---0-0---0-0---0---0-0---0-0----|
     1 2 3 4   1 + + + 2 + + + 3 + + + 4 + + +    1 + + + 2 + + + 3 + + + 4 + + +

Gb|----------------------------------|----------------------------------|
Db|----------------------------------|----------------------------------|
Ab|-----------------5---5-5---5-5----|----------------------------------|
Eb|-2---2-2---2-2--------------------|-0---0-0---0-0---0---0---0---0----|
    1 + + + 2 + + + 3 + + + 4 + + +    1 + + + 2 + + + 3 + + + 4 + + +

Gb|----------------------------------|----------------------------------|
Db|----------------------------------|----------------------------------|
Ab|-----------------5---5-5---5-5----|-0---0-0---0-0---2---2-2---2-2----|
Eb|-2---2-2---2-2--------------------|----------------------------------|
    1 + + + 2 + + + 3 + + + 4 + + +    1 + + + 2 + + + 3 + + + 4 + + +

Gb|----------------------------------|----------------------------------||
Db|----------------------------------|----------------------------------||
Ab|-----------------5---5-5---5-5----|----------------------------------||
Eb|-2---2-2---2-2--------------------|-0---0-0---0-0---0---0---0---0----||
    1 + + + 2 + + + 3 + + + 4 + + +    1 + + + 2 + + + 3 + + + 4 + + +

VERSE

Gb|----------------------------------|----------------------------------|
Db|----------------------------------|----------------------------------|
Ab|----------------------------------|----------------------------------|
Eb|-2---2-2---2-2---2---2-2---2-2----|-0---0-0---0-0---0---0-0---0-0----|
    1 + + + 2 + + + 3 + + + 4 + + +    1 + + + 2 + + + 3 + + + 4 + + +

Gb|----------------------------------|----------------------------------|
Db|----------------------------------|----------------------------------|
Ab|----------------------------------|----------------------------------|
Eb|-2---2-2---2-2---2---2-2---2-2----|-0---0-0---0-0---0---0-0---0-0----|
    1 + + + 2 + + + 3 + + + 4 + + +    1 + + + 2 + + + 3 + + + 4 + + +

Gb|----------------------------------|----------------------------------|
Db|----------------------------------|----------------------------------|
Ab|-5---5-5---5-5---5---5-5---5-5----|-7---7-7---7-7---7---7-7---7-7----|
Eb|----------------------------------|----------------------------------|
    1 + + + 2 + + + 3 + + + 4 + + +    1 + + + 2 + + + 3 + + + 4 + + +

Gb|----------------------------------|----------------------------------|
Db|----------------------------------|----------------------------------|
Ab|-5---5-5---5-5---5---5-5---5-5----|-7-7-7-7-7-7-7-7-0-------2--------|
Eb|----------------------------------|----------------------------------|
    1 + + + 2 + + + 3 + + + 4 + + +    1 + + + 2 + + + 3 + + + 4 + + +

Gb|----------------------------------|----------------------------------|
Db|----------------------------------|----------------------------------|
Ab|----------------------------------|----------------------------------|
Eb|-2---2-2---2-2---2---2-2---2-2----|-0---0-0---0-0---0---0-0---0-0----|
    1 + + + 2 + + + 3 + + + 4 + + +    1 + + + 2 + + + 3 + + + 4 + + +

Gb|----------------------------------|----------------------------------|
Db|----------------------------------|----------------------------------|
Ab|----------------------------------|----------------------------------|
Eb|-2---2-2---2-2---2---2-2---2-2----|-0---0-0---0-0---0---0-0---0-0----|
    1 + + + 2 + + + 3 + + + 4 + + +    1 + + + 2 + + + 3 + + + 4 + + +

Gb|----------------------------------|----------------------------------|
Db|----------------------------------|----------------------------------|
Ab|-5---5-5---5-5---5---5-5---5-5----|-7---7-7---7-7---7---7-7---7-7----|
Eb|----------------------------------|----------------------------------|
    1 + + + 2 + + + 3 + + + 4 + + +    1 + + + 2 + + + 3 + + + 4 + + +

Gb|----------------------------------|----------------------------------||
Db|----------------------------------|----------------------------------||
Ab|-5---5-5---5-5---5---5-5---5-5----|-7-7-7-7-7-7-7-7-0----------------||
Eb|----------------------------------|-------------------------0--------||
    1 + + + 2 + + + 3 + + + 4 + + +    1 + + + 2 + + + 3 + + + 4 + + +

CHORUS

Gb|----------------------------------|----------------------------------|
Db|----------------------------------|----------------------------------|
Ab|-----------------5---5-5---5-5----|----------------------------------|
Eb|-2---2-2---2-2--------------------|-0---0-0---0-0---0---0-0---0-0----|
    1 + + + 2 + + + 3 + + + 4 + + +    1 + + + 2 + + + 3 + + + 4 + + +

Gb|----------------------------------|----------------------------------|
Db|----------------------------------|----------------------------------|
Ab|-----------------5---5-5---5-5----|----------------------------------|
Eb|-2---2-2---2-2--------------------|-0---0---0---0---0---0-0---0-0----|
    1 + + + 2 + + + 3 + + + 4 + + +    1 + + + 2 + + + 3 + + + 4 + + +

Gb|----------------------------------|----------------------------------|
Db|----------------------------------|----------------------------------|
Ab|-----------------5---5-5---5-5----|-0---0-0---0-0---2---2-2---2-2----|
Eb|-2---2-2---2-2--------------------|----------------------------------|
    1 + + + 2 + + + 3 + + + 4 + + +    1 + + + 2 + + + 3 + + + 4 + + +

Gb|----------------------------------|----------------------------------||
Db|----------------------------------|----------------------------------||
Ab|-----------------5----------------|----------------------------------||
Eb|-2--------------------------------|-0--------------------------------||
    1 + + + 2 + + + 3 + + + 4 + + +    1 + + + 2 + + + 3 + + + 4 + + +

INTERLUDE

Gb|----------------------------------|----------------------------------|
Db|----------------------------------|----------------------------------|
Ab|----------------------------------|----------------------------------|
Eb|-2---2-2---2-2---2-------4---5----|-2---2-2---2-2---2-------4---5----|
    1 + + + 2 + + + 3 + + + 4 + + +    1 + + + 2 + + + 3 + + + 4 + + +

Gb|----------------------------------|----------------------------------||
Db|----------------------------------|----------------------------------||
Ab|----------------------------------|-0---------------0-------2--------||
Eb|-2---2-2---2-2---2-------4---5----|---------0------------------------||
    1 + + + 2 + + + 3 + + + 4 + + +    1 + + + 2 + + + 3 + + + 4 + + +

VERSE

Gb|----------------------------------|----------------------------------|
Db|----------------------------------|----------------------------------|
Ab|----------------------------------|----------------------------------|
Eb|-2---2-2---2-2---2---2-2---2-2----|-0---0-0---0-0---0---0-0---0-0----|
    1 + + + 2 + + + 3 + + + 4 + + +    1 + + + 2 + + + 3 + + + 4 + + +

Gb|----------------------------------|----------------------------------|
Db|----------------------------------|----------------------------------|
Ab|----------------------------------|----------------------------------|
Eb|-2---2-2---2-2---2---2-2---2-2----|-0---0-0---0-0---0---0-0---0-0----|
    1 + + + 2 + + + 3 + + + 4 + + +    1 + + + 2 + + + 3 + + + 4 + + +

Gb|----------------------------------|----------------------------------|
Db|----------------------------------|----------------------------------|
Ab|-5---5-5---5-5---5---5-5---5-5----|-7---7-7---7-7---7---7---7---7----|
Eb|----------------------------------|----------------------------------|
    1 + + + 2 + + + 3 + + + 4 + + +    1 + + + 2 + + + 3 + + + 4 + + +

Gb|----------------------------------|----------------------------------|
Db|----------------------------------|----------------------------------|
Ab|-5---5-5---5-5---5---5-5---5-5----|-7-7-7-7-7-7-7-7-0-------2--------|
Eb|----------------------------------|----------------------------------|
    1 + + + 2 + + + 3 + + + 4 + + +    1 + + + 2 + + + 3 + + + 4 + + +

Gb|----------------------------------|----------------------------------|
Db|----------------------------------|----------------------------------|
Ab|----------------------------------|----------------------------------|
Eb|-2---2-2---2-2---2---2-2---2-2----|-0---0-0---0-0---0---0-0---0-0----|
    1 + + + 2 + + + 3 + + + 4 + + +    1 + + + 2 + + + 3 + + + 4 + + +

Gb|----------------------------------|----------------------------------|
Db|----------------------------------|----------------------------------|
Ab|----------------------------------|----------------------------------|
Eb|-2---2-2---2-2---2---2-2---2-2----|-0---0-0---0-0---0---0-0---0-0----|
    1 + + + 2 + + + 3 + + + 4 + + +    1 + + + 2 + + + 3 + + + 4 + + +

Gb|----------------------------------|----------------------------------|
Db|----------------------------------|----------------------------------|
Ab|-5---5-5---5-5---5---5-5---5-5----|-7---7-7---7-7---7---7-7---7-7----|
Eb|----------------------------------|----------------------------------|
    1 + + + 2 + + + 3 + + + 4 + + +    1 + + + 2 + + + 3 + + + 4 + + +

Gb|----------------------------------|----------------------------------||
Db|----------------------------------|----------------------------------||
Ab|-5---5-5---5-5---5---5-5---5-5----|-7-7-7-7-7-7-7-7-0----------------||
Eb|----------------------------------|-------------------------0--------||
    1 + + + 2 + + + 3 + + + 4 + + +    1 + + + 2 + + + 3 + + + 4 + + +

CHORUS

Gb|----------------------------------|----------------------------------|
Db|----------------------------------|----------------------------------|
Ab|-----------------5---5-5---5-5----|----------------------------------|
Eb|-2---2-2---2-2--------------------|-0---0-0---0-0---0---0-0---0-0----|
    1 + + + 2 + + + 3 + + + 4 + + +    1 + + + 2 + + + 3 + + + 4 + + +

Gb|----------------------------------|----------------------------------|
Db|----------------------------------|----------------------------------|
Ab|-----------------5---5-5---5-5----|----------------------------------|
Eb|-2---2-2---2-2--------------------|-0---0-0---0-0---0---0---0---0----|
    1 + + + 2 + + + 3 + + + 4 + + +    1 + + + 2 + + + 3 + + + 4 + + +

Gb|----------------------------------|----------------------------------|
Db|----------------------------------|----------------------------------|
Ab|-----------------5---5-5---5-5----|-0---0-0---0-0---2---2-2---2-2----|
Eb|-2---2-2---2-2--------------------|----------------------------------|
    1 + + + 2 + + + 3 + + + 4 + + +    1 + + + 2 + + + 3 + + + 4 + + +

Gb|----------------------------------|----------------------------------||
Db|----------------------------------|----------------------------------||
Ab|-----------------5----------------|----------------------------------||
Eb|-2--------------------------------|-0--------------------------------||
    1 + + + 2 + + + 3 + + + 4 + + +    1 + + + 2 + + + 3 + + + 4 + + +

INTERLUDE

Gb|----------------------------------|----------------------------------|
Db|----------------------------------|----------------------------------|
Ab|----------------------------------|----------------------------------|
Eb|-2---2-2---2-2---2-------4---5----|-2---2-2---2-2---2-------4---5----|
    1 + + + 2 + + + 3 + + + 4 + + +    1 + + + 2 + + + 3 + + + 4 + + +

Gb|----------------------------------|----------------------------------|
Db|----------------------------------|----------------------------------|
Ab|----------------------------------|----------------------------------|
Eb|-2---2-2---2-2---2-------4---5----|-0--------------------------------|
    1 + + + 2 + + + 3 + + + 4 + + +    1 + + + 2 + + + 3 + + + 4 + + +


Gb|----------------------------------|----------------------------------|
Db|----------------------------------|----------------------------------|
Ab|----------------------------------|----------------------------------|
Eb|----------------------------------|----------------------------------|
    1 + + + 2 + + + 3 + + + 4 + + +    1 + + + 2 + + + 3 + + + 4 + + +


Gb|----------------------------------||
Db|----------------------------------||
Ab|----------------------------------||
Eb|----------------------------------||
    1 + + + 2 + + + 3 + + + 4 + + +

BRIDGE

Gb|-----------------|-----------------|-----------------|-----------------|
Db|-----------------|-----------------|-----------------|-----------------|
Ab|-0-0---------2-2-|-----------------|-----------------|-5-5-------------|
Eb|-----------------|-2-2-------------|-0-0---------2-2-|-----------------|
    1 + 2 + 3 + 4 +   1 + 2 + 3 + 4 +   1 + 2 + 3 + 4 +   1 + 2 + 3 + 4 +

Gb|-----------------|-----------------|-----------------|-----------------|
Db|-----------------|-----------------|-----------------|-----------------|
Ab|-0-0---------2-2-|-----------------|-----------------|-5-5-------------|
Eb|-----------------|-2-2-------------|-0-0---------2-2-|-----------------|
    1 + 2 + 3 + 4 +   1 + 2 + 3 + 4 +   1 + 2 + 3 + 4 +   1 + 2 + 3 + 4 +

Gb|-----------------|-----------------|-----------------|-----------------|
Db|-----------------|-----------------|-----------------|-----------------|
Ab|-0-0-0-0-0-2-2-2-|-----------------|-----------------|-5-5-5-5-5-5-5-5-|
Eb|-----------------|-2-2-2-2-2-2-2-2-|-0-0-0-0-0-2-2-2-|-----------------|
    1 + 2 + 3 + 4 +   1 + 2 + 3 + 4 +   1 + 2 + 3 + 4 +   1 + 2 + 3 + 4 +

Gb|-----------------|-----------------|-----------------|-----------------|
Db|-----------------|-----------------|-----------------|-----------------|
Ab|-0-0-0-0-0-2-2-2-|-----------------|-----------------|-5-5-5-5-5-5-5-5-|
Eb|-----------------|-2-2-2-2-2-2-2-2-|-0-0-0-0-0-2-2-2-|-----------------|
    1 + 2 + 3 + 4 +   1 + 2 + 3 + 4 +   1 + 2 + 3 + 4 +   1 + 2 + 3 + 4 +

Gb|-----------------|-----------------|-----------------|-----------------|
Db|-----------------|-----------------|-----------------|-----------------|
Ab|-0-0-0-0-0-0-2-2-|-----------------|-----------------|-5-5-5-5-5-5-5-5-|
Eb|-----------------|-2-2-2-2-2-2-2-2-|-0-0-0-0-0-0-2-2-|-----------------|
    1 + 2 + 3 + 4 +   1 + 2 + 3 + 4 +   1 + 2 + 3 + 4 +   1 + 2 + 3 + 4 +

Gb|-----------------|-----------------|-----------------|-----------------|
Db|-----------------|-----------------|-----------------|-----------------|
Ab|-0-0-0-0-0-0-2-2-|-----------------|---------------5-|---5-5-5-5-----5-|
Eb|-----------------|-2-2-2-2-2-2-2-2-|-0-0-0-0-0-2-2---|-----------2-2---|
    1 + 2 + 3 + 4 +   1 + 2 + 3 + 4 +   1 + 2 + 3 + 4 +   1 + 2 + 3 + 4 +


Gb|-----------------|-----------------|-----------------|---------|---------||
Db|-----------------|-----------------|-----------------|---------|---------||
Ab|---5-5-5-5-----5-|---5-5-5-5-5-5-7-|---7-7-7-7-7-7-7-|---------|---------||
Eb|-----------2-2---|-----------------|-----------------|-2-------|---------||
    1 + 2 + 3 + 4 +   1 + 2 + 3 + 4 +   1 + 2 + 3 + 4 +   1 2 3 4   1 2 3 4

CHORUS

Gb|-----------------|-----------------|-----------------|-----------------|
Db|-----------------|-----------------|-----------------|-----------------|
Ab|-----------------|-----------------|-----------------|-----------------|
Eb|-----------------|-----------------|-----------------|-----------------|
    1 + 2 + 3 + 4 +   1 + 2 + 3 + 4 +   1 + 2 + 3 + 4 +   1 + 2 + 3 + 4 +


Gb|----------------------------------|----------------------------------|
Db|----------------------------------|----------------------------------|
Ab|-----------------5---5-5---5-5----|----------------------------------|
Eb|-2---2-2---2-2--------------------|-0---0-0---0-0---0---0-0---0-0----|
    1 + + + 2 + + + 3 + + + 4 + + +    1 + + + 2 + + + 3 + + + 4 + + +

Gb|----------------------------------|----------------------------------|
Db|----------------------------------|----------------------------------|
Ab|-----------------5---5-5---5-5----|----------------------------------|
Eb|-2---2-2---2-2--------------------|-0---0-0---0-0---0----------------|
    1 + + + 2 + + + 3 + + + 4 + + +    1 + + + 2 + + + 3 + + + 4 + + +

Gb|----------------------------------|----------------------------------|
Db|----------------------------------|----------------------------------|
Ab|-----------------5---5---5---5----|----------------------------------|
Eb|-2---2---2---2--------------------|-0---0---0---0---0---0---0---0----|
    1 + + + 2 + + + 3 + + + 4 + + +    1 + + + 2 + + + 3 + + + 4 + + +


Gb|----------------------------------|----------------------------------|
Db|----------------------------------|----------------------------------|
Ab|-----------------5---5---5---5----|----------------------------------|
Eb|-2---2---2---2--------------------|-0---0---0---0---0---0---0---0----|
    1 + + + 2 + + + 3 + + + 4 + + +    1 + + + 2 + + + 3 + + + 4 + + +

Gb|----------------------------------|----------------------------------||
Db|----------------------------------|----------------------------------||
Ab|-----------------5----------------|----------------------------------||
Eb|-2--------------------------------|-0~-------------------------------||
    1 + + + 2 + + + 3 + + + 4 + + +    1 + + + 2 + + + 3 + + + 4 + + +

TRACK 06)

FROM HEADS UNWORTHY

INTRO/VERSE

Gb|------------------|------------------|------------------|------------------|
Db|------------------|------------------|------------------|------------------|
Ab|------------------|------------------|------------------|------------------|
Eb|------------------|------------------|------------------|------------------|
    1 + 2 + 3 + 4 +    1 + 2 + 3 + 4 +    1 + 2 + 3 + 4 +    1 + 2 + 3 + 4 +

Gb|------------------|------------------|------------------|------------------|
Db|------------------|------------------|------------------|------------------|
Ab|------------------|------------------|------------------|------------------|
Eb|------------------|------------------|------------------|------------------|
    1 + 2 + 3 + 4 +    1 + 2 + 3 + 4 +    1 + 2 + 3 + 4 +    1 + 2 + 3 + 4 +

Gb|------------------|------------------|------------------|------------------|
Db|------------------|------------------|------------------|------------------|
Ab|------------------|------------------|------------------|------------------|
Eb|------------------|------------------|------------------|------------------|
    1 + 2 + 3 + 4 +    1 + 2 + 3 + 4 +    1 + 2 + 3 + 4 +    1 + 2 + 3 + 4 +

Gb|------------------|------------------|------------------|------------------||
Db|------------------|------------------|------------------|------------------||
Ab|------------------|------------------|-5----------------|-3-3-3-3-3-3/15\\-||
Eb|-0----------------|-3----------------|------------------|------------------||
    1 + 2 + 3 + 4 +    1 + 2 + 3 + 4 +    1 + 2 + 3 + 4 +    1 + 2 + 3 + 4 +

PRE-CHORUS

Gb|------------------|------------------|------------------|------------------|
Db|------------------|------------------|------------------|-9-9-9-7-7-7-5-5--|
Ab|-3-3-3-3-3-3-3-3--|-3-3-3-3-3-3-3-3--|-5-5-5-5-5-5-5-5/-|------------------|
Eb|------------------|------------------|------------------|------------------|
    1 + 2 + 3 + 4 +    1 + 2 + 3 + 4 +    1 + 2 + 3 + 4 +    1 + 2 + 3 + 4 +

Gb|------------------|------------------|------------------|------------------||
Db|------------------|------------------|------------------|------------------||
Ab|-3-3-3-3-3-3-3-3--|-3-3-3-3-3-3-3-3--|-5-5-5-5-5-5-5-5--|-------5-5--------||
Eb|------------------|------------------|------------------|-3-3-3------------||
    1 + 2 + 3 + 4 +    1 + 2 + 3 + 4 +    1 + 2 + 3 + 4 +    1 + 2 + 3 + 4 +

CHORUS

Gb|------------------|------------------|------------------|------------------|
Db|------------------|------------------|------------------|------------------|
Ab|------------------|-5-5-5-5-5-5-5-5--|-3-3-3-3----------|-5-5-5-5-5-5-5-5--|
Eb|-0-0-0-0-3-3-3-3--|------------------|---------3-3-3-3--|------------------|
    1 + 2 + 3 + 4 +    1 + 2 + 3 + 4 +    1 + 2 + 3 + 4 +    1 + 2 + 3 + 4 +

Gb|------------------|------------------|------------------|------------------||
Db|------------------|------------------|-101010109-9-9-9--|-7-7-7-7-7-7-7-7--||
Ab|------------------|-5-5-5-5-5-5-5-5//|------------------|------------------||
Eb|-0-0-0-0-3-3-3-3--|------------------|------------------|------------------||
    1 + 2 + 3 + 4 +    1 + 2 + 3 + 4 +    1 + 2 + 3 + 4 +    1 + 2 + 3 + 4 +

VERSE

Gb|------------------|------------------|------------------|------------------|
Db|------------------|------------------|------------------|------------------|
Ab|------------------|------------------|-5-5-5-5-5-5-5-5--|-3-3-3-3-3-3-5-5--|
Eb|-0-0-0-0-0-0-0-0--|-3-3-3-3-3-3-3-3--|------------------|------------------|
    1 + 2 + 3 + 4 +    1 + 2 + 3 + 4 +    1 + 2 + 3 + 4 +    1 + 2 + 3 + 4 +

Gb|------------------|------------------|------------------|------------------|
Db|------------------|------------------|------------------|------------------|
Ab|------------------|-------------2-3--|-5-5-5-5-5---7-5--|-3-3-3-3-3-3-5-5--|
Eb|-0-0-0-0-0-0-0-0--|-3-3-3-3-3-5------|-----------0------|------------------|
    1 + 2 + 3 + 4 +    1 + 2 + 3 + 4 +    1 + 2 + 3 + 4 +    1 + 2 + 3 + 4 +

Gb|------------------|------------------|------------------|------------------|
Db|------------------|------------------|------------------|------------------|
Ab|------------------|------------------|-5-5-5-5-5---7-5--|-3-3-3-3-3-3-5-5--|
Eb|-0-0-0-0-0-0-0-0--|-3-3-3-3-3-3-2-0--|-----------0------|------------------|
    1 + 2 + 3 + 4 +    1 + 2 + 3 + 4 +    1 + 2 + 3 + 4 +    1 + 2 + 3 + 4 +

Gb|------------------|------------------|------------------|------------------||
Db|------------------|------------------|------------------|------------------||
Ab|------------------|-------------2-3--|-5-5-5-5-5---7-5--|-3-3-3-3-3-3/15\\-||
Eb|-0-0-0-0-0-0-0-0--|-3-3-3-3-3-5------|-----------0------|------------------||
    1 + 2 + 3 + 4 +    1 + 2 + 3 + 4 +    1 + 2 + 3 + 4 +    1 + 2 + 3 + 4 +

PRE-CHORUS

Gb|------------------|------------------|------------------|------------------|
Db|------------------|------------------|------------------|-1212121010109-9--|
Ab|-3-3-3-3-3-3-3-3--|-3-3-3-3-3-3-3-3--|-5-5-5-5-5-5-5-5/-|------------------|
Eb|------------------|------------------|------------------|------------------|
    1 + 2 + 3 + 4 +    1 + 2 + 3 + 4 +    1 + 2 + 3 + 4 +    1 + 2 + 3 + 4 +

Gb|------------------|------------------|------------------|------------------||
Db|------------------|------------------|------------------|------------------||
Ab|-3-3-3-3-3-3-3-3--|-3-3-3-3-3-3-3-3--|-5-5-5-5-5-5-5-5--|-------5-5--------||
Eb|------------------|------------------|------------------|-3-3-3------------||
    1 + 2 + 3 + 4 +    1 + 2 + 3 + 4 +    1 + 2 + 3 + 4 +    1 + 2 + 3 + 4 +

CHORUS

Gb|------------------|------------------|------------------|------------------|
Db|------------------|------------------|------------------|------------------|
Ab|------------------|-5-5-5-5-5-5-5-5--|-3-3-3-3----------|-5-5-5-5-5-5-5-5--|
Eb|-0-0-0-0-3-3-3-3--|------------------|---------3-3-3-3--|------------------|
    1 + 2 + 3 + 4 +    1 + 2 + 3 + 4 +    1 + 2 + 3 + 4 +    1 + 2 + 3 + 4 +

Gb|------------------|------------------|------------------|------------------||
Db|------------------|------------------|------------------|---------7-7-5-0--||
Ab|------------------|-5-5-5-5-5-5-5-5--|-3-3-3-3-----0-0--|-5-5-5-5----------||
Eb|-0-0-0-0-3-3-3-3--|------------------|---------3-3------|------------------||
    1 + 2 + 3 + 4 +    1 + 2 + 3 + 4 +    1 + 2 + 3 + 4 +    1 + 2 + 3 + 4 +

BRIDGE

Gb|------------------|------------------|------------------|------------------|
Db|------------------|---------4-4-5-5--|------------------|---------4-4-5-5--|
Ab|-3-3-3-3-3-3-3-3--|-3-3-3-3----------|-5-5-5-5-5-5-5-5--|-5-5-5-5----------|
Eb|------------------|------------------|------------------|------------------|
    1 + 2 + 3 + 4 +    1 + 2 + 3 + 4 +    1 + 2 + 3 + 4 +    1 + 2 + 3 + 4 +

Gb|------------------|------------------|-------------4-5--|-7-7-7-5-5-5-4-4--|
Db|------------------|---------------4--|-5-5-5-5-5-5------|------------------|
Ab|-7-7-7-7-7-7-7-7--|-7-7-7-7-7-7-7----|------------------|------------------|
Eb|------------------|------------------|------------------|------------------|
    1 + 2 + 3 + 4 +    1 + 2 + 3 + 4 +    1 + 2 + 3 + 4 +    1 + 2 + 3 + 4 +

Gb|------------------|------------------|------------------|------------------|
Db|------------------|---------4-4-5-5--|------------------|---------4-4-5-5--|
Ab|-3-3-3-3-3-3-3-3--|-3-3-3-3----------|-5-5-5-5-5-5-5-5--|-5-5-5-5----------|
Eb|------------------|------------------|------------------|------------------|
    1 + 2 + 3 + 4 +    1 + 2 + 3 + 4 +    1 + 2 + 3 + 4 +    1 + 2 + 3 + 4 +

Gb|------------------|------------------|------------------|------------------|
Db|------------------|---------------4--|-5-5-5-5-5-5-5-5--|------------------|
Ab|-7-7-7-7-7-7-7-7--|-7-7-7-7-7-7-7----|------------------|-2-2-2-3-3-3-5-5--|
Eb|------------------|------------------|------------------|------------------|
    1 + 2 + 3 + 4 +    1 + 2 + 3 + 4 +    1 + 2 + 3 + 4 +    1 + 2 + 3 + 4 +

Gb|------------------|------------------|------------------|------------------|
Db|------------------|------------------|------------------|---------4-4-5-5--|
Ab|-3-3-3-3-3-3-3-3--|-3-3-3-3----------|-5-5-5-5-5-5-5-5--|-5-5-5-5----------|
Eb|------------------|---------2-2-3-3--|------------------|------------------|
    1 + 2 + 3 + 4 +    1 + 2 + 3 + 4 +    1 + 2 + 3 + 4 +    1 + 2 + 3 + 4 +

Gb|------------------|------------------|------------------|------------------|
Db|------------------|---------------4--|-5-5-5-5-5-5-5-5--|-5-5-5-5-5-5-5-5--|
Ab|-7-7-7-7-7-7-7-7--|-7-7-7-7-7-7-7\---|------------------|------------------|
Eb|------------------|------------------|------------------|------------------|
    1 + 2 + 3 + 4 +    1 + 2 + 3 + 4 +    1 + 2 + 3 + 4 +    1 + 2 + 3 + 4 +

Gb|------------------|------------------|------------------|------------------||
Db|------------------|------------------|------------------|------------------||
Ab|-3-3-3---3-3-3----|-3-3-3---3--------|-5----------------|------------------||
Eb|------------------|-----------3---3--|------------------|------------------||
    1 + 2 + 3 + 4 +    1 + 2 + 3 + 4 +    1 + 2 + 3 + 4 +    1 + 2 + 3 + 4 +

BRIDGE TWO

Gb|------------------|------------------|------------------|------------------|
Db|------------------|------------------|------------------|------------------|
Ab|------------------|------------------|------------------|------------------|
Eb|------------------|------------------|------------------|------------------|
    1 + 2 + 3 + 4 +    1 + 2 + 3 + 4 +    1 + 2 + 3 + 4 +    1 + 2 + 3 + 4 +

Gb|------------------|------------------|------------------|------------------||
Db|------------------|------------------|------------------|------------------||
Ab|------------------|------------------|------------------|------------------||
Eb|------------------|------------------|------------------|------------------||
    1 + 2 + 3 + 4 +    1 + 2 + 3 + 4 +    1 + 2 + 3 + 4 +    1 + 2 + 3 + 4 +

CHORUS

Gb|------------------|------------------|------------------|------------------|
Db|------------------|------------------|------------------|------------------|
Ab|------------------|-5-5-5-5-5-5-5-5--|-3-3-3-3----------|-5-5-5-5-5-5-5-5--|
Eb|-0-0-0-0-3-3-3-3--|------------------|---------3-3-3-3--|------------------|
    1 + 2 + 3 + 4 +    1 + 2 + 3 + 4 +    1 + 2 + 3 + 4 +    1 + 2 + 3 + 4 +

Gb|------------------|------------------|------------------|------------------|
Db|------------------|------------------|------------------|------------------|
Ab|------------------|-5-5-5-5-5-5-5-5--|-3-3-3-3-----0-0--|-5----------------|
Eb|-0-0-0-0-3-3-3-3--|------------------|---------3-3------|------------------|
    1 + 2 + 3 + 4 +    1 + 2 + 3 + 4 +    1 + 2 + 3 + 4 +    1 + 2 + 3 + 4 +

Gb|------------------|------------------|------------------|------------------|
Db|------------------|------------------|------------------|------------------|
Ab|------------------|-5-5-5-5-5-5-5-5--|-3-3-3-3----------|-5-5-5-5-5-5-5-5--|
Eb|-0-0-0-0-3-3-3-3--|------------------|---------3-3-3-3--|------------------|
    1 + 2 + 3 + 4 +    1 + 2 + 3 + 4 +    1 + 2 + 3 + 4 +    1 + 2 + 3 + 4 +


Gb|------------------|------------------|------------------|------------------||
Db|------------------|------------------|------------------|------------------||
Ab|------------------|-5-5-5-5-5-5-5-5--|-3-------2--------|-0----------------||
Eb|-0-0-0-0-3-3-3-3--|------------------|------------------|------------------||
    1 + 2 + 3 + 4 +    1 + 2 + 3 + 4 +    1 + 2 + 3 + 4 +    1 + 2 + 3 + 4 +

TRACK 07)

THE STRENGTH TO GO ON

INTRO – Four bars of nothing

VERSE

Gb|-------------|-------------|-------------|-------------|
Db|-------------|-------------|-------------|-------------|
Ab|-55-5-58-7-5-|-11-1-13-333-|-55-5-58-7-5-|-11-1-13-----|
Eb|-------------|-------------|-------------|-------------|
    1 2 3 4 5 6   1 2 3 4 5 6   1 2 3 4 5 6   1 2 3 4 5 6

Gb|-------------|-------------|-------------|-------------|
Db|-------------|-------------|-------------|-------------|
Ab|-55-5-58-7-5-|-11-1-13-333-|-------------|-------------|
Eb|-------------|-------------|-11-1-11-1-1-|-33-3-33-3-3-|
    1 2 3 4 5 6   1 2 3 4 5 6   1 2 3 4 5 6   1 2 3 4 5 6

Gb|-------------|-------------|-------------|-------------|
Db|-------------|-------------|-------------|-------------|
Ab|-55-5-58-7-5-|-11-1-13-3-3-|-55-5-58-7-5-|-11-1-13-----|
Eb|-------------|-------------|-------------|-------------|
    1 2 3 4 5 6   1 2 3 4 5 6   1 2 3 4 5 6   1 2 3 4 5 6


Gb|-------------|-------------|-------------|-------------||
Db|-------------|-------------|-------------|-------------||
Ab|-55-5-58-7-5-|-11-1-13-333-|-------------|-------------||
Eb|-------------|-------------|-11-1-11-1-1-|-33-3-33-3-3-||
    1 2 3 4 5 6   1 2 3 4 5 6   1 2 3 4 5 6   1 2 3 4 5 6

PRE-CHORUS

Gb|------------------|------------------|------------------|------------------|
Db|------------------|------------------|------------------|------------------|
Ab|-1----------------|-3----------------|-5-5--55-5-5--55--|------------------|
Eb|------------------|------------------|------------------|-1-1--11-1-1--11--|
    1 + 2 + 3 + 4 +    1 + 2 + 3 + 4 +    1 + 2 + 3 + 4 +    1 + 2 + 3 + 4 +

Gb|------------------|-----------5------||
Db|------------------|------------------||
Ab|-1-1--11-1-1--11--|-333333333--------||
Eb|------------------|------------------||
    1 + 2 + 3 + 4 +    1 + 2 + 3 + 4 +

CHORUS

Gb|------------------|------------------|------------------|------------------|
Db|------------------|------------------|------------------|------------------|
Ab|-5-5-5-5----------|-1-1-1-1-1-1-1-1--|-5-5-5-5----------|-1-1-1-1-1-1-1-1--|
Eb|---------1-1-1-1--|------------------|---------1-1-1-1--|------------------|
    1 + 2 + 3 + 4 +    1 + 2 + 3 + 4 +    1 + 2 + 3 + 4 +    1 + 2 + 3 + 4 +

Gb|------------------|------------------|------------------|------------------|
Db|------------------|------------------|------------------|------------------|
Ab|-5-5-5-5----------|-1-1-1-1-1-1-1-1--|-3-3-3-3-3-3-3-1--|---1-1-1-1-1-1-1--|
Eb|---------1-1-1-1--|------------------|------------------|------------------|
    1 + 2 + 3 + 4 +    1 + 2 + 3 + 4 +    1 + 2 + 3 + 4 +    1 + 2 + 3 + 4 +

Gb|------------------|------------------||
Db|------------------|------------------||
Ab|-3-3-3-3-3-3-3-1--|------------------||
Eb|------------------|------------------||
    1 + 2 + 3 + 4 +    1 + 2 + 3 + 4 +

INTERLUDE

Gb|-77-7-77-7-7-|-77-7-77-7-7-|-77-7-77-7-7-|-77-7-77-----||
Db|-------------|-------------|-------------|-------------||
Ab|-------------|-------------|-------------|-------------||
Eb|-------------|-------------|-------------|-------------||
    1 2 3 4 5 6   1 2 3 4 5 6   1 2 3 4 5 6   1 2 3 4 5 6

VERSE

Gb|-------------|-------------|-------------|-------------|
Db|-------------|-------------|-------------|-------------|
Ab|-55-5-58-7-5-|-11-1-13-3-3-|-55-5-58-7-5-|-11-1-13-----|
Eb|-------------|-------------|-------------|-------------|
    1 2 3 4 5 6   1 2 3 4 5 6   1 2 3 4 5 6   1 2 3 4 5 6

Gb|-------------|-------------|-------------|-------------|
Db|-------------|-------------|-------------|-------------|
Ab|-55-5-58-7-5-|-11-1-13-333-|-------------|-------------|
Eb|-------------|-------------|-11-1-11-0-1-|-33-3-33-3-3-|
    1 2 3 4 5 6   1 2 3 4 5 6   1 2 3 4 5 6   1 2 3 4 5 6

Gb|-------------|-------------|-------------|-------------|
Db|-------------|-------------|-------------|-------------|
Ab|-55-5-58-7-5-|-11-1-13-3-3-|-55-5-58-7-5-|-11-1-13-----|
Eb|-------------|-------------|-------------|-------------|
    1 2 3 4 5 6   1 2 3 4 5 6   1 2 3 4 5 6   1 2 3 4 5 6


Gb|-------------|-------------|-------------|-------------||
Db|-------------|-------------|-------------|-------------||
Ab|-55-5-58-7-5-|-11-1-13-3-3-|-------------|-------------||
Eb|-------------|-------------|-11-1-11-0-1-|-33-3-3------||
    1 2 3 4 5 6   1 2 3 4 5 6   1 2 3 4 5 6   1 2 3 4 5 6

PRE-CHORUS

Gb|------------------|------------------|------------------|------------------|
Db|------------------|------------------|------------------|------------------|
Ab|-1----------------|-3----------------|-5-5--55-5-5--55--|------------------|
Eb|------------------|------------------|------------------|-1-1--11-1-1--11--|
    1 + 2 + 3 + 4 +    1 + 2 + 3 + 4 +    1 + 2 + 3 + 4 +    1 + 2 + 3 + 4 +

Gb|------------------|------------------||
Db|------------------|------------------||
Ab|-1-1--11-1-1--11--|-333333333-3\\\\\-||
Eb|------------------|------------------||
    1 + 2 + 3 + 4 +    1 + 2 + 3 + 4 +

CHORUS

Gb|------------------|------------------|------------------|------------------|
Db|------------------|------------------|------------------|------------------|
Ab|-5-5-5-5----------|-1-1-1-1-1-1-1-1--|-5-5-5-5----------|-1-1-1-1-1-1-1-1--|
Eb|---------1-1-1-1--|------------------|---------1-1-1-1--|------------------|
    1 + 2 + 3 + 4 +    1 + 2 + 3 + 4 +    1 + 2 + 3 + 4 +    1 + 2 + 3 + 4 +

Gb|------------------|------------------|------------------|------------------|
Db|------------------|------------------|------------------|------------------|
Ab|-5-5-5-5----------|-1-1-1-1-1-1-1-1--|-3-3-3-3-3-3-3-1--|---1-1-1-1-1-1-1--|
Eb|---------1-1-1-1--|------------------|------------------|------------------|
    1 + 2 + 3 + 4 +    1 + 2 + 3 + 4 +    1 + 2 + 3 + 4 +    1 + 2 + 3 + 4 +

Gb|------------------|------------------||
Db|------------------|-----------0-2-3--||
Ab|-3-3-3-3-3-3-3-1--|---1-1-1-1--------||
Eb|------------------|------------------||
    1 + 2 + 3 + 4 +    1 + 2 + 3 + 4 +

BRIDGE

Gb|------------------|------------------|------------------|------------------|
Db|------------------|------------------|------------------|------------------|
Ab|-3-3--------------|-5-5--------------|-1-1--11-1-1--11--|-1-1--11-1-111111-|
Eb|------------------|------------------|------------------|------------------|
    1 + 2 + 3 + 4 +    1 + 2 + 3 + 4 +    1 + 2 + 3 + 4 +    1 + 2 + 3 + 4 +

Gb|------------------|------------------|---------------02-|-3---222-000------|
Db|------------------|------------------|------------------|-------------333--|
Ab|-3-3--------------|-5-5--------------|-1-1--11-1-1--1---|------------------|
Eb|------------------|------------------|------------------|------------------|
    1 + 2 + 3 + 4 +    1 + 2 + 3 + 4 +    1 + 2 + 3 + 4 +    1 + 2 + 3 + 4 +

Gb|------------------|------------------|------------------|------------------|
Db|------------------|------------------|------------------|------------------|
Ab|-3-3--33-3-3--33--|-5-5--55-5-5--55--|-1-1--11-1-1--11--|-1-1--11-1-1--11--|
Eb|------------------|------------------|------------------|------------------|
    1 + 2 + 3 + 4 +    1 + 2 + 3 + 4 +    1 + 2 + 3 + 4 +    1 + 2 + 3 + 4 +

Gb|------------------|------------------|------------------|------------------|
Db|------------------|---------2---3----|------------------|------------------|
Ab|-3-3--33-3-3--33--|-5-5--55----------|-1-1-1-1-1-1-1-1--|-1-1-1-1-1-1-1-1--|
Eb|------------------|------------------|------------------|------------------|
    1 + 2 + 3 + 4 +    1 + 2 + 3 + 4 +    1 + 2 + 3 + 4 +    1 + 2 + 3 + 4 +

Gb|------------------|------------------|------------------|------------------|
Db|------------------|------------------|------------------|------------------|
Ab|-3-3-3-3-3-3-3-3--|-3-3-3-3-3-3-3-3--|-1-1-1-1-1-1-1-1//|/5-5-5-5-5-5-5-5--|
Eb|------------------|------------------|------------------|------------------|
    1 + 2 + 3 + 4 +    1 + 2 + 3 + 4 +    1 + 2 + 3 + 4 +    1 + 2 + 3 + 4 +

Gb|------------------|------------------||
Db|------------------|------------------||
Ab|-3----------------|------------------||
Eb|------------------|------------------||
    1 + 2 + 3 + 4 +    1 + 2 + 3 + 4 +

CHORUS

Gb|------------------|------------------|------------------|------------------|
Db|---------3--------|------------------|---------3--------|------------------|
Ab|-5----------------|-1----------------|-5----------------|-1----------------|
Eb|------------------|------------------|------------------|------------------|
    1 + 2 + 3 + 4 +    1 + 2 + 3 + 4 +    1 + 2 + 3 + 4 +    1 + 2 + 3 + 4 +

Gb|-------------10---|------------------|------------------|------------------|
Db|---7-------10-----|/8-----7----------|------------------|------------------|
Ab|-5---5-8----------|-------------8\\\\|-3-------------1--|------------------|
Eb|------------------|------------------|------------------|------------------|
    1 + 2 + 3 + 4 +    1 + 2 + 3 + 4 +    1 + 2 + 3 + 4 +    1 + 2 + 3 + 4 +

Gb|------------------|------------------||
Db|------------------|------------------||
Ab|-3-------------1--|------------------||
Eb|------------------|------------------||
    1 + 2 + 3 + 4 +    1 + 2 + 3 + 4 +

CHORUS

Gb|------------------|------------------|------------------|------------------|
Db|------------------|-----------3-2-3--|------------------|---3-2-3-5-3-2----|
Ab|-5-5-5-5----------|-1-1-1-1-1--------|-5-5-5-5----------|-1-------------3--|
Eb|---------1-1-1-1--|------------------|---------1-1-1-1--|------------------|
    1 + 2 + 3 + 4 +    1 + 2 + 3 + 4 +    1 + 2 + 3 + 4 +    1 + 2 + 3 + 4 +

Gb|------------------|------------------|------------------|------------------|
Db|------------------|------------------|------------------|------------------|
Ab|-5-5-5-5----------|-1-1-1-1-1-1-1-1--|-3-3-3-3-3-3-3-1--|---1-1-1-1-1-1-1--|
Eb|---------1-1-1-1--|------------------|------------------|------------------|
    1 + 2 + 3 + 4 +    1 + 2 + 3 + 4 +    1 + 2 + 3 + 4 +    1 + 2 + 3 + 4 +

Gb|------------------|------------------|------------------|------------------||
Db|------------------|-------------2-3--|------------------|------------------||
Ab|-3-3-3-3-3-3-3-1--|---1-1-1-1-3------|-3----------------|------------------||
Eb|------------------|------------------|------------------|------------------||
    1 + 2 + 3 + 4 +    1 + 2 + 3 + 4 +    1 + 2 + 3 + 4 +    1 + 2 + 3 + 4 +

TRACK 08)

AUDIENCE OF ONE

INTRO – Four bars of nothing then

Gb|------------------|------------------|------------------|------------------|
Db|------------------|------------------|------------------|------------------|
Ab|-5-5-5-5-5-5-5-5--|-5-5-5-5-5-5-5-5--|-0-0-0-0-0-0-0-0--|-0-0-0-0-0-0-0-0--|
Eb|------------------|------------------|------------------|------------------|
    1 + 2 + 3 + 4 +    1 + 2 + 3 + 4 +    1 + 2 + 3 + 4 +    1 + 2 + 3 + 4 +

Gb|------------------|------------------|------------------|------------------|
Db|------------------|------------------|------------------|------------------|
Ab|-2-2-2-2-2-2-2-2--|-2-2-2-2-2-2-2-2--|------------------|------------------|
Eb|------------------|------------------|-3-3-3-3-3-3-3-3--|-3-3-3-3-3-3-3-3--|
    1 + 2 + 3 + 4 +    1 + 2 + 3 + 4 +    1 + 2 + 3 + 4 +    1 + 2 + 3 + 4 +

Gb|------------------|------------------|------------------|------------------|
Db|------------------|------------------|------------------|------------------|
Ab|-5-5-5-5-5-5-5-5--|-5-5-5-5-5-5-5-5--|-0-0-0-0-0-0-0-0--|-0-0-0-0-0-0-0-0--|
Eb|------------------|------------------|------------------|------------------|
    1 + 2 + 3 + 4 +    1 + 2 + 3 + 4 +    1 + 2 + 3 + 4 +    1 + 2 + 3 + 4 +

Gb|------------------|------------------|------------------|------------------||
Db|------------------|------------------|------------------|------------------||
Ab|-2-2-2-2-2-2-2-2--|-2-2-2-2-2-2-2-2--|------------------|------------------||
Eb|------------------|------------------|-3-3-3-3-3-3-3-3--|-3-3-3-3-3-3-3-3--||
    1 + 2 + 3 + 4 +    1 + 2 + 3 + 4 +    1 + 2 + 3 + 4 +    1 + 2 + 3 + 4 +

VERSE

Gb|------------------|------------------|------------------|------------------|
Db|------------------|------------------|------------------|------------------|
Ab|-5-5-5-5-5-5-5-5--|-5-5-5-5-5-5-5-5--|-0-0-0-0-0-0-0-0--|-0-0-0-0-0-0-0-0--|
Eb|------------------|------------------|------------------|------------------|
    1 + 2 + 3 + 4 +    1 + 2 + 3 + 4 +    1 + 2 + 3 + 4 +    1 + 2 + 3 + 4 +

Gb|------------------|------------------|------------------|------------------|
Db|------------------|------------------|------------------|------------------|
Ab|-2-2-2-2-2-2-2-2--|-2-2-2-2-2-2-2-2--|------------------|---------------5--|
Eb|------------------|------------------|-3-3-3-3-3-3-3-3--|-3-3-3-3-3-3-3----|
    1 + 2 + 3 + 4 +    1 + 2 + 3 + 4 +    1 + 2 + 3 + 4 +    1 + 2 + 3 + 4 +

Gb|------------------|------------------|------------------|------------------|
Db|------------------|------------------|------------------|------------------|
Ab|---5-5-5-5-5-5-5--|-5-5-5-5-5-5-5-5--|-0-0-0-0-0-0-0-0--|-0-0-0-0-0-0-0-0--|
Eb|------------------|------------------|------------------|------------------|
    1 + 2 + 3 + 4 +    1 + 2 + 3 + 4 +    1 + 2 + 3 + 4 +    1 + 2 + 3 + 4 +

Gb|------------------|------------------|------------------|------------------||
Db|------------------|------------------|------------------|------------------||
Ab|-2-2-2-2-2-2-2-2--|-2-2-2-2-2-2-2-2--|------------------|------------------||
Eb|------------------|------------------|-3-3-3-3-3-3-3-3--|-3-3-3-3-3-3-3-3--||
    1 + 2 + 3 + 4 +    1 + 2 + 3 + 4 +    1 + 2 + 3 + 4 +    1 + 2 + 3 + 4 +

PRE-CHORUS


Gb|----------------------------------|----------------------------------|
Db|----------------------------------|----------------------------------|
Ab|-2--------------------------------|-----------------------------5----|
Eb|-----------------------------3----|-----3---3---3-3-3---3---3--------|
    1 + + + 2 + + + 3 + + + 4 + + +    1 + + + 2 + + + 3 + + + 4 + + +

Gb|----------------------------------|----------------------------------|
Db|----------------------------------|----------------------------------|
Ab|-----5---5---5-5-5---5---5--------|----------------------------------|
Eb|-----------------------------0----|-----0---0---0---0---0---0---0----|
    1 + + + 2 + + + 3 + + + 4 + + +    1 + + + 2 + + + 3 + + + 4 + + +

Gb|----------------------------------|----------------------------------|
Db|----------------------------------|----------------------------------|
Ab|-2---2---2-------0---5---0--------|-----------------------------0----|
Eb|-----------------------------3----|-----3---3---3-3-3---3---3--------|
    1 + + + 2 + + + 3 + + + 4 + + +    1 + + + 2 + + + 3 + + + 4 + + +

Gb|----------------------------------|----------------------------------||
Db|----------------------------------|----------------------------------||
Ab|-----0---0---0-0-0---0---0---0----|-0---------------------------2----||
Eb|----------------------------------|----------------------------------||
    1 + + + 2 + + + 3 + + + 4 + + +    1 + + + 2 + + + 3 + + + 4 + + +

CHORUS

Gb|------------------|------------------|------------------|------------------|
Db|------------------|------------------|------------------|------------------|
Ab|---2-2-2-2-2-2----|---------------5--|---5-5-5-5-5-5-0--|-0-0-0-0-0-0-0-0--|
Eb|---------------3--|---3-3-3-3-3-3----|------------------|------------------|
    1 + 2 + 3 + 4 +    1 + 2 + 3 + 4 +    1 + 2 + 3 + 4 +    1 + 2 + 3 + 4 +

Gb|------------------|------------------|------------------|------------------|
Db|------------------|------------------|------------------|------------------|
Ab|-2-2-2-2-2-2-2----|---------------5--|---5-5-5-5-5-5-0--|---0-0-0-0-0-0-2--|
Eb|---------------3--|---3-3-3-3-3-3----|------------------|------------------|
    1 + 2 + 3 + 4 +    1 + 2 + 3 + 4 +    1 + 2 + 3 + 4 +    1 + 2 + 3 + 4 +

Gb|------------------|------------------|------------------|------------------|
Db|------------------|------------------|------------------|------------------|
Ab|---2-2-2-2-2-2----|---------------5--|---5-5-5-5-5-5-0--|---0-0-0-0-0-0-0--|
Eb|---------------3--|---3-3-3-3-3-3----|------------------|------------------|
    1 + 2 + 3 + 4 +    1 + 2 + 3 + 4 +    1 + 2 + 3 + 4 +    1 + 2 + 3 + 4 +

Gb|------------------|------------------|------------------|------------------|
Db|------------------|------------------|------------------|------------------|
Ab|-2-2-2-2-2-2-2----|---------------5--|---5-5-5-5-5-5-0--|---0-0-0-0-0-0-0--|
Eb|---------------3--|---3-3-3-3-3-3----|------------------|------------------|
    1 + 2 + 3 + 4 +    1 + 2 + 3 + 4 +    1 + 2 + 3 + 4 +    1 + 2 + 3 + 4 +

Gb|-------------||
Db|-------------||
Ab|-2-2-2-0-0-0-||
Eb|-------------||
    1 2 3 4 5 6

INTERLUDE

Gb|------------------|------------------||
Db|------------------|------------------||
Ab|------------------|---------5-0-0-5--||
Eb|-3----------------|------------------||
    1 + 2 + 3 + 4 +    1 + 2 + 3 + 4 +

VERSE

Gb|------------------|------------------|------------------|------------------|
Db|------------------|------------------|------------------|------------------|
Ab|-5-5-5-5-5-5-5-5--|-5-5-5-5-5-5-5-5--|-0-0-0-0-0-0-0-0--|-0-0-0-0-0-0-0-0--|
Eb|------------------|------------------|------------------|------------------|
    1 + 2 + 3 + 4 +    1 + 2 + 3 + 4 +    1 + 2 + 3 + 4 +    1 + 2 + 3 + 4 +

Gb|------------------|------------------|------------------|------------------|
Db|------------------|------------------|------------------|------------------|
Ab|-2-2-2-2-2-2-2-2--|-2-2-2-2-2-2-2-2--|------------------|---------------5--|
Eb|------------------|------------------|-3-3-3-3-3-3-3-3--|-3-3-3-3-3-3-3----|
    1 + 2 + 3 + 4 +    1 + 2 + 3 + 4 +    1 + 2 + 3 + 4 +    1 + 2 + 3 + 4 +

Gb|------------------|------------------|------------------|------------------|
Db|------------------|------------------|------------------|------------------|
Ab|---5-5-5-5-5-5-5--|-5-5-5-5-5-5-5-5--|-0-0-0-0-0-0-0-0--|-0-0-0-0-0-0-0-0--|
Eb|------------------|------------------|------------------|------------------|
    1 + 2 + 3 + 4 +    1 + 2 + 3 + 4 +    1 + 2 + 3 + 4 +    1 + 2 + 3 + 4 +

Gb|------------------|------------------|------------------|------------------||
Db|------------------|------------------|------------------|------------------||
Ab|-2-2-2-2-2-2-2-2--|-2-2-2-2-2-2-2-2--|------------------|------------------||
Eb|------------------|------------------|-3-3-3-3-3-3-3-3--|-3-3-3-3-3-3-3-3--||
    1 + 2 + 3 + 4 +    1 + 2 + 3 + 4 +    1 + 2 + 3 + 4 +    1 + 2 + 3 + 4 +

PRE-CHORUS


Gb|----------------------------------|----------------------------------|
Db|----------------------------------|----------------------------------|
Ab|-2--------------------------------|-----------------------------5----|
Eb|-----------------------------3----|-----3---3---3-3-3---3---3--------|
    1 + + + 2 + + + 3 + + + 4 + + +    1 + + + 2 + + + 3 + + + 4 + + +

Gb|----------------------------------|----------------------------------|
Db|----------------------------------|----------------------------------|
Ab|-----5---5---5-5-5---5---5--------|----------------------------------|
Eb|-----------------------------0----|-----0---0---0---0---0---0---0----|
    1 + + + 2 + + + 3 + + + 4 + + +    1 + + + 2 + + + 3 + + + 4 + + +

Gb|----------------------------------|----------------------------------|
Db|----------------------------------|----------------------------------|
Ab|-2---2---2-------0---5---0--------|-----------------------------0----|
Eb|-----------------------------3----|-----3---3---3-3-3---3---3--------|
    1 + + + 2 + + + 3 + + + 4 + + +    1 + + + 2 + + + 3 + + + 4 + + +

Gb|----------------------------------|----------------------------------||
Db|----------------------------------|----------------------------------||
Ab|-----0---0---0-0-0---0---0---0----|-0---------------------------2----||
Eb|----------------------------------|----------------------------------||
    1 + + + 2 + + + 3 + + + 4 + + +    1 + + + 2 + + + 3 + + + 4 + + +

CHORUS

Gb|------------------|------------------|------------------|------------------|
Db|------------------|------------------|------------------|------------------|
Ab|---2-2-2-2-2-2----|---------------5--|---5-5-5-5-5-5-0--|-0-0-0-0-0-0-0-0--|
Eb|---------------3--|---3-3-3-3-3-3----|------------------|------------------|
    1 + 2 + 3 + 4 +    1 + 2 + 3 + 4 +    1 + 2 + 3 + 4 +    1 + 2 + 3 + 4 +

Gb|------------------|------------------|------------------|------------------|
Db|------------------|------------------|------------------|------------------|
Ab|-2-2-2-2-2-2-2----|---------------5--|---5-5-5-5-5-5-0--|---0-0-0-0-0-0-2--|
Eb|---------------3--|---3-3-3-3-3-3----|------------------|------------------|
    1 + 2 + 3 + 4 +    1 + 2 + 3 + 4 +    1 + 2 + 3 + 4 +    1 + 2 + 3 + 4 +

Gb|------------------|------------------|------------------|------------------|
Db|------------------|------------------|------------------|------------------|
Ab|---2-2-2-2-2-2----|---------------5--|---5-5-5-5-5-5-0--|---0-0-0-0-0-0-0--|
Eb|---------------3--|---3-3-3-3-3-3----|------------------|------------------|
    1 + 2 + 3 + 4 +    1 + 2 + 3 + 4 +    1 + 2 + 3 + 4 +    1 + 2 + 3 + 4 +

Gb|------------------|------------------|------------------|------------------|
Db|------------------|------------------|------------------|------------------|
Ab|-2-2-2-2-2-2-2----|---------------5--|---5-5-5-5-5-5-0--|---0-0-0-0-0-0-0--|
Eb|---------------3--|---3-3-3-3-3-3----|------------------|------------------|
    1 + 2 + 3 + 4 +    1 + 2 + 3 + 4 +    1 + 2 + 3 + 4 +    1 + 2 + 3 + 4 +

Gb|-------------||
Db|-------------||
Ab|-2-2-2-0-0-0-||
Eb|-------------||
    1 2 3 4 5 6

INTERLUDE

Gb|------------------|------------------|------------------|------------------|
Db|------------------|------------------|------------------|------------------|
Ab|------------------|------------------|------------------|------------------|
Eb|-3----------------|------------------|------------------|------------------|
    1 + 2 + 3 + 4 +    1 + 2 + 3 + 4 +    1 + 2 + 3 + 4 +    1 + 2 + 3 + 4 +

Gb|------------------|------------------|------------------|------------------|
Db|------------------|------------------|------------------|------------------|
Ab|-2-----------5----|------------------|-2-----------0----|------------------|
Eb|-------3----------|------------------|-------3----------|------------------|
    1 + 2 + 3 + 4 +    1 + 2 + 3 + 4 +    1 + 2 + 3 + 4 +    1 + 2 + 3 + 4 +

Gb|------------------|------------------|------------------|------------------||
Db|------------------|------------------|------------------|------------------||
Ab|-2-----------5----|-------------7----|-9-----10----7----|------------------||
Eb|-------3----------|------------------|------------------|------------------||
    1 + 2 + 3 + 4 +    1 + 2 + 3 + 4 +    1 + 2 + 3 + 4 +    1 + 2 + 3 + 4 +

BRIDGE

Gb|------------------|------------------|------------------|------------------|
Db|-------------7----|------------------|------------------|------------------|
Ab|-2-----------5----|------------------|-2-----------0----|------------------|
Eb|-------3----------|------------------|-------3----------|------------------|
    1 + 2 + 3 + 4 +    1 + 2 + 3 + 4 +    1 + 2 + 3 + 4 +    1 + 2 + 3 + 4 +

Gb|------------------|------------------|------------------|------------------|
Db|------------------|------------------|------------------|------------------|
Ab|-2-----------5----|-------------7----|-9-----10----7----|------------------|
Eb|-------3----------|------------------|------------------|------------------|
    1 + 2 + 3 + 4 +    1 + 2 + 3 + 4 +    1 + 2 + 3 + 4 +    1 + 2 + 3 + 4 +

Gb|------------------|------------------|------------------|------------------|
Db|------------------|------------------|------------------|------------------|
Ab|-2-----------5----|------------------|-2-----------0----|------------------|
Eb|-------3----------|------------------|-------3----------|------------------|
    1 + 2 + 3 + 4 +    1 + 2 + 3 + 4 +    1 + 2 + 3 + 4 +    1 + 2 + 3 + 4 +

Gb|------------------|------------------|------------------|------------------|
Db|------------------|------------------|------------------|------------------|
Ab|-2-----------5----|-------------7----|-9-----10----7----|------------------|
Eb|-------3----------|------------------|------------------|------------------|
    1 + 2 + 3 + 4 +    1 + 2 + 3 + 4 +    1 + 2 + 3 + 4 +    1 + 2 + 3 + 4 +

Gb|------------------|------------------|------------------|------------------||
Db|------------------|------------------|------------------|------------------||
Ab|------------------|------------------|------------------|-0-------------2--||
Eb|-3-----3----------|-3-----3----------|-3-----3-----3----|------------------||
    1 + 2 + 3 + 4 +    1 + 2 + 3 + 4 +    1 + 2 + 3 + 4 +    1 + 2 + 3 + 4 +

CHORUS

Gb|------------------|------------------|------------------|------------------|
Db|------------------|------------------|------------------|------------------|
Ab|---2-2-2-2-2-2----|---------------5--|---5-5-5-5-5-5-0--|-0-0-0-0-0-0-0-0--|
Eb|---------------3--|---3-3-3-3-3-3----|------------------|------------------|
    1 + 2 + 3 + 4 +    1 + 2 + 3 + 4 +    1 + 2 + 3 + 4 +    1 + 2 + 3 + 4 +

Gb|------------------|------------------|------------------|------------------|
Db|------------------|------------------|------------------|------------------|
Ab|-2-2-2-2-2-2-2----|---------------5--|---5-5-5-5-5-5/12-|---1210109-9-7-2--|
Eb|---------------3--|---3-3-3-3-3-3----|------------------|------------------|
    1 + 2 + 3 + 4 +    1 + 2 + 3 + 4 +    1 + 2 + 3 + 4 +    1 + 2 + 3 + 4 +

Gb|------------------|------------------|------------------|------------------|
Db|------------------|------------------|------------------|------------------|
Ab|---2-2-2-2-2-2----|---------------5--|---5-5-5-5-5-5-0--|---0-0-0-0-0-0-0--|
Eb|---------------3--|---3-3-3-3-3-3----|------------------|------------------|
    1 + 2 + 3 + 4 +    1 + 2 + 3 + 4 +    1 + 2 + 3 + 4 +    1 + 2 + 3 + 4 +

Gb|------------------|------------------|------------------|------------------|
Db|------------------|------------------|------------------|------------------|
Ab|-2-2-2-2-2-2-2----|---------------5--|---5-5-5-5-5-5-0--|---0-0-0-0-0-0-0--|
Eb|---------------3--|---3-3-3-3-3-3----|------------------|------------------|
    1 + 2 + 3 + 4 +    1 + 2 + 3 + 4 +    1 + 2 + 3 + 4 +    1 + 2 + 3 + 4 +

Gb|-------------||
Db|-------------||
Ab|-2-2-2-0-0-0-||
Eb|-------------||
    1 2 3 4 5 6

OUTRO

Gb|------------------|------------------|------------------|------------------|
Db|------------------|------------------|------------------|------------------|
Ab|------------------|------------------|------------------|------------------|
Eb|-3----------------|------------------|------------------|------------------|
    1 + 2 + 3 + 4 +    1 + 2 + 3 + 4 +    1 + 2 + 3 + 4 +    1 + 2 + 3 + 4 +

Gb|------------------|------------------|------------------|------------------||
Db|------------------|------------------|------------------|------------------||
Ab|-2-----------5----|------------------|------------------|------------------||
Eb|-------3----------|------------------|------------------|------------------||
    1 + 2 + 3 + 4 +    1 + 2 + 3 + 4 +    1 + 2 + 3 + 4 +    1 + 2 + 3 + 4 +

TRACK 09)

ENTERTAINMENT

NB. I have always been an advocate for the "RISE AGAINST PLAYS IN Eb STANDARD" type people.
But I'm almost certain that Joe plays this in Standard.
It just doesn't make much sense for him to not.
If you have reason to believe otherwise (Video footage etc) please leave a comment as 
has really been annoying me.

INTRO

G|------------------|------------------|------------------|------------------|
D|------------------|------------------|------------------|------------------|
A|-2-2-2-2-2-2-2-2--|-2-2-2-2-2-2-2-2--|-2-2-2-2-2-2-2-2--|-2-2-2-2-2-2-2-2--|
E|------------------|------------------|------------------|------------------|
   1 + 2 + 3 + 4 +    1 + 2 + 3 + 4 +    1 + 2 + 3 + 4 +    1 + 2 + 3 + 4 +
   P.M. ---------------------------------------------------------------------|


G|------------------|------------------|------------------|------------------|
D|------------------|------------------|------------------|------------------|
A|-2-2-2-2-2-2-2-2--|-2-2-2-2-2-2-2-2--|-2-2-2-2-2-2-2-2--|-2-2-2-2-2-2-2-2--|
E|------------------|------------------|------------------|------------------|
   1 + 2 + 3 + 4 +    1 + 2 + 3 + 4 +    1 + 2 + 3 + 4 +    1 + 2 + 3 + 4 +
   P.M. ---------------------------------------------------------------------|


G|------------------|------------------|------------------|------------------|
D|------------------|------------------|------------------|------------------|
A|-5-5-5-5-5-5-5-5--|------------------|-2-2-2-2-2-2-2-2--|-2-2-2-2-2-2-2-2--|
E|------------------|-0-0-0-0-0-0-0-0--|------------------|------------------|
   1 + 2 + 3 + 4 +    1 + 2 + 3 + 4 +    1 + 2 + 3 + 4 +    1 + 2 + 3 + 4 +
   P.M. -------------------------------------------------R-E-L-E-A-S-E---P-M-|


G|------------------|------------------|------------------|------------------|
D|------------------|------------------|------------------|------------------|
A|-2-2-X-2---2-2-2--|-2-2-2-2-2-2-2-2--|-2-2-X-2---2-2-2--|-2-2-2-2-2-2-2-2--|
E|------------------|------------------|------------------|------------------|
   1 + 2 + 3 + 4 +    1 + 2 + 3 + 4 +    1 + 2 + 3 + 4 +    1 + 2 + 3 + 4 +

G|------------------|------------------|------------------|------------------||
D|------------------|------------------|------------------|------------------||
A|-5-5-X-5---5-5-5--|------------------|-2-2-2-2-2-2-2-2--|-2-2-2-2-2-2-2-2--||
E|------------------|-0-0-0-0-0-0-0-0--|------------------|------------------||
   1 + 2 + 3 + 4 +    1 + 2 + 3 + 4 +    1 + 2 + 3 + 4 +    1 + 2 + 3 + 4 +

VERSE

G|------------------|------------------|------------------|------------------|
D|------------------|------------------|------------------|------------------|
A|-2-2-2-2-2-2-2-2--|-2-2-2-2-2-2-2-2--|-2-2-2-2-2-2-2-2--|-2-2-2-2-2-2-2-2--|
E|------------------|------------------|------------------|------------------|
   1 + 2 + 3 + 4 +    1 + 2 + 3 + 4 +    1 + 2 + 3 + 4 +    1 + 2 + 3 + 4 +

G|------------------|------------------|------------------|------------------|
D|------------------|------------------|------------------|-------2-0-0------|
A|-5-5-5-5-5-5-5-5--|------------------|-2-2-2-2-2-2-2-2--|-2-2-2-------4-4--|
E|------------------|-0-0-0-0-0-0-0-0--|------------------|------------------|
   1 + 2 + 3 + 4 +    1 + 2 + 3 + 4 +    1 + 2 + 3 + 4 +    1 + 2 + 3 + 4 +

G|------------------|------------------|------------------|------------------|
D|------------------|------------------|------------------|------------------|
A|-2-2-2-2-2-2-2-2--|-2-2-2-2-2-2-2-2--|-2-2-2-2-2-2-2-2--|-2-2-2-2-2-2-2-2--|
E|------------------|------------------|------------------|------------------|
   1 + 2 + 3 + 4 +    1 + 2 + 3 + 4 +    1 + 2 + 3 + 4 +    1 + 2 + 3 + 4 +

G|------------------|------------------|------------------|------------------||
D|------------------|------------------|------------------|------------------||
A|-5-5-5-5-5-5-5-5--|------------------|-2-2-2-2-2-2-2-2--|-2-2-2-2----------||
E|------------------|-0-0-0-0-0-0-0-0--|------------------|---------0---2----||
   1 + 2 + 3 + 4 +    1 + 2 + 3 + 4 +    1 + 2 + 3 + 4 +    1 + 2 + 3 + 4 +

CHORUS

G|------------------|------------------|------------------|------------------|
D|------------------|------------------|------------------|------------------|
A|------------------|------------------|-2---2---2-2-2-2--|------------------|
E|-3---3---3-3-3-3--|-0---0-0-0-0-0-0--|------------------|-2---2-2-2-2-2-2--|
   1 + 2 + 3 + 4 +    1 + 2 + 3 + 4 +    1 + 2 + 3 + 4 +    1 + 2 + 3 + 4 +

G|------------------|------------------|------------------|------------------|
D|------------------|-----7------------|------------------|------------------|
A|-----5---4---2----|-0-------0-0-0-0--|---X-2-----X-2----|---X-2-----X-2----|
E|-3----------------|------------------|------------------|------------------|
   1 + 2 + 3 + 4 +    1 + 2 + 3 + 4 +    1 + 2 + 3 + 4 +    1 + 2 + 3 + 4 +

G|------------------|------------------|------------------|------------------|
D|------------------|------------------|------------------|------------------|
A|------------------|------------------|-2---2---2-2-2-2--|------------------|
E|-3---3---3-3-3-3--|-0---0-0-0-0-0-0--|------------------|-2---2-2-2-2-2-2--|
   1 + 2 + 3 + 4 +    1 + 2 + 3 + 4 +    1 + 2 + 3 + 4 +    1 + 2 + 3 + 4 +

G|------------------|------------------|------------------|------------------||
D|------------------|------------------|------------------|------------------||
A|------------------|-0----------------|-2-2-2-2-2-2-2-2--|-2----------------||
E|-3-3-3-3-3-3-3-3--|------------------|------------------|------------------||
   1 + 2 + 3 + 4 +    1 + 2 + 3 + 4 +    1 + 2 + 3 + 4 +    1 + 2 + 3 + 4 +


INTERLUDE

G|------------------|------------------|------------------|------------------|
D|------------------|------------------|------------------|------------------|
A|-2-2-X-2---2-2-2--|-2-2-2-2-2-2-2-2--|-2-2-X-2---2-2-2--|-2-2-2-2-2-2-2-2--|
E|------------------|------------------|------------------|------------------|
   1 + 2 + 3 + 4 +    1 + 2 + 3 + 4 +    1 + 2 + 3 + 4 +    1 + 2 + 3 + 4 +


G|------------------|------------------|------------------|------------------||
D|------------------|------------------|------------------|------------------||
A|-5-5-X-5---5-5-5--|------------------|-2-2-2-2-2-2-2-2--|-2-2-2-2-2-2-2-2--||
E|------------------|-0-0-0-0-0-0-0-0--|------------------|------------------||
   1 + 2 + 3 + 4 +    1 + 2 + 3 + 4 +    1 + 2 + 3 + 4 +    1 + 2 + 3 + 4 +

VERSE

G|------------------|------------------|------------------|------------------|
D|------------------|------------------|------------------|------------------|
A|-2-2-2-2-2-2-2-2--|-2-2-2-2-2-2-2-2--|-2-2-2-2-2-2-2-2--|-2-2-2-2-2-2-2-2--|
E|------------------|------------------|------------------|------------------|
   1 + 2 + 3 + 4 +    1 + 2 + 3 + 4 +    1 + 2 + 3 + 4 +    1 + 2 + 3 + 4 +

G|------------------|------------------|------------------|------------------|
D|------------------|------------------|------------------|------------------|
A|-5-5-5-5-5-5-5-5--|------------------|-2-2-2-2-2-2-2-2--|-2-2-2-2-1-1------|
E|------------------|-0-0-0-0-0-0-0-0--|------------------|------------------|
   1 + 2 + 3 + 4 +    1 + 2 + 3 + 4 +    1 + 2 + 3 + 4 +    1 + 2 + 3 + 4 +

G|------------------|------------------|------------------|------------------|
D|------------------|------------------|------------------|------------------|
A|-2-2-2-2-2-2-2-2--|-2-2-2-2-2-2-2-2--|-2-2-2-2-2-2-2-2--|-2-2-2-2-2-2-2-2--|
E|------------------|------------------|------------------|------------------|
   1 + 2 + 3 + 4 +    1 + 2 + 3 + 4 +    1 + 2 + 3 + 4 +    1 + 2 + 3 + 4 +

G|------------------|------------------|------------------|------------------||
D|------------------|------------------|------------------|------------------||
A|-5-5-5-5-5-5-5-5--|------------------|-2-2-2-2-2-2-2-2--|-2-2-2-2----------||
E|------------------|-0-0-0-0-0-0-0-0--|------------------|---------0---2----||
   1 + 2 + 3 + 4 +    1 + 2 + 3 + 4 +    1 + 2 + 3 + 4 +    1 + 2 + 3 + 4 +

CHORUS

G|------------------|------------------|------------------|------------------|
D|------------------|------------------|------------------|------------------|
A|------------------|------------------|-2---2---2-2-2-2--|------------------|
E|-3---3---3-3-3-3--|-0---0-0-0-0-0-0--|------------------|-2---2-2-2-2-2-2--|
   1 + 2 + 3 + 4 +    1 + 2 + 3 + 4 +    1 + 2 + 3 + 4 +    1 + 2 + 3 + 4 +

G|------------------|------------------|------------------|------------------|
D|------------------|-----7------------|------------------|------------------|
A|-----5---4---2----|-0-------0-0-0-0--|---X-2-----X-2----|---X-2-----X-2----|
E|-3----------------|------------------|------------------|------------------|
   1 + 2 + 3 + 4 +    1 + 2 + 3 + 4 +    1 + 2 + 3 + 4 +    1 + 2 + 3 + 4 +

G|------------------|------------------|------------------|------------------|
D|------------------|------------------|------------------|------------------|
A|------------------|------------------|-2---2---2-2-2-2--|------------------|
E|-3---3---3-3-3-3--|-0---0-0-0-0-0-0--|------------------|-2---2-2-2-2-2-2--|
   1 + 2 + 3 + 4 +    1 + 2 + 3 + 4 +    1 + 2 + 3 + 4 +    1 + 2 + 3 + 4 +

G|------------------|------------------|------------------||
D|------------------|------------------|------------------||
A|------------------|-0----------------|---------14\---2--||
E|-3-3-3-3-3-3-3-3--|------------------|------------------||
   1 + 2 + 3 + 4 +    1 + 2 + 3 + 4 +    1 + 2 + 3 + 4 +

INTERLUDE

G|------------------|------------------|------------------|------------------|
D|------------------|------------------|------------------|------------------|
A|-----2---2---2----|-2---2-2-2-2---2--|-----2---2---2----|-2---2-2-2-2------|
E|------------------|------------------|------------------|---------------3--|
   1 + 2 + 3 + 4 +    1 + 2 + 3 + 4 +    1 + 2 + 3 + 4 +    1 + 2 + 3 + 4 +

G|------------------|------------------|------------------|------------------|
D|------------------|------------------|------------------|------------------|
A|------------------|------------------|------------------|---------------2--|
E|-----3---3---3----|-3---3-3-3-3---3--|-----3---3---3----|-3---3-3-3-3------|
   1 + 2 + 3 + 4 +    1 + 2 + 3 + 4 +    1 + 2 + 3 + 4 +    1 + 2 + 3 + 4 +

G|------------------|------------------|------------------|------------------|
D|------------------|------------------|------------------|------------------|
A|-----2---2---2----|-2---2-2-2-2---2--|-----2---2---2----|-2---2-2-2-2------|
E|------------------|------------------|------------------|---------------3--|
   1 + 2 + 3 + 4 +    1 + 2 + 3 + 4 +    1 + 2 + 3 + 4 +    1 + 2 + 3 + 4 +

G|------------------|------------------|------------------|------------------||
D|------------------|------------------|------------------|------------------||
A|------------------|------------------|------------------|------------------||
E|-----3---3---3----|-3---3-3-3-3---3--|-----3---3---3----|-3---2---0---3----||
   1 + 2 + 3 + 4 +    1 + 2 + 3 + 4 +    1 + 2 + 3 + 4 +    1 + 2 + 3 + 4 +

BRIDGE

G|------------------|------------------|------------------|------------------|
D|------------------|------------------|------------------|------------------|
A|-0---0-0-0-0-0-0--|-0-0-0-0-0-0-0-0--|------------------|------------------|
E|------------------|------------------|-0---0-0-0-0-0-0--|-0-0-0-0-0-0-0-0--|
   1 + 2 + 3 + 4 +    1 + 2 + 3 + 4 +    1 + 2 + 3 + 4 +    1 + 2 + 3 + 4 +

G|------------------|------------------|------------------|------------------|
D|------------------|------------------|------------------|------------------|
A|------------------|------------------|-0----------------|-1----------------|
E|-3---3-3-3-3-3-3--|-3-3-3-3-3-3-3-3--|------------------|------------------|
   1 + 2 + 3 + 4 +    1 + 2 + 3 + 4 +    1 + 2 + 3 + 4 +    1 + 2 + 3 + 4 +

G|--------------|-------------|--------------|--------------|
D|--------------|-------------|--------------|--------------|
A|-2------------|-------------|-2------------|-5---4---0----|
E|-----3---2----|-0---2---3---|-----3---2----|--------------|
   1 + 2 + 3 +    1 + 2 + 3 +   1 + 2 + 3 +    1 + 2 + 3 +

G|--------------|-------------|--------------|--------------|
D|--------------|-------------|--------------|--------------|
A|-2------------|-------------|-2------------|-5---4---0----|
E|-----3---2----|-0---2---3---|-----3---2----|--------------|
   1 + 2 + 3 +    1 + 2 + 3 +   1 + 2 + 3 +    1 + 2 + 3 +

G|--------------|-------------|--------------|--------------|
D|--------------|-------------|--------------|--------------|
A|-5\-----------|-5\----------|-7-------7----|-9---7---5----|
E|---------3----|---------3---|--------------|--------------|
   1 + 2 + 3 +    1 + 2 + 3 +   1 + 2 + 3 +    1 + 2 + 3 +

G|--------------|-------------|--------------|--------------|
D|--------------|-------------|--------------|--------------|
A|-2------------|-2-----------|-2------------|-2---1--------|
E|---------0----|---------0---|---------0----|--------------|
   1 + 2 + 3 +    1 + 2 + 3 +   1 + 2 + 3 +    1 + 2 + 3 +

G|--------------|-------------|--------------|--------------|
D|--------------|-------------|--------------|--------------|
A|-2------------|-------------|-2------------|-5---4---0----|
E|-----3---2----|-0---2---3---|-----3---2----|--------------|
   1 + 2 + 3 +    1 + 2 + 3 +   1 + 2 + 3 +    1 + 2 + 3 +

G|--------------|-------------|--------------|--------------|
D|--------------|-------------|--------------|--------------|
A|-2------------|-------------|-2------------|-5---4---0----|
E|-----3---2----|-0---2---3---|-----3---2----|--------------|
   1 + 2 + 3 +    1 + 2 + 3 +   1 + 2 + 3 +    1 + 2 + 3 +

G|--------------|-------------|--------------|--------------|
D|--------------|-------------|--------------|--------------|
A|-5\-----------|-5\----------|-7-------7----|-9---7---5----|
E|---------3----|---------3---|--------------|--------------|
   1 + 2 + 3 +    1 + 2 + 3 +   1 + 2 + 3 +    1 + 2 + 3 +

G|------------------|-------------------------||
D|------------------|-------------------------||
A|-2-2-2-2-2-2-2-2//|-14-14-14-14-14\\\-------||
E|------------------|-------------------------||
   1 + 2 + 3 + 4 +    1  +  2  +  3  +  4  +

CHORUS

G|------------------|------------------|------------------|------------------|
D|------------------|------------------|------------------|------------------|
A|------------------|------------------|-2---2---2-2-2-2--|------------------|
E|-3---3---3-3-3-3--|-0---0-0-0-0-0-0--|------------------|-2---2-2-2-2-2-2--|
   1 + 2 + 3 + 4 +    1 + 2 + 3 + 4 +    1 + 2 + 3 + 4 +    1 + 2 + 3 + 4 +

G|------------------|------------------|------------------|------------------|
D|------------------|-----7------------|------------------|------------------|
A|-----5---4---2----|-0-------0-0-0-0--|---X-2-----X-2----|---X-2-----X-2----|
E|-3----------------|------------------|------------------|------------------|
   1 + 2 + 3 + 4 +    1 + 2 + 3 + 4 +    1 + 2 + 3 + 4 +    1 + 2 + 3 + 4 +

G|------------------|------------------|------------------|------------------|
D|------------------|------------------|------------------|------------------|
A|------------------|------------------|-2---2---2-2-2-2--|------------------|
E|-3---3---3-3-3-3--|-0---0-0-0-0-0-0--|------------------|-2---2-2-2-2-2-2--|
   1 + 2 + 3 + 4 +    1 + 2 + 3 + 4 +    1 + 2 + 3 + 4 +    1 + 2 + 3 + 4 +

G|------------------|------------------||
D|------------------|------------------||
A|------------------|-0-0-0-0-0-0-0-0--||
E|-3-3-3-3-3-3-3-3--|------------------||
   1 + 2 + 3 + 4 +    1 + 2 + 3 + 4 +

OUTRO

G|------------------|------------------|------------------|------------------|
D|------------------|------------------|------------------|------------------|
A|-2-2-X-2---2-2-2--|-2-2-2-2-2-2-2-2--|-2-2-X-2---2-2-2--|-2-2-2-2-2-2-2-2--|
E|------------------|------------------|------------------|------------------|
   1 + 2 + 3 + 4 +    1 + 2 + 3 + 4 +    1 + 2 + 3 + 4 +    1 + 2 + 3 + 4 +


G|------------------|------------------|------------------|--------------------------|
D|------------------|------------------|------------------|--------------------------|
A|-5-5-X-5---5-5-5--|------------------|-2-2-2-2-2-2-2-2//|-14-14\9--9--7--7--5--5---|
E|------------------|-0-0-0-0-0-0-0-0--|------------------|--------------------------|
   1 + 2 + 3 + 4 +    1 + 2 + 3 + 4 +    1 + 2 + 3 + 4 +    1  +  2  +  3  +  4  +


G|------------------|------------------|------------------|------------------|
D|------------------|------------------|------------------|------------------|
A|-2-2-X-2---2-2-2--|-2-2-2-2-2-2-2-2--|-2-2-X-2---2-2-2--|-2-2-2-2-2-2-2-2--|
E|------------------|------------------|------------------|------------------|
   1 + 2 + 3 + 4 +    1 + 2 + 3 + 4 +    1 + 2 + 3 + 4 +    1 + 2 + 3 + 4 +


G|------------------|------------------|------------------|------------------||
D|------------------|------------------|------------------|------------------||
A|-5----------------|------------------|------------------|------------------||
E|------------------|-0----------------|------------------|------------------||
   1 + 2 + 3 + 4 +    1 + 2 + 3 + 4 +    1 + 2 + 3 + 4 +    1 + 2 + 3 + 4 +
   Slowing down....

TRACK 10)

HERO OF WAR

Bass starts just before verse 6

Gb|------------------|------------------|------------------|------------------|------------------|
Db|--------------/7--|-3-3-3-3-3-3-3-3--|------------------|------------------|------------------|
Ab|------------------|------------------|-0-0-0-0-0-0-0-0--|-1-1-1-1-1-1-1-1--|------------------|
Eb|------------------|------------------|------------------|------------------|-1-1-1-1-1-1-1-1--|
    1 + 2 + 3 + 4 +    1 + 2 + 3 + 4 +    1 + 2 + 3 + 4 +    1 + 2 + 3 + 4 +    1 + 2 + 
+ 4 +


Gb|------------------|------------------|------------------|------------------||
Db|------------------|------------------|------------------|------------------||
Ab|-1-1-1-1-1-1-1-1--|------------------|-3-3-3-3-3-3-3-3--|-3-3-3-3-3-3-3-3--||
Eb|------------------|-1-1-1-1-1-1-1-1--|------------------|------------------||
    1 + 2 + 3 + 4 +    1 + 2 + 3 + 4 +    1 + 2 + 3 + 4 +    1 + 2 + 3 + 4 +

Chorus

Gb|------------------|------------------|------------------|------------------|
Db|-0-0-0-0-0-0-0-0--|------------------|------------------|------------------|
Ab|------------------|-1-1-1-1-1-1-1-1--|------------------|-3-3-3-3-3-3-3-3--|
Eb|------------------|------------------|-1-1-1-1-1-1-1-1--|------------------|
    1 + 2 + 3 + 4 +    1 + 2 + 3 + 4 +    1 + 2 + 3 + 4 +    1 + 2 + 3 + 4 +

Gb|------------------|------------------|------------------|------------------||
Db|-0-0-0-0-0-0-0-0--|------------------|------------------|------------------||
Ab|------------------|-1-1-1-1-1-1-1-1--|------------------|-3----------------||
Eb|------------------|------------------|-1-1-1-1-1-1-1-1--|------------------||
    1 + 2 + 3 + 4 +    1 + 2 + 3 + 4 +    1 + 2 + 3 + 4 +    1 + 2 + 3 + 4 +

TRACK 11)

SAVIOR

INTRO/VERSE  Eight bars of nothing then

INTERLUDE

Gb|----------------------------------|----------------------------------|
Db|----------------------------------|----------------------------------|
Ab|----------------------------------|-0---0---0-0-0-0---0-0---0-0-0-0--|
Eb|-2---2---2-2-2-2---2-2---2-2-2-2--|----------------------------------|
    1 + + + 2 + + + 3 + + + 4 + + +    1 + + + 2 + + + 3 + + + 4 + + +

Gb|----------------------------------|----------------------------------|
Db|----------------------------------|----------------------------------|
Ab|-5---5---5-5-5-5---5-5---5-5-5-5--|----------------------------------|
Eb|----------------------------------|-5---5---5-5-5-4---4-4---4-4-4-4--|
    1 + + + 2 + + + 3 + + + 4 + + +    1 + + + 2 + + + 3 + + + 4 + + +

Gb|----------------------------------|----------------------------------|
Db|----------------------------------|----------------------------------|
Ab|----------------------------------|-0---0---0-0-0-0---0-0---0-0-0-0--|
Eb|-2---2---2-2-2-2---2-2---2-2-2-2--|----------------------------------|
    1 + + + 2 + + + 3 + + + 4 + + +    1 + + + 2 + + + 3 + + + 4 + + +

Gb|----------------------------------|----------------------------------||
Db|----------------------------------|----------------------------------||
Ab|-5---5---5-5-5-5---5-5---5-5-5-5--|----------------------------------||
Eb|----------------------------------|-5---5---5-5-5-4---4-4---4-4-4-4--||
    1 + + + 2 + + + 3 + + + 4 + + +    1 + + + 2 + + + 3 + + + 4 + + +

VERSE

Gb|----------------------------------|----------------------------------|
Db|----------------------------------|----------------------------------|
Ab|----------------------------------|-0---0---0-0-0-0---0-0---0-0-0-0--|
Eb|-2---2---2-2-2-2---2-2---2-2-2-2--|----------------------------------|
    1 + + + 2 + + + 3 + + + 4 + + +    1 + + + 2 + + + 3 + + + 4 + + +

Gb|----------------------------------|----------------------------------|
Db|----------------------------------|----------------------------------|
Ab|-5---5---5-5-5-5---5-5---5-5-5-5--|----------------------------------|
Eb|----------------------------------|-5---5---5-5-5-4---4-4---4-4-4-4--|
    1 + + + 2 + + + 3 + + + 4 + + +    1 + + + 2 + + + 3 + + + 4 + + +

Gb|----------------------------------|----------------------------------|
Db|----------------------------------|----------------------------------|
Ab|----------------------------------|-0---0---0-0-0-0---0-0---0-0-0-0--|
Eb|-2---2---2-2-2-2---2-2---2-2-2-2--|----------------------------------|
    1 + + + 2 + + + 3 + + + 4 + + +    1 + + + 2 + + + 3 + + + 4 + + +

Gb|----------------------------------|----------------------------------||
Db|----------------------------------|----------------------------------||
Ab|-5---5---5-5-5-5---5-5---5-5-5-5--|----------------------------------||
Eb|----------------------------------|-5---5---5-5-5-4---4-4---4-4-4-4--||
    1 + + + 2 + + + 3 + + + 4 + + +    1 + + + 2 + + + 3 + + + 4 + + +

PRE-CHORUS

Gb|----------------------------------|----------------------------------|
Db|----------------------------------|----------------------------------|
Ab|-----5---5-5-5-5---5-4---2---0----|-------------------------2---4----|
Eb|----------------------------------|-0---0---0-0-0-0---0-0------------|
    1 + + + 2 + + + 3 + + + 4 + + +    1 + + + 2 + + + 3 + + + 4 + + +

Gb|----------------------------------|----------------------------------||
Db|----------------------------------|----------------------------------||
Ab|-----5---5-5-5-5---5-4---2---4----|-7--------------------------------||
Eb|----------------------------------|-----------------0----------------||
    1 + + + 2 + + + 3 + + + 4 + + +    1 + + + 2 + + + 3 + + + 4 + + +

CHORUS


Gb|----------------------------------|----------------------------------|
Db|----------------------------------|----------------------------------|
Ab|----------------------------------|-0---0---0-0-0-0---0-0---0-0-0-0--|
Eb|-2---2---2-2-2-2---2-2---2-2-2-2--|----------------------------------|
    1 + + + 2 + + + 3 + + + 4 + + +    1 + + + 2 + + + 3 + + + 4 + + +

Gb|----------------------------------|----------------------------------|
Db|----------------------------------|----------------------------------|
Ab|-5---5---5-5-5-5---5-5---5-5-5-5--|----------------------------------|
Eb|----------------------------------|-5---5---5-5-5-4---4-4---4-4-4-4--|
    1 + + + 2 + + + 3 + + + 4 + + +    1 + + + 2 + + + 3 + + + 4 + + +

Gb|----------------------------------|----------------------------------|
Db|----------------------------------|----------------------------------|
Ab|----------------------------------|-0---0---0-0-0-0---0-0---0-0-0-0--|
Eb|-2---2---2-2-2-2---2-2---2-2-2-2--|----------------------------------|
    1 + + + 2 + + + 3 + + + 4 + + +    1 + + + 2 + + + 3 + + + 4 + + +

Gb|----------------------------------|----------------------------------||
Db|----------------------------------|----------------------------------||
Ab|-5---5---5-5-5-5---5-5---5-5-5-5--|----------------------------------||
Eb|----------------------------------|-5-------------4------------------||
    1 + + + 2 + + + 3 + + + 4 + + +    1 + + + 2 + + + 3 + + + 4 + + +

INTERLUDE

Gb|----------------------------------|----------------------------------|
Db|----------------------------------|----------------------------------|
Ab|----------------------------------|-0---0---0-0-0-0---0-0---0-0-0-0--|
Eb|-2---2---2-2-2-2---2-2---2-2-2-2--|----------------------------------|
    1 + + + 2 + + + 3 + + + 4 + + +    1 + + + 2 + + + 3 + + + 4 + + +

Gb|----------------------------------|----------------------------------||
Db|----------------------------------|----------------------------------||
Ab|-5---5---5-5-5-5---5-5---5-5-5-5--|----------------------------------||
Eb|----------------------------------|-5---5---5-5-5-4---4-4---4-4-4-4--||
    1 + + + 2 + + + 3 + + + 4 + + +    1 + + + 2 + + + 3 + + + 4 + + +

VERSE

Gb|----------------------------------|----------------------------------|
Db|----------------------------------|----------------------------------|
Ab|----------------------------------|-0---0---0-0-0-0---0-0---0-0-0-0--|
Eb|-2---2---2-2-2-2---2-2---2-2-2-2--|----------------------------------|
    1 + + + 2 + + + 3 + + + 4 + + +    1 + + + 2 + + + 3 + + + 4 + + +

Gb|----------------------------------|----------------------------------|
Db|----------------------------------|----------------------------------|
Ab|-5---5---5-5-5-5---5-5---5-5-5-5--|----------------------------------|
Eb|----------------------------------|-5---5---5-5-5-4---4-4---4-4-4-4--|
    1 + + + 2 + + + 3 + + + 4 + + +    1 + + + 2 + + + 3 + + + 4 + + +

Gb|----------------------------------|----------------------------------|
Db|----------------------------------|----------------------------------|
Ab|-------------------------------0--|---0-0---0---0-0---0-0---0---0-5--|
Eb|-2---2---2---2-2---2-2---2---2----|----------------------------------|
    1 + + + 2 + + + 3 + + + 4 + + +    1 + + + 2 + + + 3 + + + 4 + + +

Gb|----------------------------------|----------------------------------||
Db|----------------------------------|----------------------------------||
Ab|---5-5---5---5-5---5-5---5---5----|----------------------------------||
Eb|-------------------------------5--|---5-5---5---5-4---4-4---4---4----||
    1 + + + 2 + + + 3 + + + 4 + + +    1 + + + 2 + + + 3 + + + 4 + + +

PRE-CHORUS

Gb|----------------------------------|----------------------------------|
Db|----------------------------------|-------------------------2--------|
Ab|-----5---5-5-5-5---5-4---2---0----|---------------------0-------4----|
Eb|----------------------------------|-0---0---0-0-0-0---0--------------|
    1 + + + 2 + + + 3 + + + 4 + + +    1 + + + 2 + + + 3 + + + 4 + + +

Gb|----------------------------------|----------------------------------||
Db|----------------------------------|----------------------------------||
Ab|-----5---5-5-5-5---5-4---2---4----|-7--------------------------------||
Eb|----------------------------------|-----------------0----------------||
    1 + + + 2 + + + 3 + + + 4 + + +    1 + + + 2 + + + 3 + + + 4 + + +

CHORUS


Gb|----------------------------------|----------------------------------|
Db|----------------------------------|----------------------------------|
Ab|----------------------------------|-0---0---0-0-0-0---0-0---0-0-0-0--|
Eb|-2---2---2-2-2-2---2-2---2-2-2-2--|----------------------------------|
    1 + + + 2 + + + 3 + + + 4 + + +    1 + + + 2 + + + 3 + + + 4 + + +

Gb|----------------------------------|----------------------------------|
Db|----------------------------------|----------------------------------|
Ab|-5---5---5-5-5-5---5-5---5-5-5-5--|----------------------------------|
Eb|----------------------------------|-5---5---5-5-5-4---4-4---4-4-4-4--|
    1 + + + 2 + + + 3 + + + 4 + + +    1 + + + 2 + + + 3 + + + 4 + + +

Gb|----------------------------------|----------------------------------|
Db|----------------------------------|----------------------------------|
Ab|----------------------------------|-0---0---0-0-0-0---0-0---0-0-0-0--|
Eb|-2---2---2-2-2-2---2-2---2-2-2-2--|----------------------------------|
    1 + + + 2 + + + 3 + + + 4 + + +    1 + + + 2 + + + 3 + + + 4 + + +

Gb|----------------------------------|----------------------------------||
Db|----------------------------------|----------------------------------||
Ab|-5---5---5-5-5-5---5-5---5-5-5-5--|-------------------------4-4-4-5--||
Eb|----------------------------------|-5-------------4------------------||
    1 + + + 2 + + + 3 + + + 4 + + +    1 + + + 2 + + + 3 + + + 4 + + +

INTERLUDE


Gb|----------------------------------|----------------------------------|
Db|----------------------------------|----------------------------------|
Ab|----------------------------------|----------------------------------|
Eb|----------------------------------|-------------------------------2--|
    1 + + + 2 + + + 3 + + + 4 + + +    1 + + + 2 + + + 3 + + + 4 + + +


Gb|----------------------------------|----------------------------------|
Db|----------------------------------|----------------------------------|
Ab|-------------------------3-3------|-------------------------3-3-3----|
Eb|---2-2---2---2---2---2---------2--|---2-2---2---2---2---2---------2--|
    1 + + + 2 + + + 3 + + + 4 + + +    1 + + + 2 + + + 3 + + + 4 + + +


Gb|----------------------------------|--------------------------------------------------||
Db|----------------------------------|-----------------TRIPLET--------------------------||
Ab|-------------------------3-3------|-----------------3--3--3-3------------------------||
Eb|---2-2---2---2---2---2---------2--|---2-2---2---2------------------------------------||
    1 + + + 2 + + + 3 + + + 4 + + +    1 + + + 2 + + + 3 + + + 4 + + + 5 + + + 6 + + +

BRIDGE

Gb|----------------------------------|----------------------------------|
Db|----------------------------------|----------------------------------|
Ab|----------------------------------|----------------------------------|
Eb|-2---2-2---2-2-2---2-2-2---2-2-2--|-0---0-0---0-0-0---0-0-0---0-0-0--|
    1 + + + 2 + + + 3 + + + 4 + + +    1 + + + 2 + + + 3 + + + 4 + + +

Gb|----------------------------------|----------------------------------|
Db|----------------------------------|----------------------------------|
Ab|-2---2-2---2-2-2---2-2-2---2-2-2--|-5---5-5---5-5-5---5-5-5---7-7-7--|
Eb|----------------------------------|----------------------------------|
    1 + + + 2 + + + 3 + + + 4 + + +    1 + + + 2 + + + 3 + + + 4 + + +

Gb|----------------------------------|----------------------------------|
Db|-----------------------6-6-7-7-6--|----------------------------------|
Ab|-9---9-9-9-9-9-9-9-9-9------------|-7---7-7-7-7-7-7-7-7-7-7-7-9-9-9--|
Eb|----------------------------------|----------------------------------|
    1 + + + 2 + + + 3 + + + 4 + + +    1 + + + 2 + + + 3 + + + 4 + + +

Gb|----------------------------------|----------------------------------||
Db|-----------------------------4////|/12------13------14------15-------||
Ab|-2---2-2-2-2-2-2-2-2-2-2-2-2------|----------------------------------||
Eb|----------------------------------|----------------------------------||
    1 + + + 2 + + + 3 + + + 4 + + +    1 + + + 2 + + + 3 + + + 4 + + +

INTERLUDE

Gb|-----------------|-----------------|-----------------|-----------------|
Db|-16--------------|-----------------|-----------------|-----------------|
Ab|-----------------|-----------------|-----------------|-----------------|
Eb|-----------------|-----------------|-----------------|-----------------|
    1 + 2 + 3 + 4 +   1 + 2 + 3 + 4 +   1 + 2 + 3 + 4 +   1 + 2 + 3 + 4 +

Gb|-----------------|-----------------|-----------------|-----------------||
Db|-----------------|-----------------|-----------------|-----------------||
Ab|-----------------|-----------------|-----------------|---------------2/||
Eb|-----------------|-----------------|-----------------|-----------------||
    1 + 2 + 3 + 4 +   1 + 2 + 3 + 4 +   1 + 2 + 3 + 4 +   1 + 2 + 3 + 4 +

PRE-CHORUS

Gb|-----------------|-----------------|-----------------|-----------------||
Db|-----------------|-----------------|-----------------|-2-------2-------||
Ab|/5---------------|---------------2/|/5-------------2-|-----------------||
Eb|---------------5-|-0---------------|-----------------|-----------------||
    1 + 2 + 3 + 4 +   1 + 2 + 3 + 4 +   1 + 2 + 3 + 4 +   1 + 2 + 3 + 4 +

CHORUS


Gb|----------------------------------|----------------------------------|
Db|----------------------------------|----------------------------------|
Ab|----------------------------------|-0---0---0-0-0-0---0-0---0-0-0-0--|
Eb|-2---2---2-2-2-2---2-2---2-2-2-2--|----------------------------------|
    1 + + + 2 + + + 3 + + + 4 + + +    1 + + + 2 + + + 3 + + + 4 + + +

Gb|----------------------------------|----------------------------------|
Db|----------------------------------|----------------------------------|
Ab|-5---5---5-5-5-5---5-5---5-5-5-5--|----------------------------------|
Eb|----------------------------------|-5---5---5-5-5-4---4-4---4-4-4-4--|
    1 + + + 2 + + + 3 + + + 4 + + +    1 + + + 2 + + + 3 + + + 4 + + +


Gb|----------------------------------|----------------------------------|
Db|----------------------------------|----------------------------------|
Ab|----------------------------------|-0---0---0-0-0-0---0-0---0-0-0-0--|
Eb|-2---2---2-2-2-2---2-2---2-2-2-2--|----------------------------------|
    1 + + + 2 + + + 3 + + + 4 + + +    1 + + + 2 + + + 3 + + + 4 + + +

Gb|----------------------------------|----------------------------------||
Db|----------------------------------|-7---7---9-7-7-6-----6-6-7-6-6-6--||
Ab|-5---5---5-5-5-5---5-5---5-5-5-5--|----------------------------------||
Eb|----------------------------------|----------------------------------||
    1 + + + 2 + + + 3 + + + 4 + + +    1 + + + 2 + + + 3 + + + 4 + + +

OUTRO


Gb|----------------------------------|----------------------------------|
Db|----------------------------------|----------------------------------|
Ab|----------------------------------|-0---0---0-0-0-0---0-0---0-0-0-0--|
Eb|-2---2---2-2-2-2---2-2---2-2-2-2--|----------------------------------|
    1 + + + 2 + + + 3 + + + 4 + + +    1 + + + 2 + + + 3 + + + 4 + + +

Gb|----------------------------------|----------------------------------|
Db|----------------------------------|----------------------------------|
Ab|-5---5---5-5-5-5---5-5---5-5-5-5--|----------------------------------|
Eb|----------------------------------|-5---5---5-5-5-4---4-4---4-4-4-4--|
    1 + + + 2 + + + 3 + + + 4 + + +    1 + + + 2 + + + 3 + + + 4 + + +


Gb|----------------------------------|----------------------------------|
Db|----------------------------------|----------------------------------|
Ab|----------------------------------|-0---0---0-0-0-0---0-0---0-0-0-0--|
Eb|-2---2---2-2-2-2---2-2---2-2-2-2--|----------------------------------|
    1 + + + 2 + + + 3 + + + 4 + + +    1 + + + 2 + + + 3 + + + 4 + + +

Gb|----------------------------------|----------------------------------|
Db|----------------------------------|----------------------------------|
Ab|-5---5---5-5-5-5---5-5---5-5-5-5--|----------------------------------|
Eb|----------------------------------|-5-------------4------------------|
    1 + + + 2 + + + 3 + + + 4 + + +    1 + + + 2 + + + 3 + + + 4 + + +


Gb|----------------------------------||
Db|----------------------------------||
Ab|----------------------------------||
Eb|-2-----------(2)/14\\\\\----------||
    1 + + + 2 + + + 3 + + + 4 + + +

TRACK 12)

HAIRLINE FRACTURE

INTRO


Gb|------------------|------------------|------------------|------------------|
Db|------------------|------------------|------------------|------------------|
Ab|------------------|------------------|-4---4-4-4-4-4-4--|-4-4-4-4-4-4-4-4--|
Eb|-0----------------|------------------|------------------|------------------|
    1 + 2 + 3 + 4 +    1 + 2 + 3 + 4 +    1 + 2 + 3 + 4 +    1 + 2 + 3 + 4 +

Gb|------------------|------------------|------------------|--------------------|
Db|------------------|------------------|------------------|--------------------|
Ab|------------------|------------------|-4---4-4-4-4-4-4--|-4-4----------------|
Eb|-0----------------|------------------|------------------|--------------------|
    1 + 2 + 3 + 4 +    1 + 2 + 3 + 4 +    1 + 2 + 3 + 4 +    1 2 3 4 5 6 7 8 9

Gb|------------------|------------------|------------------|------------------|
Db|------------------|------------------|------------------|------------------|
Ab|------------------|-2-2-2-2-2-2-2-2--|------------------|------------------|
Eb|-4-4-4-4-4-4-4-4--|------------------|-0-0-0-0-0-0-0-0--|-2-2-2-2-2-2-2-2--|
    1 + 2 + 3 + 4 +    1 + 2 + 3 + 4 +    1 + 2 + 3 + 4 +    1 + 2 + 3 + 4 +

Gb|------------------|------------------|------------------|------------------||
Db|------------------|------------------|------------------|------------------||
Ab|------------------|-2-2-2-2-2-2-2-2--|------------------|------------------||
Eb|-4-4-4-4-4-4-4-4--|------------------|-0-0-0-0-0-0-0-0--|-2----------------||
    1 + 2 + 3 + 4 +    1 + 2 + 3 + 4 +    1 + 2 + 3 + 4 +    1 + 2 + 3 + 4 +

VERSE


Gb|------------------|------------------|------------------|------------------|
Db|------------------|------------------|------------------|------------------|
Ab|------------------|-2-2-2-2-2-2-2-2--|------------------|------------------|
Eb|-4-4-4-4-4-4-4-4--|------------------|-0-0-0-0-0-0-0-0--|-2-2-2-2-2-2-2-2--|
    1 + 2 + 3 + 4 +    1 + 2 + 3 + 4 +    1 + 2 + 3 + 4 +    1 + 2 + 3 + 4 +

Gb|------------------|------------------|------------------|------------------|
Db|------------------|------------------|------------------|------------------|
Ab|------------------|-2-2-2-2-2-2-2-2--|------------------|------------------|
Eb|-4-4-4-4-4-4-4-4--|------------------|-0-0-0-0-0-0-0-0--|-2-2-2-2-2-2-2-2--|
    1 + 2 + 3 + 4 +    1 + 2 + 3 + 4 +    1 + 2 + 3 + 4 +    1 + 2 + 3 + 4 +

Gb|------------------|------------------|------------------|------------------|
Db|------------------|------------------|------------------|------------------|
Ab|------------------|-2-2-2-2-2-2-2-2--|------------------|------------------|
Eb|-4-4-4-4-4-4-4-4--|------------------|-0-0-0-0-0-0-0-0--|-2-2-2-2-2-2-2-2--|
    1 + 2 + 3 + 4 +    1 + 2 + 3 + 4 +    1 + 2 + 3 + 4 +    1 + 2 + 3 + 4 +

Gb|------------------|------------------|------------------|------------------||
Db|------------------|------------------|------------------|------------------||
Ab|------------------|-2-2-2-2-2-2-2-2--|-7-7-7-7-7-7-7-7--|-9-9-9-9-9-9-9----||
Eb|-4-4-4-4-4-4-4-4--|------------------|------------------|---------------0--||
    1 + 2 + 3 + 4 +    1 + 2 + 3 + 4 +    1 + 2 + 3 + 4 +    1 + 2 + 3 + 4 +

PRE-CHORUS


Gb|------------------|------------------|------------------|------------------|
Db|------------------|------------------|------------------|------------------|
Ab|------------------|---------------4--|---4-4-4-4-4-4-4--|-4-4-4-4-4-4-4----|
Eb|---0-0-0-0-0-0-0--|-0-0-0-0-0-0-0----|------------------|---------------0--|
    1 + 2 + 3 + 4 +    1 + 2 + 3 + 4 +    1 + 2 + 3 + 4 +    1 + 2 + 3 + 4 +

Gb|------------------|------------------|------------------|------------------||
Db|------------------|------------------|------------------|------------------||
Ab|------------------|---------------4--|---4-4-4-4-4-4-4--|-4----------------||
Eb|---0-0-0-0-0-0-0--|-0-0-0-0-0-0-0----|------------------|---------------4--||
    1 + 2 + 3 + 4 +    1 + 2 + 3 + 4 +    1 + 2 + 3 + 4 +    1 + 2 + 3 + 4 +

CHORUS


Gb|------------------|------------------|------------------|------------------|
Db|------------------|------------------|------------------|------------------|
Ab|------------------|------------------|------------------|------------------|
Eb|-----4---4---4----|-4---4---4---4-2--|-----2---2---2----|-2---2---2-2-2-0--|
    1 + 2 + 3 + 4 +    1 + 2 + 3 + 4 +    1 + 2 + 3 + 4 +    1 + 2 + 3 + 4 +

Gb|------------------|------------------|------------------|------------------|
Db|------------------|------------------|------------------|------------------|
Ab|------------------|---------------2--|---2-2-2-2-2-2-1--|---1-1-1-1-1-1----|
Eb|---0-0-0-0-0-0-0--|-0-0-0-0-0-0-0----|------------------|---------------4--|
    1 + 2 + 3 + 4 +    1 + 2 + 3 + 4 +    1 + 2 + 3 + 4 +    1 + 2 + 3 + 4 +

Gb|------------------|------------------|------------------|------------------|
Db|------------------|------------------|------------------|------------------|
Ab|------------------|------------------|------------------|------------------|
Eb|-----4---4---4----|-4---4---4---4-2--|-----2---2---2----|-2---2---2-2-2-0--|
    1 + 2 + 3 + 4 +    1 + 2 + 3 + 4 +    1 + 2 + 3 + 4 +    1 + 2 + 3 + 4 +

Gb|------------------|------------------|------------------|------------------||
Db|------------------|------------------|------------------|------------------||
Ab|------------------|---------------2--|---2-2-2-2-2-2-4--|---4-4-4-4-4-4----||
Eb|---0-0-0-0-0-0-0--|-0-0-0-0-0-0-0----|------------------|---------------0--||
    1 + 2 + 3 + 4 +    1 + 2 + 3 + 4 +    1 + 2 + 3 + 4 +    1 + 2 + 3 + 4 +

INTERLUDE


Gb|------------------|------------------|------------------|------------------||
Db|------------------|------------------|------------------|------------------||
Ab|------------------|------------------|-4----------------|------------------||
Eb|(0)---------------|------------------|------------------|-2----------------||
    1 + 2 + 3 + 4 +    1 + 2 + 3 + 4 +    1 + 2 + 3 + 4 +    1 + 2 + 3 + 4 +

VERSE


Gb|------------------|------------------|------------------|------------------|
Db|------------------|------------------|------------------|------------------|
Ab|------------------|-2-2-2-2-2-2-2-2--|------------------|------------------|
Eb|-4-4-4-4-4-4-4-4--|------------------|-0-0-0-0-0-0-0-0--|-2-2-2-2-2-2-2-2--|
    1 + 2 + 3 + 4 +    1 + 2 + 3 + 4 +    1 + 2 + 3 + 4 +    1 + 2 + 3 + 4 +

Gb|------------------|------------------|------------------|------------------|
Db|------------------|------------------|------------------|-8-8-----9-9-11-11|
Ab|------------------|-2-2-2-2-2-2-2-2--|-7-7-7-7-7-7-7-7--|-----9-9----------|
Eb|-4-4-4-4-4-4-4-4--|------------------|------------------|------------------|
    1 + 2 + 3 + 4 +    1 + 2 + 3 + 4 +    1 + 2 + 3 + 4 +    1 + 2 + 3 + 4 +

Gb|------------------|------------------|------------------|------------------|
Db|------------------|------------------|------------------|------------------|
Ab|------------------|-2-2-2-2-2-2-2-2--|------------------|------------------|
Eb|-4-4-4-4-4-4-4-4--|------------------|-0-0-0-0-0-0-0-0--|-2-2-2-2-2-2-2-2--|
    1 + 2 + 3 + 4 +    1 + 2 + 3 + 4 +    1 + 2 + 3 + 4 +    1 + 2 + 3 + 4 +

Gb|------------------|------------------|------------------|------------------||
Db|------------------|------------------|------------------|------------------||
Ab|------------------|-2-2-2-2-2-2-2-2--|-7-7-7-7-7-7-7-7--|-9-9-9-9-9-9-9----||
Eb|-4-4-4-4-4-4-4-4--|------------------|------------------|---------------0--||
    1 + 2 + 3 + 4 +    1 + 2 + 3 + 4 +    1 + 2 + 3 + 4 +    1 + 2 + 3 + 4 +

PRE-CHORUS


Gb|------------------|------------------|------------------|------------------|
Db|------------------|------------------|------------------|------------------|
Ab|------------------|---------------4--|---4-4-4-4-4-4-4--|-4-4-4-4-4-4-4----|
Eb|---0-0-0-0-0-0-0--|-0-0-0-0-0-0-0----|------------------|---------------0--|
    1 + 2 + 3 + 4 +    1 + 2 + 3 + 4 +    1 + 2 + 3 + 4 +    1 + 2 + 3 + 4 +

Gb|------------------|------------------|------------------|------------------||
Db|------------------|------------------|------------------|------------------||
Ab|------------------|---------------4--|---4-4-4-4-4-4-4--|-4----------------||
Eb|---0-0-0-0-0-0-0--|-0-0-0-0-0-0-0----|------------------|---------------4--||
    1 + 2 + 3 + 4 +    1 + 2 + 3 + 4 +    1 + 2 + 3 + 4 +    1 + 2 + 3 + 4 +

CHORUS


Gb|------------------|------------------|------------------|------------------|
Db|------------------|------------------|------------------|------------------|
Ab|------------------|------------------|------------------|------------------|
Eb|-----4---4---4----|-4---4---4---4-2--|-----2---2---2----|-2---2---2-2-2-0--|
    1 + 2 + 3 + 4 +    1 + 2 + 3 + 4 +    1 + 2 + 3 + 4 +    1 + 2 + 3 + 4 +

Gb|------------------|------------------|------------------|------------------|
Db|------------------|------------------|------------------|------------------|
Ab|------------------|---------------2--|---2-2-2-2-2-2-1--|---1-1-1-1-1-1----|
Eb|---0-0-0-0-0-0-0--|-0-0-0-0-0-0-0----|------------------|---------------4--|
    1 + 2 + 3 + 4 +    1 + 2 + 3 + 4 +    1 + 2 + 3 + 4 +    1 + 2 + 3 + 4 +

Gb|------------------|------------------|------------------|------------------|
Db|------------------|------------------|------------------|------------------|
Ab|------------------|------------------|------------------|-9---9---9-9-11---|
Eb|-----4---4---4----|-4---4---4---4-2--|-----2---2---2-/--|---------------0--|
    1 + 2 + 3 + 4 +    1 + 2 + 3 + 4 +    1 + 2 + 3 + 4 +    1 + 2 + 3 + 4 +

Gb|------------------|------------------|------------------|------------------||
Db|------------------|------------------|------------------|------------------||
Ab|------------------|---------------2--|---2-2-2-2-2-2-4--|---4-4-4-4-4-4----||
Eb|---0-0-0-0-0-0-0--|-0-0-0-0-0-0-0----|------------------|---------------0--||
    1 + 2 + 3 + 4 +    1 + 2 + 3 + 4 +    1 + 2 + 3 + 4 +    1 + 2 + 3 + 4 +

INTERLUDE


Gb|------------------|------------------|------------------|------------------||
Db|------------------|------------------|------------------|------------------||
Ab|------------------|------------------|------------------|------------------||
Eb|(0)---------------|------------------|------------------|------------------||
    1 + 2 + 3 + 4 +    1 + 2 + 3 + 4 +    1 + 2 + 3 + 4 +    1 + 2 + 3 + 4 +

BRIDGE


Gb|------------------|------------------|------------------|------------------|
Db|------------------|------------------|------------------|------------------|
Ab|------------------|------------------|-7----------------|------------(7)\\\|
Eb|-4----------------|------------------|------------------|------------------|
    1 + 2 + 3 + 4 +    1 + 2 + 3 + 4 +    1 + 2 + 3 + 4 +    1 + 2 + 3 + 4 +

Gb|------------------|------------------|------------------|------------------|
Db|------------------|------------------|------------------|------------------|
Ab|------------------|------------------|-7----------------|------------------|
Eb|-4----------------|------------------|------------------|------------------|
    1 + 2 + 3 + 4 +    1 + 2 + 3 + 4 +    1 + 2 + 3 + 4 +    1 + 2 + 3 + 4 +

Gb|------------------|------------------|------------------|------------------|
Db|------------------|------------------|------------------|------------------|
Ab|------------------|------------------|------------------|------------------|
Eb|-2-2-2-2-2-2-2-2--|-2-2-2-2-2-2-2-2--|-0-0-0-0-0-0-0-0--|-0-0-0-0-0-0-0-0--|
    1 + 2 + 3 + 4 +    1 + 2 + 3 + 4 +    1 + 2 + 3 + 4 +    1 + 2 + 3 + 4 +

Gb|------------------|------------------|------------------|------------------|
Db|------------------|------------------|------------------|------------------|
Ab|------------------|------------------|------------------|---------7\\\\\\\-|
Eb|-2-2-2-2-2-2-2-2--|-2-2-2-2-2-2-2-2--|-0-0-0-0-0-0-0-0--|-0-0-0-2----------|
    1 + 2 + 3 + 4 +    1 + 2 + 3 + 4 +    1 + 2 + 3 + 4 +    1 + 2 + 3 + 4 +

Gb|------------------|------------------|------------------|------------------|
Db|------------------|------------------|------------------|------------------|
Ab|------------------|-2-2-2-2-2-2-2-2--|------------------|-7-7-7-7-7-7-7-7--|
Eb|-4-4-4-4-4-4-4-4--|------------------|-0-0-0-0-0-0-0-0--|-0-0-0-0-0-0-0-0--|
    1 + 2 + 3 + 4 +    1 + 2 + 3 + 4 +    1 + 2 + 3 + 4 +    1 + 2 + 3 + 4 +

Gb|------------------|------------------|------------------|------------------|
Db|------------------|------------------|------------------|------------------|
Ab|------------------|-2-2-2-2-2-2-2-2--|-7-7-7-7-7-7-7-7--|-7-7-7-7-7-7-7-7--|
Eb|-4-4-4-4-4-4-4-4--|------------------|------------------|------------------|
    1 + 2 + 3 + 4 +    1 + 2 + 3 + 4 +    1 + 2 + 3 + 4 +    1 + 2 + 3 + 4 +

Gb|------------------|------------------|------------------|------------------|
Db|------------------|------------------|------------------|-------2---4---4--|
Ab|------------------|-2-2-2-2-2-2-2-2--|------------------|---2--------------|
Eb|-4-4-4-4-4-4-4-4--|------------------|-0-0-0-0-0-0-0-0--|-2----------------|
    1 + 2 + 3 + 4 +    1 + 2 + 3 + 4 +    1 + 2 + 3 + 4 +    1 + 2 + 3 + 4 +

Gb|------------------|------------------|------------------|------------------|
Db|------------------|------------------|-------------4/6--|------------------|
Ab|------------------|------------------|------------------|------------------|
Eb|-2-----2-----0----|------------------|-2-----2----------|------------------|
    1 + 2 + 3 + 4 +    1 + 2 + 3 + 4 +    1 + 2 + 3 + 4 +    1 + 2 + 3 + 4 +

Gb|------------------|-------------------------|------------------|------------------||
Db|------------------|-------------------------|------------------|------------------||
Ab|------------------|-------------------------|------------------|------------------||
Eb|-2-----2-----0----|-------------------------|-0----------------|---------------4--||
    1 + 2 + 3 + 4 +    1 + 2 + 3 + 4 + 5 + 6 +   1 + 2 + 3 + 4 +    1 + 2 + 3 + 4 +

CHORUS


Gb|------------------|------------------|------------------|------------------|
Db|------------------|------------------|------------------|------------------|
Ab|------------------|------------------|------------------|------------------|
Eb|---4-4-4-4-4-4-4--|-4-4-4-4-4-4-4-2--|---2-2-2-2-2-2-2--|-2-2-2-2-2-2-2-0--|
    1 + 2 + 3 + 4 +    1 + 2 + 3 + 4 +    1 + 2 + 3 + 4 +    1 + 2 + 3 + 4 +

Gb|------------------|------------------|------------------|------------------|
Db|------------------|------------------|------------------|------------------|
Ab|------------------|---------------2--|---2-2-2-2-2-2-1--|---1-1-1-1-1-1----|
Eb|---0-0-0-0-0-0-0--|-0-0-0-0-0-0-0----|------------------|---------------4--|
    1 + 2 + 3 + 4 +    1 + 2 + 3 + 4 +    1 + 2 + 3 + 4 +    1 + 2 + 3 + 4 +

Gb|------------------|------------------|------------------|------------------|
Db|------------------|------------------|------------------|------------------|
Ab|------------------|------------------|------------------|------------------|
Eb|---4-4-4-4-4-4-4--|-4-4-4-4-4-4-4-2--|---2-2-2-2-2-2-2--|-2-2-2-2-2-2-2-0--|
    1 + 2 + 3 + 4 +    1 + 2 + 3 + 4 +    1 + 2 + 3 + 4 +    1 + 2 + 3 + 4 +

Gb|------------------|------------------|------------------|------------------||
Db|------------------|------------------|------------------|------------------||
Ab|------------------|---------------2--|---2-2-2-2-2-2-4--|---4-4-4-4-4-4----||
Eb|---0-0-0-0-0-0-0--|-0-0-0-0-0-0-0----|------------------|---------------4--||
    1 + 2 + 3 + 4 +    1 + 2 + 3 + 4 +    1 + 2 + 3 + 4 +    1 + 2 + 3 + 4 +

OUTRO


Gb|------------------|------------------|------------------|------------------|
Db|------------------|------------------|------------------|------------------|
Ab|------------------|------------------|------------------|------------------|
Eb|---4-4-4-4-4-4-4--|-4-4-4-4-4-4-4-2--|---2-2-2-2-2-2-2--|-2-2-2-2-2-2-2-0--|
    1 + 2 + 3 + 4 +    1 + 2 + 3 + 4 +    1 + 2 + 3 + 4 +    1 + 2 + 3 + 4 +

Gb|------------------|------------------|------------------|------------------||
Db|------------------|------------------|------------------|------------------||
Ab|------------------|---------------2--|---------------4~~|------------------||
Eb|---0-0-0-0-0-0-0--|-0-0-0-0-0-0-0----|------------------|------------------||
    1 + 2 + 3 + 4 +    1 + 2 + 3 + 4 +    1 + 2 + 3 + 4 +    1 + 2 + 3 + 4 +

TRACK 13)

WHEREABOUTS UNKNOWN

INTRO

Gb|------------------|------------------|------------------|------------------|
Db|------------------|------------------|------------------|------------------|
Ab|------------------|------------------|------------------|-7----------------|
Eb|------------------|------------------|------------------|------------------|
    1 + 2 + 3 + 4 +    1 + 2 + 3 + 4 +    1 + 2 + 3 + 4 +    1 + 2 + 3 + 4 +

Gb|------------------|------------------|------------------|------------------|------------------||
Db|------------------|------------------|------------------|------------------|------------------||
Ab|5-----------------|-3----------------|---------55555555-|------------------|------------------||
Eb|------------------|------------------|-33333333---------|------------------|------------------||
    1 + 2 + 3 + 4 +    1 + 2 + 3 + 4 +    1 + 2 + 3 + 4 +    1 + 2 + 3 + 4 +    1 + 2 + 
+ 4 +

VERSE


Gb|------------------|------------------|------------------|------------------|
Db|------------------|------------------|------------------|------------------|
Ab|---------7-5------|------------------|---------7-5------|------------------|
Eb|-0---0---------0--|---0-0-0-0-0-0-0--|-0---0---------0--|---0-0-0-0-0-0-0--|
    1 + 2 + 3 + 4 +    1 + 2 + 3 + 4 +    1 + 2 + 3 + 4 +    1 + 2 + 3 + 4 +

Gb|------------------|------------------|------------------|------------------|
Db|------------------|------------------|------------------|------------------|
Ab|------------------|------------------|---------7-5------|-------0-2-0------|
Eb|-3---3---3-3---5--|---5-5-5-5-5-5-5--|-0---0---------0--|---0-0-------3-2--|
    1 + 2 + 3 + 4 +    1 + 2 + 3 + 4 +    1 + 2 + 3 + 4 +    1 + 2 + 3 + 4 +

Gb|------------------|------------------|------------------|------------------|
Db|------------------|------------------|------------------|------------------|
Ab|---------7-5------|------------------|---------7-5------|------------------|
Eb|-0---0---------0--|---0-0-0-0-0-0-0--|-0---0---------0--|---0-0-0-0-0-0-0--|
    1 + 2 + 3 + 4 +    1 + 2 + 3 + 4 +    1 + 2 + 3 + 4 +    1 + 2 + 3 + 4 +

Gb|------------------|------------------|------------------|------------------||
Db|------------------|------------------|------------------|------------------||
Ab|------------------|------------------|---------7-5------|-------------2----||
Eb|-3---3---3-3---5--|---5-5-5-5-5-5-5--|-0---0---------0--|---0-0-0-3-5------||
    1 + 2 + 3 + 4 +    1 + 2 + 3 + 4 +    1 + 2 + 3 + 4 +    1 + 2 + 3 + 4 +

PRE-CHORUS

Gb|------------------|------------------|------------------|------------------|
Db|------------------|------------------|------------------|------------------|
Ab|-3---3---3-3-3-5--|---5-5---5-5-5-5--|------------------|-5-------2--------|
Eb|------------------|------------------|-0-0-0-0-0-0-0-0--|------------------|
    1 + 2 + 3 + 4 +    1 + 2 + 3 + 4 +    1 + 2 + 3 + 4 +    1 + 2 + 3 + 4 +

Gb|------------------|------------------|------------------|--------------------------||
Db|------------------|------------------|------------------|--------------------------||
Ab|-3-3-3-3-3-3-3-3--|-3-3-3-3-3-3-3-3--|-5-5-5-5-5-5-5-5//|/12-12-12-12-10-10-9--9---||
Eb|------------------|------------------|------------------|--------------------------||
    1 + 2 + 3 + 4 +    1 + 2 + 3 + 4 +    1 + 2 + 3 + 4 +    1  +  2  +  3  +  4  +

CHORUS

Gb|------------------|------------------|------------------|------------------|
Db|------------------|------------------|------------------|------------------|
Ab|------------------|------------------|-5---5-5-5-5-5-5--|-5-5-5-5-5-5-5-5--|
Eb|-0---0-0-0-0-0-0--|-0-0-0-0-0-0-0-0--|------------------|------------------|
    1 + 2 + 3 + 4 +    1 + 2 + 3 + 4 +    1 + 2 + 3 + 4 +    1 + 2 + 3 + 4 +

Gb|------------------|------------------|------------------|------------------|
Db|------------------|------------------|------------------|------------------|
Ab|-3-3-3-3-3-3-3-3--|-3-3-3-3-3-3-3-3--|------------------|------------------|
Eb|------------------|------------------|-0---0-0-0-0-0-0--|-0-0-0-0-0-0-0-0--|
    1 + 2 + 3 + 4 +    1 + 2 + 3 + 4 +    1 + 2 + 3 + 4 +    1 + 2 + 3 + 4 +

Gb|------------------|------------------|------------------|------------------|
Db|------------------|------------------|------------------|------------------|
Ab|-5---5-5-5-5-5-5--|-5-5-5-5-5-5-5-5--|-3-3-3-3-3-3-3-3--|-3-3-3-3-3-3-3-3--|
Eb|------------------|------------------|------------------|------------------|
    1 + 2 + 3 + 4 +    1 + 2 + 3 + 4 +    1 + 2 + 3 + 4 +    1 + 2 + 3 + 4 +

Gb|------------------|------------------||
Db|------------------|------------------||
Ab|------------------|-5-5-5-5-5-5-5-5--||
Eb|-3-3-3-3-3-3-3-3--|------------------||
    1 + 2 + 3 + 4 +    1 + 2 + 3 + 4 +

INTERLUDE

Gb|------------------|------------------|------------------|------------------||
Db|------------------|------------------|------------------|------------------||
Ab|-----------5------|------------------|---------7-5------|------------------||
Eb|-0-0-0---------0--|---0-0-0-0-0-0-0--|-0-0-0---------0--|---0-0-0-0-0-0-0--||
    1 + 2 + 3 + 4 +    1 + 2 + 3 + 4 +    1 + 2 + 3 + 4 +    1 + 2 + 3 + 4 +


VERSE


Gb|------------------|------------------|------------------|------------------|
Db|------------------|------------------|------------------|------------------|
Ab|---------7-5------|------------------|---------7-5------|------------------|
Eb|-0-0-0---------0--|---0-0-0-0-0-0-0--|-0-0-0---------0--|---0-0-0-0-0-0-0--|
    1 + 2 + 3 + 4 +    1 + 2 + 3 + 4 +    1 + 2 + 3 + 4 +    1 + 2 + 3 + 4 +

Gb|------------------|------------------|------------------|------------------|
Db|------------------|------------------|------------------|------------------|
Ab|------------------|------------------|---------7-5------|-----7---5--7/10--|
Eb|-3-3-3---3-3---5--|---5-5-5-5-5-5-5--|-0-0-0---------0--|---0---0----------|
    1 + 2 + 3 + 4 +    1 + 2 + 3 + 4 +    1 + 2 + 3 + 4 +    1 + 2 + 3 + 4 +

Gb|------------------|------------------|------------------|------------------|
Db|------------------|------------------|------------------|------------------|
Ab|---------7-5------|------------------|---------7-5------|------------------|
Eb|-0---0---------0--|---0-0-0-0-0-0-0--|-0---0---------0--|---0-0-0-0-0-0-0--|
    1 + 2 + 3 + 4 +    1 + 2 + 3 + 4 +    1 + 2 + 3 + 4 +    1 + 2 + 3 + 4 +

Gb|------------------|------------------|------------------|------------------||
Db|------------------|------------------|------------------|------------------||
Ab|------------------|------------------|---------7-5------|-------------2----||
Eb|-3---3---3-3---5--|---5-5-5-5-5-5-5--|-0---0---------0--|---0-0-0-3-5------||
    1 + 2 + 3 + 4 +    1 + 2 + 3 + 4 +    1 + 2 + 3 + 4 +    1 + 2 + 3 + 4 +

PRE-CHORUS

Gb|------------------|------------------|------------------|------------------|
Db|------------------|------------------|------------------|------------------|
Ab|-3---3---3-3-3-5--|---5-5---5-5-5-5--|------------------|-5-------2--------|
Eb|------------------|------------------|-0-0-0-0-0-0-0-0--|------------------|
    1 + 2 + 3 + 4 +    1 + 2 + 3 + 4 +    1 + 2 + 3 + 4 +    1 + 2 + 3 + 4 +

Gb|------------------|------------------|------------------|--------------------------||
Db|------------------|------------------|------------------|--------------------------||
Ab|-3-3-3-3-3-3-3-3--|-3-3-3-3-3-3-3-3--|-5-5-5-5-5-5-5-5//|/12-12-12-12-10-10-9--9---||
Eb|------------------|------------------|------------------|--------------------------||
    1 + 2 + 3 + 4 +    1 + 2 + 3 + 4 +    1 + 2 + 3 + 4 +    1  +  2  +  3  +  4  +

CHORUS

Gb|------------------|------------------|------------------|------------------|
Db|------------------|------------------|------------------|------------------|
Ab|------------------|------------------|-5---5-5-5-5-5-5--|-5-5-5-5-5-5-5-5--|
Eb|-0---0-0-0-0-0-0--|-0-0-0-0-0-0-0-0--|------------------|------------------|
    1 + 2 + 3 + 4 +    1 + 2 + 3 + 4 +    1 + 2 + 3 + 4 +    1 + 2 + 3 + 4 +

Gb|------------------|------------------|------------------|------------------|
Db|------------------|------------------|------------------|------------------|
Ab|-3-3-3-3-3-3-3-3--|-3-3-3-3-3-3-3-3--|------------------|------------------|
Eb|------------------|------------------|-0---0-0-0-0-0-0--|-0-0-0-0-0-0-0-0--|
    1 + 2 + 3 + 4 +    1 + 2 + 3 + 4 +    1 + 2 + 3 + 4 +    1 + 2 + 3 + 4 +

Gb|------------------|------------------|------------------|------------------|
Db|------------------|------------------|------------------|------------------|
Ab|-5---5-5-5-5-5-5--|-5-5-5-5-5-5-5-5--|-3-3-3-3-3-3-3-3--|-3-3-3-3-3-3-3-3--|
Eb|------------------|------------------|------------------|------------------|
    1 + 2 + 3 + 4 +    1 + 2 + 3 + 4 +    1 + 2 + 3 + 4 +    1 + 2 + 3 + 4 +

Gb|------------------|------------------||
Db|------------------|------------------||
Ab|------------------|-5-5-5-5-5-5-5-5--||
Eb|-3-3-3-3-3-3-3-3--|------------------||
    1 + 2 + 3 + 4 +    1 + 2 + 3 + 4 +

INTERLUDE

Gb|--------------------------|--------------------------|
Db|--------------------------|--------------------------|
Ab|--------------------------|--------------------------|
Eb|-0--10-12-0--10-12-0--10--|-12-0--10-12-0--10-12-0---|
    1  +  2  +  3  +  4  +     1  +  2  +  3  +  4  +

Gb|--------------------------|--------------------------|
Db|--------------------------|--------------------------|
Ab|--------------------------|--------------------------|
Eb|-0--10-12-0--10-12-0--10--|-12-0--10-12-0--10-12-0---|
    1  +  2  +  3  +  4  +     1  +  2  +  3  +  4  +

Gb|--------------------------|--------------------------|
Db|--------------------------|--------------------------|
Ab|--------------------------|--------------------------|
Eb|-0--10-12-0--10-12-0--10--|-12-0--10-12-0--10-12-0---|
    1  +  2  +  3  +  4  +     1  +  2  +  3  +  4  +

Gb|--------------------------|--------------------------|
Db|--------------------------|--------------------------|
Ab|--------------------------|--------------------------|
Eb|-0--10-12-0--10-12-0--10--|-12-0--10-12-0--10-12-0---|
    1  +  2  +  3  +  4  +     1  +  2  +  3  +  4  +

Gb|--------------------------|--------------------------|
Db|--------------------------|--------------------------|
Ab|--------------------------|--------------------------|
Eb|-0--10-12-0--10-12-0--10--|-12-0--10-12-0--10-12-0---|
    1  +  2  +  3  +  4  +     1  +  2  +  3  +  4  +

Gb|--------------------------|--------------------------|
Db|--------------------------|--------------------------|
Ab|--------------------------|--------------------------|
Eb|-0--10-12-0--10-12-0--10--|-12-0--10-12-0--10-12-0---|
    1  +  2  +  3  +  4  +     1  +  2  +  3  +  4  +

Gb|--------------------------|--------------------------|
Db|--------------------------|--------------------------|
Ab|--------------------------|--------------------------|
Eb|-3-----3--3--3-----3------|-3-----3-----3--3--3------|
    1  +  2  +  3  +  4  +     1  +  2  +  3  +  4  +

Gb|--------------------------|--------------------------|
Db|--------------------------|--------------------------|
Ab|--------------------------|--------------------------|
Eb|-0--10-12-0--10-12-0--10--|-12-0--10-12-0--10-12-0---|
    1  +  2  +  3  +  4  +     1  +  2  +  3  +  4  +

Gb|--------------------------|--------------------------|
Db|--------------------------|--------------------------|
Ab|--------------------------|--------------------------|
Eb|-0--10-12-0--10-12-0--10--|-12-0--10-12-0--10-12-0---|
    1  +  2  +  3  +  4  +     1  +  2  +  3  +  4  +

Gb|------------------|------------------|------------------|------------------|
Db|------------------|------------------|------------------|------------------|
Ab|------------------|------------------|------------------|------------------|
Eb|-0---0-0-0-0-0-0--|-0-0-0-0-0-0-0-0--|-0---0-0-0-0-0-0--|-0-0-0-0-0-0-0-0--|
    1 + 2 + 3 + 4 +    1 + 2 + 3 + 4 +    1 + 2 + 3 + 4 +    1 + 2 + 3 + 4 +

Gb|------------------|------------------|------------------|------------------|
Db|------------------|------------------|------------------|------------------|
Ab|------------------|------------------|------------------|------------------|
Eb|-0---0-0-0-0-0-0--|-0-0-0-0-0-0-0-0--|-0---0-0-0-0-0-0--|-0-0-0-0-0-0-0-0--|
    1 + 2 + 3 + 4 +    1 + 2 + 3 + 4 +    1 + 2 + 3 + 4 +    1 + 2 + 3 + 4 +

Gb|--------------------------|--------------------------|
Db|--------------------------|--------------------------|
Ab|--------------------------|--------------------------|
Eb|-3-----3-----3--3--3--3---|----3--3-----3--3--3--3---|
    1  +  2  +  3  +  4  +     1  +  2  +  3  +  4  +

Gb|--------------------------|--------------------------|
Db|--------------------------|--------------------------|
Ab|--------------------------|--------------------------|
Eb|-0--10-12-0--10-12-0--10--|-12-0--10-12-0--10-12-0---|
    1  +  2  +  3  +  4  +     1  +  2  +  3  +  4  +

Gb|--------------------------|--------------------------|
Db|--------------------------|--------------------------|
Ab|--------------------------|--------------------------|
Eb|-3-----3-----3-----3------|-3-----3-----3-----3------|
    1  +  2  +  3  +  4  +     1  +  2  +  3  +  4  +

Gb|--------------------------|--------------------------|
Db|--------------------------|--------------------------|
Ab|--------------------------|--------------------------|
Eb|-0--10-12-0--10-12-0--10--|-12-0--10-12-0--10-12-0---|
    1  +  2  +  3  +  4  +     1  +  2  +  3  +  4  +

Gb|------------------|------------------|------------------|------------------||
Db|------------------|------------------|------------------|------------------||
Ab|------------------|------------------|-0-0-0-0-0-0-0-0--|-0-0-0-0-0-0-0-0--||
Eb|-3---3---3---3----|-3---3---3---3----|------------------|------------------||
    1 + 2 + 3 + 4 +    1 + 2 + 3 + 4 +    1 + 2 + 3 + 4 +    1 + 2 + 3 + 4 +

CHORUS

Gb|------------------|------------------|------------------|------------------|
Db|------------------|------------------|------------------|------------------|
Ab|------------------|------------------|-5----------------|------------------|
Eb|-0----------------|------------------|------------------|------------------|
    1 + 2 + 3 + 4 +    1 + 2 + 3 + 4 +    1 + 2 + 3 + 4 +    1 + 2 + 3 + 4 +

Gb|------------------|------------------|------------------|------------------|
Db|------------------|------------------|------------------|------------------|
Ab|-3-3-3-3-3-3-3-3--|-3-3-3-3-3-3-3-3--|------------------|------------------|
Eb|------------------|------------------|-0---0-0-0-0-0-0--|-0-0-0-0-0-0-0-0--|
    1 + 2 + 3 + 4 +    1 + 2 + 3 + 4 +    1 + 2 + 3 + 4 +    1 + 2 + 3 + 4 +

Gb|------------------|------------------|------------------|------------------|
Db|------------------|------------------|------------------|------------------|
Ab|-5---5-5-5-5-5-5--|-5-5-5-5-5-5-5-5--|-3-3-3-3-3-3-3-3--|-3-3-3-3-3-3-3-3--|
Eb|------------------|------------------|------------------|------------------|
    1 + 2 + 3 + 4 +    1 + 2 + 3 + 4 +    1 + 2 + 3 + 4 +    1 + 2 + 3 + 4 +

Gb|------------------|------------------||
Db|------------------|------------------||
Ab|------------------|-5-5-5-5-5-5-5-5--||
Eb|-3-3-3-3-3-3-3-3--|------------------||
    1 + 2 + 3 + 4 +    1 + 2 + 3 + 4 +

OUTRO


Gb|------------------|------------------|------------------|------------------|
Db|------------------|------------------|------------------|------------------|
Ab|------------------|------------------|-5-5-5-5-5-5-5-5--|-5-5-5-5-5-5-5-5--|
Eb|-0-0-0-0-0-0-0-0--|-0-0-0-0-0-0-0-0--|------------------|------------------|
    1 + 2 + 3 + 4 +    1 + 2 + 3 + 4 +    1 + 2 + 3 + 4 +    1 + 2 + 3 + 4 +

Gb|------------------|------------------|------------------|------------------|
Db|------------------|------------------|------------------|------------------|
Ab|-3-3-3-3-3-3-3-3--|-3-3-3-3-3-3-3-3--|------------------|-5-5-5-5-5-5-5-5--|
Eb|------------------|------------------|-3-3-3-3-3-3-3-3--|------------------|
    1 + 2 + 3 + 4 +    1 + 2 + 3 + 4 +    1 + 2 + 3 + 4 +    1 + 2 + 3 + 4 +

Gb|------------------|------------------|------------------|------------------|
Db|------------------|------------------|------------------|------------------|
Ab|------------------|------------------|-5-5-5-5-5-5-5-5--|-5-5-5-5-5-5-5-5--|
Eb|-0-0-0-0-0-0-0-0--|-0-0-0-0-0-0-0-0--|------------------|------------------|
    1 + 2 + 3 + 4 +    1 + 2 + 3 + 4 +    1 + 2 + 3 + 4 +    1 + 2 + 3 + 4 +

Gb|------------------|------------------|------------------|------------------|
Db|------------------|------------------|------------------|------------------|
Ab|-3-3-3-3-3-3-3-3--|-3-3-3-3-3-3-3-3--|------------------|-5----------------|
Eb|------------------|------------------|-3----------------|------------------|
    1 + 2 + 3 + 4 +    1 + 2 + 3 + 4 +    1 + 2 + 3 + 4 +    1 + 2 + 3 + 4 +

Gb|------------------|------------------||
Db|------------------|------------------||
Ab|------------------|------------------||
Eb|-0----------------|------------------||
    1 + 2 + 3 + 4 +    1 + 2 + 3 + 4 +
comments
print report bad tab
7 comments total. Showing first comments.
+2 reply
Lemurs4mangos wrote on January 18 2009, 10:28 am

Amazing Tab Man, Can't find any mistakes.

+2 reply
Rasor1 wrote on January 20 2009, 07:22 am

Amazing job, I'm suprised theres an awesome bass tab before guitar, thanks so much, this is 100% correct.

+3 reply
kumamilesbear wrote on February 9 2009, 07:13 pm

FINALLY
bassists have paid their dues, its time we got this kinda respect
lol
perfect

I want to post or [tab]
guest
You may want to rate the tab now too:
select rating
Please do not post tabs as comments. Select "correction" instead!