Oops, an error
Loading. Please wait.

Audience Of One Chords

ver3
ver3

Whole song

More versions @911Tabs.com
6,352 views 60 this week
1 commentread comment
1 2 3 4 5
excellent!
x 7
add to favorites launch autoscroll
font size
0
reset
transpose
0
reset
highlight chords
display chords
Autoscroll
+/-
esc
set tempo
stop
Contributor
WARNING: You are trying to view
                                    content from Ultimate-Guitar.com
                                    in an unauthorized application,
                                    which is prohibited.

                                    Please use an official Ultimate
                                    Guitar Tabs application for iPhone,
                                    iPad or Android to access legitimate
                                    chords, guitar, bass, and drum tabs
                                    from Ultimate-Guitar.com database.

                                    Type "ultimate guitar tabs" in Apple
                                    App Store's or Android Market's
                                    search to find the application.
Audience of One chords
Artist: Rise Against
Tabbed by: Preston Turner
email: presto4132@comcast.net
Tuning: 1/2 step down

I tabbed this while watching him play an acoustic version Live. This is as close as I 
could possibly get it.

If you chose to use full chords for D, A, and Bm, it sounds best if they are only used 
in the final chorus. The chords below sound best for the rest of the song, in my opinion.


      D    A    Bm    G or G
e|-------------------------3------|
B|----3----2----3----------3------|
G|----2----2----4-----4----0------|
D|----0----2----4-----5----0------|
A|----0----0----2-----5----2------|
E|--------------------3----3------|

The second G should really only be used in the chorus, if that.


Intro (1)
eb|--5-----5-----5-----5-----5---5---|
Bb|----3-3---3-3---3-3---3-3---3---3-|
Gb|----------------------------------|
Db|----------------------------------| x2
Ab|----------------------------------|
Eb|----------------------------------|

OR Intro (2)
eb|----------------------------------|
Bb|--10----10----10----10----10--10--|
Gb|----7-7---7-7---7-7---7-7---7---7-|
Db|----------------------------------| x2
Ab|----------------------------------|
Eb|----------------------------------|


eb|--------------------------------------------------------------|
Bb|--------------------------------------------------------------|
Gb|--9---11--9-11--14---11--9-11---7--6--7--6--7--6--4-----------|
Db|-----------------------------------------------------7--9--5~-|
Ab|--7---9---7-9---12---9---7-9----5--4--5--4--5--4--2-----------|
Eb|-----------------------------------------------------5--7--3~-|

(there is some sliding and stuff going on here but I didn't tab it in)

eb|--------------------------------------------------------------|
Bb|--------------------------------------------------------------|
Gb|--9---11--9-11--14---11--9-7----6--6--7--6--7--6--7--7s9--7~--|
Db|--------------------------------------------------------------|
Ab|--7---9---7-9---12---9---7-5----4--4--5--4--5--4--5--5s7--5~--|
Eb|--------------------------------------------------------------|

eb|--14------------------------------|
Bb|------15--------------------------|
Gb|----------12----------------------|
Db|--------------12~-----------------|
Ab|----------------------------------|
Eb|----------------------------------|

D              A
 I can still remember
                        Bm
The words and what they meant
                           G
As we etched them with our fingers
                       D
In years of wet cement
                           A
The days blurred into each other
                         Bm
Though everything seemed clear
                    G
We cruised along at half speed
But then we shifted gears

Bm  A         G              D                A
 We ran like vampires from a thousand burning suns
Bm   A     G                  A
 But even then we should have stayed

              Bm  G
But we ran away
    D              A
Now all my friends gone
Bm             G             D                   A
Maybe we’ve outgrown all the things that we once loved
     Bm  G
Run away
         D              A
But what are we running from ?
  Bm                 G             D           A
A show of hands from those in this audience of one
      Bm   A    G
Where have they gone ?

D              A
 Identities assume us
                     Bm
As nine and five add up
              G
Synchronizing watches
                            D
To the seconds that we lost
                A
I looked up and saw you
                    Bm
I know that you saw me
                   G
We froze but for a moment
In empathy

Bm         A        G               D               A
 I brought down the sky for you but all you did was shrug
Bm   A       G           A
 You gave my emptiness a name

               Bm  G
But you ran away
    D              A
Now all my friends gone
Bm             G             D                   A
Maybe we’ve outgrown all the things that we once loved
     Bm  G
Run away
         D              A
But what are we running from ?
  Bm                 G             D           A
A show of hands from those in this audience of one
      Bm   A    G
Where have they gone ?

Bm     G   D               Bm  G     A
 We’re all okay, until the day we’re not
Bm   G       D                 Bm G    A
 The surface shines, while the in-side rots
Bm  G         D             Bm G    A
 We raced the sunset and we al-most won
Bm  G           D               Bm     G    A   G
 We slammed the brakes, but the wheels went on

          Bm  G
We ran away
    D              A
Now all my friends gone
Bm             G             D                   A
Maybe we’ve outgrown all the things that we once loved
     Bm  G
Run away
         D              A
But what are we running from ?
  Bm                 G             D           A
A show of hands from those in this audience of one
      Bm   A    G
Where have they gone ?


Outro: Play Intro (1) except while holding a full G chord on the other 4 strings.
comments
print report bad tab
1 comment total.
0 reply
TDSnet wrote on January 12 2012, 07:50 pm

Yep - This is the one. Nice work.

I want to post or [tab]
guest
You may want to rate the tab now too:
select rating
Please do not post tabs as comments. Select "correction" instead!