Oops, an error
Loading. Please wait.

Behind Closed Doors Tab

ver3
ver3

Whole song

More versions @911Tabs.com
25,319 views 30 this week
1 commentread comment
1 2 3 4 5
excellent!
x 10
Autoscroll
+/-
esc
set tempo
stop
Contributor
Difficulty
WARNING: You are trying to view
                                    content from Ultimate-Guitar.com
                                    in an unauthorized application,
                                    which is prohibited.

                                    Please use an official Ultimate
                                    Guitar Tabs application for iPhone,
                                    iPad or Android to access legitimate
                                    chords, guitar, bass, and drum tabs
                                    from Ultimate-Guitar.com database.

                                    Type "ultimate guitar tabs" in Apple
                                    App Store's or Android Market's
                                    search to find the application.
-------------------------------------------------------------------------------
        BEHIND CLOSED DOORS – Rise Against
-------------------------------------------------------------------------------
Tabbed by: Craig Spence
Email: chromatic.vision@hotmail.com

GUITAR ONE

Tuning:Eb, Ab, Db, Gb, Bb, eb


INTRO


eb|---------------------------------|----------------------------------|
Bb|---------------------------------|----------------------------------|
Gb|---------------------------------|---------------------------7-7----|
Db|-9-------------------------7-7-5-|-5-------------------------7-7-2--|
Ab|-9---9-9-9-9-9-9-9-9-9-9-9-7-7-5-|-5---5-5-5-5-5-5-5-5-5-5-5-5-5-2--|
Eb|-7---7-7-7-7-7-7-7-7-7-7-7-5-5-3-|-3---3-3-3-3-3-3-3-3-3-3-3-----0--|
    1 + + + 2 + + + 3 + + + 4 + + +   1 + + + 2 + + + 3 + + + 4 + + + 
        [     Palm Mute     ]             [     Palm Mute     ]

eb|---------------------------------|----------------------------------|
Bb|---------------------------------|----------------------------------|
Gb|---------------------------------|----------------------------------|
Db|-2-------------------------7-7-5-|-----------------7----------------|
Ab|-2---2-2-2-2-2-2-2-2-2-2-2-7-7-5-|-5---5-5-5-5-5-5-7----------------|
Eb|-0---0-0-0-0-0-0-0-0-0-0-0-5-5-3-|-3---3-3-3-3-3-3-5----------------|
    1 + + + 2 + + + 3 + + + 4 + + +   1 + + + 2 + + + 3 + + + 4 + + + 
        [     Palm Mute     ]             [Palm Mute]    

eb|---------------------------------|----------------------------------|
Bb|---------------------------------|----------------------------------|
Gb|---------------------------------|---------------------------7-7----|
Db|-9-------------------------7-7-5-|-5-------------------------7-7-2--|
Ab|-9---9-9-9-9-9-9-9-9-9-9-9-7-7-5-|-5---5-5-5-5-5-5-5-5-5-5-5-5-5-2--|
Eb|-7---7-7-7-7-7-7-7-7-7-7-7-5-5-3-|-3---3-3-3-3-3-3-3-3-3-3-3-----0--|
    1 + + + 2 + + + 3 + + + 4 + + +   1 + + + 2 + + + 3 + + + 4 + + + 

eb|---------------------------------|----------------------------------|
Bb|---------------------------------|----------------------------------|
Gb|---------------------------------|----------------------------------|
Db|-2-------------------------7-7-5-|-----------------7----------------|
Ab|-2---2-2-2-2-2-2-2-2-2-2-2-7-7-5-|-5---5-5-5-5-5-5-7---7-7-7-7-7-7--|
Eb|-0---0-0-0-0-0-0-0-0-0-0-0-5-5-3-|-3---3-3-3-3-3-3-5---5-5-5-5-5-5--|
    1 + + + 2 + + + 3 + + + 4 + + +   1 + + + 2 + + + 3 + + + 4 + + + 


VERSE

eb|---------------------------------|----------------------------------|
Bb|---------------------------------|----------------------------------|
Gb|---------------------------------|---------------------------7-7----|
Db|-9-------------------------7-7-5-|-5-------------------------7-7-2--|
Ab|-9---9-9-9-9-9-9-9-9-9-9-9-7-7-5-|-5---5-5-5-5-5-5-5-5-5-5-5-5-5-2--|
Eb|-7---7-7-7-7-7-7-7-7-7-7-7-5-5-3-|-3---3-3-3-3-3-3-3-3-3-3-3-----0--|
    1 + + + 2 + + + 3 + + + 4 + + +   1 + + + 2 + + + 3 + + + 4 + + + 
        [     Palm Mute     ]             [     Palm Mute     ]

eb|---------------------------------|----------------------------------|
Bb|---------------------------------|----------------------------------|
Gb|---------------------------------|----------------------------------|
Db|-2-------------------------7-7-5-|-----------------7----------------|
Ab|-2---2-2-2-2-2-2-2-2-2-2-2-7-7-5-|-5---5-5-5-5-5-5-7---7-7-7-7-7-7--|
Eb|-0---0-0-0-0-0-0-0-0-0-0-0-5-5-3-|-3---3-3-3-3-3-3-5---5-5-5-5-5-5--|
    1 + + + 2 + + + 3 + + + 4 + + +   1 + + + 2 + + + 3 + + + 4 + + + 
        [     Palm Mute     ]             [Palm Mute]     [Palm Mute]

eb|---------------------------------|----------------------------------|
Bb|---------------------------------|----------------------------------|
Gb|---------------------------------|---------------------------7-7----|
Db|-9-------------------------7-7-5-|-5-------------------------7-7-2--|
Ab|-9---9-9-9-9-9-9-9-9-9-9-9-7-7-5-|-5---5-5-5-5-5-5-5-5-5-5-5-5-5-2--|
Eb|-7---7-7-7-7-7-7-7-7-7-7-7-5-5-3-|-3---3-3-3-3-3-3-3-3-3-3-3-----0--|
    1 + + + 2 + + + 3 + + + 4 + + +   1 + + + 2 + + + 3 + + + 4 + + + 
        [     Palm Mute     ]             [     Palm Mute     ]

eb|---------------------------------|----------------------------------|
Bb|---------------------------------|----------------------------------|
Gb|---------------------------------|----------------------------------|
Db|-2-------------------------7-7-5-|-----------------7----------------|
Ab|-2---2-2-2-2-2-2-2-2-2-2-2-7-7-5-|-5---5-5-5-5-5-5-7---7-7-7-7-7-7--|
Eb|-0---0-0-0-0-0-0-0-0-0-0-0-5-5-3-|-3---3-3-3-3-3-3-5---5-5-5-5-5-5--|
    1 + + + 2 + + + 3 + + + 4 + + +   1 + + + 2 + + + 3 + + + 4 + + + 
        [     Palm Mute     ]             [Palm Mute]     [Palm Mute]

PRE-CHORUS

eb|---------------------------------|----------------------------------|
Bb|---------------------------------|----------------------------------|
Gb|---------------------------------|---------------------------7-7----|
Db|-9-------------------------7-7-5-|-5-------------------------7-7-2--|
Ab|-9---9-9-9-9-9-9-9-9-9-9-9-7-7-5-|-5---5-5-5-5-5-5-5-5-5-5-5-5-5-2--|
Eb|-7---7-7-7-7-7-7-7-7-7-7-7-5-5-3-|-3---3-3-3-3-3-3-3-3-3-3-3-----0--|
    1 + + + 2 + + + 3 + + + 4 + + +   1 + + + 2 + + + 3 + + + 4 + + + 

eb|---------------------------------|----------------------------------|
Bb|---------------------------------|----------------------------------|
Gb|---------------------------------|----------------------------------|
Db|-2-------------------------7-7-5-|-----------------7----------------|
Ab|-2---2-2-2-2-2-2-2-2-2-2-2-7-7-5-|-5---5-5-5-5-5-5-7---7-7-7-7-7-7--|
Eb|-0---0-0-0-0-0-0-0-0-0-0-0-5-5-3-|-3---3-3-3-3-3-3-5---5-5-5-5-5-5--|
    1 + + + 2 + + + 3 + + + 4 + + +   1 + + + 2 + + + 3 + + + 4 + + + 


eb|---------------------------------|
Bb|---------------------------------|
Gb|---------------------------------|
Db|-9~--------------9---------------|
Ab|-9~--------------9-PICKSCRAPE----|
Eb|-7~--------------7-PICKSCRAPE----|
    1 + + + 2 + + + 3 + + + 4 + + +  

CHORUS

eb|---------------------------------|----------------------------------|
Bb|---------------------------------|----------------------------------|
Gb|---------------------------------|-------------------------7-7-7-7--|
Db|-5---5-5-5-5-5-5-7---7-7-7-7-7-7-|-9---9-9-9-9-9-9-9-9-9-9-7-7-7-7--|
Ab|-5---5-5-5-5-5-5-7---7-7-7-7-7-7-|-9---9-9-9-9-9-9-9-9-9-9-5-5-5-5--|
Eb|-3---3-3-3-3-3-3-5---5-5-5-5-5-5-|-7---7-7-7-7-7-7-7-7-7-7----------|
    1 + + + 2 + + + 3 + + + 4 + + +   1 + + + 2 + + + 3 + + + 4 + + + 

eb|---------------------------------|----------------------------------|
Bb|---------------------------------|----------------------------------|
Gb|---------------------------------|-------------------------7-7-7-7--|
Db|-5---5-5-5-5-5-5-7---7-7-7-7-7-7-|-9---9-9-9-9-9-9-9-9-9-9-7-7-7-7--|
Ab|-5---5-5-5-5-5-5-7---7-7-7-7-7-7-|-9---9-9-9-9-9-9-9-9-9-9-5-5-5-5--|
Eb|-3---3-3-3-3-3-3-5---5-5-5-5-5-5-|-7---7-7-7-7-7-7-7-7-7-7----------|
    1 + + + 2 + + + 3 + + + 4 + + +   1 + + + 2 + + + 3 + + + 4 + + + 

eb|---------------------------------|----------------------------------|
Bb|---------------------------------|----------------------------------|
Gb|---------------------------------|-------------------------7-7-7-7--|
Db|-5---5-5-5-5-5-5-7---7-7-7-7-7-7-|-9---9-9-9-9-9-9-9-9-9-9-7-7-7-7--|
Ab|-5---5-5-5-5-5-5-7---7-7-7-7-7-7-|-9---9-9-9-9-9-9-9-9-9-9-5-5-5-5--|
Eb|-3---3-3-3-3-3-3-5---5-5-5-5-5-5-|-7---7-7-7-7-7-7-7-7-7-7----------|
    1 + + + 2 + + + 3 + + + 4 + + +   1 + + + 2 + + + 3 + + + 4 + + + 

eb|---------------------------------|
Bb|---------------------------------|
Gb|---------------------------------|
Db|-5---5-5-5-5-5-5-7---7-7-7-7-7-7-|
Ab|-5---5-5-5-5-5-5-7---7-7-7-7-7-7-|
Eb|-3---3-3-3-3-3-3-5---5-5-5-5-5-5-|
    1 + + + 2 + + + 3 + + + 4 + + +   

VERSE
                                       FEEDBACK<  <  <  <  <  <  <  <  <
eb|---------------------------------|----------------------------------|
Bb|---------------------------------|----------------------------------|
Gb|---------------------------------|----------------------------------|
Db|-9~------------------------------|----------------------------------|
Ab|-9~------------------------------|----------------------------------|
Eb|-7~------------------------------|----------------------------------|
    1 + + + 2 + + + 3 + + + 4 + + +   1 + + + 2 + + + 3 + + + 4 + + + 

   <  <  <  <  <  <  < < < < < < < < < < < <<<<<<<<<<<<<<<<<<<<<<<<<<<<<
eb|---------------------------------|----------------------------------|
Bb|---------------------------------|----------------------------------|
Gb|---------------------------------|----------------------------------|
Db|---------------------------------|----------------------------------|
Ab|---------------------------------|----------------------------------|
Eb|---------------------------------|----------------------------------|
    1 + + + 2 + + + 3 + + + 4 + + +   1 + + + 2 + + + 3 + + + 4 + + + 

eb|---------------------------------|----------------------------------|
Bb|---------------------------------|----------------------------------|
Gb|---------------------------------|---------------------------7-7----|
Db|-9-------------------------7-7-5-|-5-------------------------7-7-2--|
Ab|-9---9-9-9-9-9-9-9-9-9-9-9-7-7-5-|-5---5-5-5-5-5-5-5-5-5-5-5-5-5-2--|
Eb|-7---7-7-7-7-7-7-7-7-7-7-7-5-5-3-|-3---3-3-3-3-3-3-3-3-3-3-3-----0--|
    1 + + + 2 + + + 3 + + + 4 + + +   1 + + + 2 + + + 3 + + + 4 + + + 
        [     Palm Mute     ]             [     Palm Mute     ]

eb|---------------------------------|----------------------------------|
Bb|---------------------------------|----------------------------------|
Gb|---------------------------------|----------------------------------|
Db|-2-------------------------7-7-5-|-----------------7----------------|
Ab|-2---2-2-2-2-2-2-2-2-2-2-2-7-7-5-|-5---5-5-5-5-5-5-7---7-7-7-7-7-7--|
Eb|-0---0-0-0-0-0-0-0-0-0-0-0-5-5-3-|-3---3-3-3-3-3-3-5---5-5-5-5-5-5--|
    1 + + + 2 + + + 3 + + + 4 + + +   1 + + + 2 + + + 3 + + + 4 + + + 
        [     Palm Mute     ]             [Palm Mute]     [Palm Mute]

eb|---------------------------------|
Bb|---------------------------------|
Gb|---------------------------------|
Db|-9-9-9-9-9-9-9-9-9---------------|
Ab|-9-9-9-9-9-9-9-9-9-PICKSCRAPE----|
Eb|-7-7-7-7-7-7-7-7-7-PICKSCRAPE----|
    1 + + + 2 + + + 3 + + + 4 + + +   


CHORUS

eb|---------------------------------|----------------------------------|
Bb|---------------------------------|----------------------------------|
Gb|---------------------------------|-------------------------7-7-7-7--|
Db|-5---5-5-5-5-5-5-7---7-7-7-7-7-7-|-9---9-9-9-9-9-9-9-9-9-9-7-7-7-7--|
Ab|-5---5-5-5-5-5-5-7---7-7-7-7-7-7-|-9---9-9-9-9-9-9-9-9-9-9-5-5-5-5--|
Eb|-3---3-3-3-3-3-3-5---5-5-5-5-5-5-|-7---7-7-7-7-7-7-7-7-7-7----------|
    1 + + + 2 + + + 3 + + + 4 + + +   1 + + + 2 + + + 3 + + + 4 + + + 

eb|---------------------------------|----------------------------------|
Bb|---------------------------------|----------------------------------|
Gb|---------------------------------|-------------------------7-7-7-7--|
Db|-5---5-5-5-5-5-5-7---7-7-7-7-7-7-|-9---9-9-9-9-9-9-9-9-9-9-7-7-7-7--|
Ab|-5---5-5-5-5-5-5-7---7-7-7-7-7-7-|-9---9-9-9-9-9-9-9-9-9-9-5-5-5-5--|
Eb|-3---3-3-3-3-3-3-5---5-5-5-5-5-5-|-7---7-7-7-7-7-7-7-7-7-7----------|
    1 + + + 2 + + + 3 + + + 4 + + +   1 + + + 2 + + + 3 + + + 4 + + + 

eb|---------------------------------|----------------------------------|
Bb|---------------------------------|----------------------------------|
Gb|---------------------------------|-------------------------7-7-7-7--|
Db|-5---5-5-5-5-5-5-7---7-7-7-7-7-7-|-9---9-9-9-9-9-9-9-9-9-9-7-7-7-7--|
Ab|-5---5-5-5-5-5-5-7---7-7-7-7-7-7-|-9---9-9-9-9-9-9-9-9-9-9-5-5-5-5--|
Eb|-3---3-3-3-3-3-3-5---5-5-5-5-5-5-|-7---7-7-7-7-7-7-7-7-7-7----------|
    1 + + + 2 + + + 3 + + + 4 + + +   1 + + + 2 + + + 3 + + + 4 + + + 

eb|---------------------------------|---------------------------------|
Bb|---------------------------------|---------------------------------|
Gb|---------------------------------|---------------------------------|
Db|-5---5-5-5-5-5-5-7---7-7-7-7-7-7-|-9-9-9-9-9-9-9-9-9---------------|
Ab|-5---5-5-5-5-5-5-7---7-7-7-7-7-7-|-9-9-9-9-9-9-9-9-9---------------|
Eb|-3---3-3-3-3-3-3-5---5-5-5-5-5-5-|-7-7-7-7-7-7-7-7-7---------------|
    1 + + + 2 + + + 3 + + + 4 + + +   1 + + + 2 + + + 3 + + + 4 + + +    

BRIDGE

eb|---------------------------------|----------------------------------|
Bb|---------------------------------|----------------------------------|
Gb|---------------------------------|----------------------------------|
Db|-5-5-5-5-5---------------7-7-7-7-|-5-5-5-5-5---------------7-7-7-7--|
Ab|-5-5-5-5-5---------------7-7-7-7-|-5-5-5-5-5---------------7-7-7-7--|
Eb|-3-3-3-3-3---------------5-5-5-5-|-3-3-3-3-3---------------5-5-5-5--|
    1 + + + 2 + + + 3 + + + 4 + + +   1 + + + 2 + + + 3 + + + 4 + + + 

eb|---------------------------------|----------------------------------|
Bb|---------------------------------|----------------------------------|
Gb|---------------------------------|----------------------------------|
Db|-9-9-9-9-9-9-9-9-9-9-9-9-9-7-7-7-|-9-9-9-9-9-9-9-9-9-9-9-9-9-7-7-7--|
Ab|-9-9-9-9-9-9-9-9-9-9-9-9-9-7-7-7-|-9-9-9-9-9-9-9-9-9-9-9-9-9-7-7-7--|
Eb|-7-7-7-7-7-7-7-7-7-7-7-7-7-5-5-5-|-7-7-7-7-7-7-7-7-7-7-7-7-7-5-5-5--|
    1 + + + 2 + + + 3 + + + 4 + + +   1 + + + 2 + + + 3 + + + 4 + + + 

eb|---------------------------------|----------------------------------|
Bb|---------------------------------|----------------------------------|
Gb|---------------------------------|----------------------------------|
Db|-5-5-5-5-5---------------7-7-7-7-|-5-5-5-5-5---------------7-7-7-7--|
Ab|-5-5-5-5-5---------------7-7-7-7-|-5-5-5-5-5---------------7-7-7-7--|
Eb|-3-3-3-3-3---------------5-5-5-5-|-3-3-3-3-3---------------5-5-5-5--|
    1 + + + 2 + + + 3 + + + 4 + + +   1 + + + 2 + + + 3 + + + 4 + + + 

eb|---------------------------------|----------------------------------|
Bb|---------------------------------|----------------------------------|
Gb|---------------------------------|----------------------------------|
Db|-9-9-9-9-9-9-9-9-9-9-9-9-9-7-7-7-|-9-9-9-9-9-9-9-9-9-9-9-9-9-7-7-7--|
Ab|-9-9-9-9-9-9-9-9-9-9-9-9-9-7-7-7-|-9-9-9-9-9-9-9-9-9-9-9-9-9-7-7-7--|
Eb|-7-7-7-7-7-7-7-7-7-7-7-7-7-5-5-5-|-7-7-7-7-7-7-7-7-7-7-7-7-7-5-5-5--|
    1 + + + 2 + + + 3 + + + 4 + + +   1 + + + 2 + + + 3 + + + 4 + + + 

eb|---------------------------------|----------------------------------|
Bb|---------------------------------|----------------------------------|
Gb|---------------------------------|----------------------------------|
Db|-5-5-5-5-5---------------7-7-7-7-|-5-5-5-5-5---------------7-7-7-7--|
Ab|-5-5-5-5-5---------------7-7-7-7-|-5-5-5-5-5---------------7-7-7-7--|
Eb|-3-3-3-3-3---------------5-5-5-5-|-3-3-3-3-3---------------5-5-5-5--|
    1 + + + 2 + + + 3 + + + 4 + + +   1 + + + 2 + + + 3 + + + 4 + + + 

eb|---------------------------------|----------------------------------|
Bb|---------------------------------|----------------------------------|
Gb|---------------------------------|----------------------------------|
Db|-9-9-9-9-9-9-9-9-9-9-9-9-9-7-7-7-|-9-9-9-9-9-9-9-9-9-9-9-9-9-7-7-7--|
Ab|-9-9-9-9-9-9-9-9-9-9-9-9-9-7-7-7-|-9-9-9-9-9-9-9-9-9-9-9-9-9-7-7-7--|
Eb|-7-7-7-7-7-7-7-7-7-7-7-7-7-5-5-5-|-7-7-7-7-7-7-7-7-7-7-7-7-7-5-5-5--|
    1 + + + 2 + + + 3 + + + 4 + + +   1 + + + 2 + + + 3 + + + 4 + + + 

CHORUS

eb|---------------------------------|----------------------------------|
Bb|---------------------------------|----------------------------------|
Gb|---------------------------------|-------------------------7-7-7-7--|
Db|-5---5-5-5-5-5-5-7---7-7-7-7-7-7-|-9---9-9-9-9-9-9-9-9-9-9-7-7-7-7--|
Ab|-5---5-5-5-5-5-5-7---7-7-7-7-7-7-|-9---9-9-9-9-9-9-9-9-9-9-5-5-5-5--|
Eb|-3---3-3-3-3-3-3-5---5-5-5-5-5-5-|-7---7-7-7-7-7-7-7-7-7-7----------|
    1 + + + 2 + + + 3 + + + 4 + + +   1 + + + 2 + + + 3 + + + 4 + + + 

eb|---------------------------------|----------------------------------|
Bb|---------------------------------|----------------------------------|
Gb|---------------------------------|----------------------------------|
Db|-5---5-5-5-5-5-5-7---7-7-7-7-7-7-|-9---9-9-9-9-9-9-9----------------|
Ab|-5---5-5-5-5-5-5-7---7-7-7-7-7-7-|-9---9-9-9-9-9-9-9----------------|
Eb|-3---3-3-3-3-3-3-5---5-5-5-5-5-5-|-7---7-7-7-7-7-7-7----------------|
    1 + + + 2 + + + 3 + + + 4 + + +   1 + + + 2 + + + 3 + + + 4 + + + 

eb|---------------------------------|----------------------------------|
Bb|---------------------------------|----------------------------------|
Gb|---------------------------------|-------------------------7-7-7-7--|
Db|-5---5-5-5-5-5-5-7---7-7-7-7-7-7-|-9---9-9-9-9-9-9-9-9-9-9-7-7-7-7--|
Ab|-5---5-5-5-5-5-5-7---7-7-7-7-7-7-|-9---9-9-9-9-9-9-9-9-9-9-5-5-5-5--|
Eb|-3---3-3-3-3-3-3-5---5-5-5-5-5-5-|-7---7-7-7-7-7-7-7-7-7-7----------|
    1 + + + 2 + + + 3 + + + 4 + + +   1 + + + 2 + + + 3 + + + 4 + + + 

eb|---------------------------------|----------------------------------|
Bb|---------------------------------|----------------------------------|
Gb|---------------------------------|-------------------------7-7-7-7--|
Db|-5---5-5-5-5-5-5-7---7-7-7-7-7-7-|-9---9-9-9-9-9-9-9-9-9-9-7-7-7-7--|
Ab|-5---5-5-5-5-5-5-7---7-7-7-7-7-7-|-9---9-9-9-9-9-9-9-9-9-9-5-5-5-5--|
Eb|-3---3-3-3-3-3-3-5---5-5-5-5-5-5-|-7---7-7-7-7-7-7-7-7-7-7----------|
    1 + + + 2 + + + 3 + + + 4 + + +   1 + + + 2 + + + 3 + + + 4 + + + 

eb|---------------------------------|----------------------------------|
Bb|---------------------------------|----------------------------------|
Gb|---------------------------------|-------------------------7-7-7-7--|
Db|-5---5-5-5-5-5-5-7---7-7-7-7-7-7-|-9---9-9-9-9-9-9-9-9-9-9-7-7-7-7--|
Ab|-5---5-5-5-5-5-5-7---7-7-7-7-7-7-|-9---9-9-9-9-9-9-9-9-9-9-5-5-5-5--|
Eb|-3---3-3-3-3-3-3-5---5-5-5-5-5-5-|-7---7-7-7-7-7-7-7-7-7-7----------|
    1 + + + 2 + + + 3 + + + 4 + + +   1 + + + 2 + + + 3 + + + 4 + + + 

eb|---------------------------------|----------------------------------|
Bb|---------------------------------|----------------------------------|
Gb|---------------------------------|-------------------------7-7-7-7--|
Db|-5---5-5-5-5-5-5-7---7-7-7-7-7-7-|-9---9-9-9-9-9-9-9-9-9-9-7-7-7-7--|
Ab|-5---5-5-5-5-5-5-7---7-7-7-7-7-7-|-9---9-9-9-9-9-9-9-9-9-9-5-5-5-5--|
Eb|-3---3-3-3-3-3-3-5---5-5-5-5-5-5-|-7---7-7-7-7-7-7-7-7-7-7----------|
    1 + + + 2 + + + 3 + + + 4 + + +   1 + + + 2 + + + 3 + + + 4 + + + 

eb|---------------------------------|----------------------------------|
Bb|---------------------------------|----------------------------------|
Gb|---------------------------------|-------------------------7-7-7-7--|
Db|-5---5-5-5-5-5-5-7---7-7-7-7-7-7-|-9---9-9-9-9-9-9-9-9-9-9-7-7-7-7--|
Ab|-5---5-5-5-5-5-5-7---7-7-7-7-7-7-|-9---9-9-9-9-9-9-9-9-9-9-5-5-5-5--|
Eb|-3---3-3-3-3-3-3-5---5-5-5-5-5-5-|-7---7-7-7-7-7-7-7-7-7-7----------|
    1 + + + 2 + + + 3 + + + 4 + + +   1 + + + 2 + + + 3 + + + 4 + + + 

eb|---------------------------------|----------------------------------||
Bb|---------------------------------|----------------------------------||
Gb|---------------------------------|----------------------------------||
Db|-5---5-5-5-5-5-5-7---7-7-7-7-7-7-|-9--------------------------------||
Ab|-5---5-5-5-5-5-5-7---7-7-7-7-7-7-|-9--------------------------------||
Eb|-3---3-3-3-3-3-3-5---5-5-5-5-5-5-|-7--------------------------------||
    1 + + + 2 + + + 3 + + + 4 + + +   1 + + + 2 + + + 3 + + + 4 + + +



GUITAR TWO

eb|---------------------------------|----------------------------------|
Bb|---------------------------------|----------------------------------|
Gb|---------------------------------|----------------------------------|
Db|---------------------------------|----------------------------------|
Ab|---------------------------------|----------------------------------|
Eb|---------------------------------|----------------------------------|
    1 + + + 2 + + + 3 + + + 4 + + +   1 + + + 2 + + + 3 + + + 4 + + +

eb|---------------------------------|----------------------------------|
Bb|---------------------------------|----------------------------------|
Gb|---------------------------------|----------------------------------|
Db|---------------------------------|----------------------------------|
Ab|---------------------------------|----------------------------------|
Eb|---------------------------------|----------------------------------|
    1 + + + 2 + + + 3 + + + 4 + + +   1 + + + 2 + + + 3 + + + 4 + + +

eb|---------------------------------|----------------------------------|
Bb|---------------10----------------|---------------10-----------------|
Gb|-----9/11\9--------11--9---11----|-----9/11\9--------11--9---11-----|
Db|-9-12------12-9------12----------|-9-12------12-9------12-----------|
Ab|---------------------------------|----------------------------------|
Eb|---------------------------------|----------------------------------|
    1 + + + 2 + + + 3 + + + 4 + + +   1 + + + 2 + + + 3 + + + 4 + + +

eb|---------------------------------|--------------------------------------------|
Bb|---------------10----------------|--------------------------------------------|
Gb|-----9/11\9--------11--9---11----|-7/9--9--9--9-\-7-7-7-7/9--9--9--9-\-7-7-7--|
Db|-9-12------12-9------12----------|-9/11-11-11-11\-9-9-9-9/11-11-11-11\-9-9-9--|
Ab|---------------------------------|--------------------------------------------|
Eb|---------------------------------|--------------------------------------------|
    1 + + + 2 + + + 3 + + + 4 + + +   1 +  +  +  2   + + + 3 +  +  +  4   + + +  

VERSE

eb|---------------------------------|----------------------------------|
Bb|---------------------------------|----------------------------------|
Gb|-7-------------------------------|----------------------------------|
Db|-9-------------------------------|----------------------------------|
Ab|---------------------------------|----------------------------------|
Eb|---------------------------------|----------------------------------|
    1 + + + 2 + + + 3 + + + 4 + + +   1 + + + 2 + + + 3 + + + 4 + + +

eb|---------------------------------|----------------------------------|
Bb|---------------------------------|----------------------------------|
Gb|---------------------------------|-----------------------------6----|
Db|---------------------------------|----------------------------------|
Ab|---------------------------------|----------------------------------|
Eb|---------------------------------|----------------------------------|
    1 + + + 2 + + + 3 + + + 4 + + +   1 + + + 2 + + + 3 + + + 4 + + +

eb|---------------------------------|----------------------------------|
Bb|---------------------------------|----------------------------------|
Gb|-7~----------------------6h7p6---|-----------------------------6----|
Db|-------------------------------7~|----------------------------------|
Ab|---------------------------------|----------------------------------|
Eb|---------------------------------|----------------------------------|
    1 + + + 2 + + + 3 + + + 4 + + +   1 + + + 2 + + + 3 + + + 4 + + +

eb|---------------------------------|----------------------------------|
Bb|---------------------------------|----------------------------------|
Gb|-7~----------------------6h7p6---|----------------------------------|
Db|-------------------------------7-|-----9~---------------------------|
Ab|---------------------------------|----------------------------------|
Eb|---------------------------------|----------------------------------|
    1 + + + 2 + + + 3 + + + 4 + + +   1 + + + 2 + + + 3 + + + 4 + + +

PRE-CHORUS

eb|---------------------------------|----------------------------------|
Bb|---------------10----------------|---------------10-----------------|
Gb|-----9/11\9--------11--9---11----|-----9/11\9--------11--9---11-----|
Db|-9-12------12-9------12----------|-9-12------12-9------12-----------|
Ab|---------------------------------|----------------------------------|
Eb|---------------------------------|----------------------------------|
    1 + + + 2 + + + 3 + + + 4 + + +   1 + + + 2 + + + 3 + + + 4 + + +

eb|---------------------------------|--------------------------------------------|
Bb|---------------10----------------|--------------------------------------------|
Gb|-----9/11\9--------11--9---11----|-7/9--9--9--9-\-7-7-7-7/9--9--9--6h7p6------|
Db|-9-12------12-9------12----------|-9/11-11-11-11\-9-9-9-9/11-11-11-------7----|
Ab|---------------------------------|--------------------------------------------|
Eb|---------------------------------|--------------------------------------------|
    1 + + + 2 + + + 3 + + + 4 + + +   1 +  +  +  2   + + + 3 +  +  +  4  +  + +  

eb|---------------------------------|
Bb|---------------------------------|
Gb|---------------------------------|
Db|-9~--------------9---------------|
Ab|-------------------PICKSCRAPE----|
Eb|-------------------PICKSCRAPE----|
    1 + + + 2 + + + 3 + + + 4 + + +  

CHORUS

eb|---------------------------------|----------------------------------|
Bb|---------------------------------|----------------------------------|
Gb|---------------------------------|-------------------------7-7-7-7--|
Db|-5---5-5-5-5-5-5-7---7-7-7-7-7-7-|-9---9-9-9-9-9-9-9-9-9-9-7-7-7-7--|
Ab|-5---5-5-5-5-5-5-7---7-7-7-7-7-7-|-9---9-9-9-9-9-9-9-9-9-9-5-5-5-5--|
Eb|-3---3-3-3-3-3-3-5---5-5-5-5-5-5-|-7---7-7-7-7-7-7-7-7-7-7----------|
    1 + + + 2 + + + 3 + + + 4 + + +   1 + + + 2 + + + 3 + + + 4 + + + 

eb|---------------------------------|----------------------------------|
Bb|---------------------------------|----------------------------------|
Gb|---------------------------------|-------------------------7-7-7-7--|
Db|-5---5-5-5-5-5-5-7---7-7-7-7-7-7-|-9---9-9-9-9-9-9-9-9-9-9-7-7-7-7--|
Ab|-5---5-5-5-5-5-5-7---7-7-7-7-7-7-|-9---9-9-9-9-9-9-9-9-9-9-5-5-5-5--|
Eb|-3---3-3-3-3-3-3-5---5-5-5-5-5-5-|-7---7-7-7-7-7-7-7-7-7-7----------|
    1 + + + 2 + + + 3 + + + 4 + + +   1 + + + 2 + + + 3 + + + 4 + + + 

eb|---------------------------------|----------------------------------|
Bb|---------------------------------|----------------------------------|
Gb|-7-----6-----4---7-7---6-----4---|-7-7---6-----5---6-7-6-4----------|
Db|---------------------------------|----------------------------------|
Ab|-5-----4-----2---5-5---4-----2---|-5-5---4-----2---4-5-4-2----------|
Eb|---------------------------------|----------------------------------|
    1 + + + 2 + + + 3 + + + 4 + + +   1 + + + 2 + + + 3 + + + 4 + + +

eb|---------------------------------|
Bb|---------------------------------|
Gb|-7-----6-----4---7-7---6-----4---|
Db|---------------------------------|
Ab|-5-----4-----2---5-5---4-----2---|
Eb|---------------------------------|
    1 + + + 2 + + + 3 + + + 4 + + +  

VERSE 

eb|---------------------------------|----------------------------------|
Bb|---------------------------------|----------------------------------|
Gb|-4~------------------------------|-----------------------------6----|
Db|-4~------------------------------|----------------------------------|
Ab|-2~------------------------------|-----------------------------4----|
Eb|---------------------------------|----------------------------------|
    1 + + + 2 + + + 3 + + + 4 + + +   1 + + + 2 + + + 3 + + + 4 + + + 

eb|---------------------------------|----------------------------------|
Bb|---------------------------------|----------------------------------|
Gb|-7---------------6-------7-------|-9--------------------------------|
Db|---------------------------------|----------------------------------|
Ab|-5---------------4-------5-------|-7--------------------------------|
Eb|---------------------------------|----------------------------------|
    1 + + + 2 + + + 3 + + + 4 + + +   1 + + + 2 + + + 3 + + + 4 + + + 

eb|---------------------------------|----------------------------------|
Bb|-10----10--------10----10--------|-10----10--------12----12---------|
Gb|---11------11------11------11----|---11------11------11------11-----|
Db|-----12------1212----12------1212|-----12------1212----12------1212-|
Ab|---------------------------------|----------------------------------|
Eb|---------------------------------|----------------------------------|
    1 + + + 2 + + + 3 + + + 4 + + +   1 + + + 2 + + + 3 + + + 4 + + + 
      [PM]    [ PM ]  [PM]    [ PM ]    [PM]    [ PM ]  [PM]    [ PM ]

eb|---------------------------------|----------------------------------|
Bb|-10----10--------10----10--------|-10----10--------12----12---------|
Gb|---11------11------11------11----|---11------11------11------11-----|
Db|-----12------1212----12------1212|-----12------1212----12------1212-|
Ab|---------------------------------|----------------------------------|
Eb|---------------------------------|----------------------------------|
    1 + + + 2 + + + 3 + + + 4 + + +   1 + + + 2 + + + 3 + + + 4 + + + 
      [PM]    [ PM ]  [PM]    [ PM ]    [PM]    [ PM ]  [PM]    [ PM ]  
        
eb|---------------------------------|
Bb|---------------------------------|
Gb|---------------------------------|
Db|-9-9-9-9-9-9-9-9-9---------------|
Ab|-9-9-9-9-9-9-9-9-9-PICKSCRAPE----|
Eb|-7-7-7-7-7-7-7-7-7-PICKSCRAPE----|
    1 + + + 2 + + + 3 + + + 4 + + +  

CHORUS

eb|---------------------------------|----------------------------------|
Bb|---------------------------------|----------------------------------|
Gb|---------------------------------|-------------------------7-7-7-7--|
Db|-5---5-5-5-5-5-5-7---7-7-7-7-7-7-|-9---9-9-9-9-9-9-9-9-9-9-7-7-7-7--|
Ab|-5---5-5-5-5-5-5-7---7-7-7-7-7-7-|-9---9-9-9-9-9-9-9-9-9-9-5-5-5-5--|
Eb|-3---3-3-3-3-3-3-5---5-5-5-5-5-5-|-7---7-7-7-7-7-7-7-7-7-7----------|
    1 + + + 2 + + + 3 + + + 4 + + +   1 + + + 2 + + + 3 + + + 4 + + + 

eb|---------------------------------|----------------------------------|
Bb|---------------------------------|----------------------------------|
Gb|---------------------------------|-------------------------7-7-7-7--|
Db|-5---5-5-5-5-5-5-7---7-7-7-7-7-7-|-9---9-9-9-9-9-9-9-9-9-9-7-7-7-7--|
Ab|-5---5-5-5-5-5-5-7---7-7-7-7-7-7-|-9---9-9-9-9-9-9-9-9-9-9-5-5-5-5--|
Eb|-3---3-3-3-3-3-3-5---5-5-5-5-5-5-|-7---7-7-7-7-7-7-7-7-7-7----------|
    1 + + + 2 + + + 3 + + + 4 + + +   1 + + + 2 + + + 3 + + + 4 + + + 

eb|---------------------------------|----------------------------------|
Bb|---------------------------------|----------------------------------|
Gb|-7-----6-----4---7-7---6-----4---|-7-7---6-----5---6-7-6-4----------|
Db|---------------------------------|----------------------------------|
Ab|-5-----4-----2---5-5---4-----2---|-5-5---4-----2---4-5-4-2----------|
Eb|---------------------------------|----------------------------------|
    1 + + + 2 + + + 3 + + + 4 + + +   1 + + + 2 + + + 3 + + + 4 + + +

eb|---------------------------------|---------------------------------|
Bb|---------------------------------|---------------------------------|
Gb|-7-----6-----4---7-7---6-----4---|-4-4-4-4-4-4-4-4-4---------------|
Db|---------------------------------|---------------------------------|
Ab|-5-----4-----2---5-5---4-----2---|-2-2-2-2-2-2-2-2-2---------------|
Eb|---------------------------------|---------------------------------|
    1 + + + 2 + + + 3 + + + 4 + + +   1 + + + 2 + + + 3 + + + 4 + + +  

BRIDGE

eb|---------------------------------|----------------------------------|
Bb|-10--10--10--10--10--10--10--10--|-10--10--10--10--10--10--10--10---|
Gb|---11--11--11--11--11--11--11--11|---11--11--11--11--11--11--11--11-|
Db|---------------------------------|----------------------------------|
Ab|---------------------------------|----------------------------------|
Eb|---------------------------------|----------------------------------|
    1 + + + 2 + + + 3 + + + 4 + + +   1 + + + 2 + + + 3 + + + 4 + + +

eb|-9---9---10--10--9---9---10--10--|-9---9---10--10--9---9---10--10---|
Bb|---10--10--10--10--10--10--10--10|---10--10--10--10--10--10--10--10-|
Gb|---------------------------------|----------------------------------|
Db|---------------------------------|----------------------------------|
Ab|---------------------------------|----------------------------------|
Eb|---------------------------------|----------------------------------|
    1 + + + 2 + + + 3 + + + 4 + + +   1 + + + 2 + + + 3 + + + 4 + + +

eb|---------------------------------|----------------------------------|
Bb|---------------------------------|----------------------------------|
Gb|---------------------------------|----------------------------------|
Db|-5-5-5-5-5---------------7-7-7-7-|-5-5-5-5-5---------------7-7-7-7--|
Ab|-5-5-5-5-5---------------7-7-7-7-|-5-5-5-5-5---------------7-7-7-7--|
Eb|-3-3-3-3-3---------------5-5-5-5-|-3-3-3-3-3---------------5-5-5-5--|
    1 + + + 2 + + + 3 + + + 4 + + +   1 + + + 2 + + + 3 + + + 4 + + + 

eb|---------------------------------|----------------------------------|
Bb|---------------------------------|----------------------------------|
Gb|---------------------------------|----------------------------------|
Db|-9-9-9-9-9-9-9-9-9-9-9-9-9-7-7-7-|-9-9-9-9-9-9-9-9-9-9-9-9-9-7-7-7--|
Ab|-9-9-9-9-9-9-9-9-9-9-9-9-9-7-7-7-|-9-9-9-9-9-9-9-9-9-9-9-9-9-7-7-7--|
Eb|-7-7-7-7-7-7-7-7-7-7-7-7-7-5-5-5-|-7-7-7-7-7-7-7-7-7-7-7-7-7-5-5-5--|
    1 + + + 2 + + + 3 + + + 4 + + +   1 + + + 2 + + + 3 + + + 4 + + + 

eb|---------------------------------|----------------------------------|
Bb|---------------------------------|----------------------------------|
Gb|---------------------------------|----------------------------------|
Db|-5-5-5-5-5---------------7-7-7-7-|-5-5-5-5-5---------------7-7-7-7--|
Ab|-5-5-5-5-5---------------7-7-7-7-|-5-5-5-5-5---------------7-7-7-7--|
Eb|-3-3-3-3-3---------------5-5-5-5-|-3-3-3-3-3---------------5-5-5-5--|
    1 + + + 2 + + + 3 + + + 4 + + +   1 + + + 2 + + + 3 + + + 4 + + + 

eb|---------------------------------|----------------------------------|
Bb|---------------------------------|----------------------------------|
Gb|---------------------------------|----------------------------------|
Db|-9-9-9-9-9-9-9-9-9-9-9-9-9-7-7-7-|-9-9-9-9-9-9-9-9-9-9-9-9-9-7-7-7--|
Ab|-9-9-9-9-9-9-9-9-9-9-9-9-9-7-7-7-|-9-9-9-9-9-9-9-9-9-9-9-9-9-7-7-7--|
Eb|-7-7-7-7-7-7-7-7-7-7-7-7-7-5-5-5-|-7-7-7-7-7-7-7-7-7-7-7-7-7-5-5-5--|
    1 + + + 2 + + + 3 + + + 4 + + +   1 + + + 2 + + + 3 + + + 4 + + + 

CHORUS

eb|---------------------------------|----------------------------------|
Bb|---------------------------------|----------------------------------|
Gb|---------------------------------|----------------------------------|
Db|-5-------------------------------|----------------------------------|
Ab|-5-------------------------------|----------------------------------|
Eb|-3-------------------------------|----------------------------------|
    1 + + + 2 + + + 3 + + + 4 + + +   1 + + + 2 + + + 3 + + + 4 + + + 

eb|---------------------------------|----------------------------------|
Bb|---------------------------------|----------------------------------|
Gb|---------------------------------|----------------------------------|
Db|---------------------------------|----------------------------------|
Ab|---------------------------------|----------------------------------|
Eb|---------------------------------|----------------------------------|
    1 + + + 2 + + + 3 + + + 4 + + +   1 + + + 2 + + + 3 + + + 4 + + + 

eb|---------------------------------|----------------------------------|
Bb|---------------------------------|----------------------------------|
Gb|-7-----6-----4---7-7---6-----4---|-7-7---6-----5---6-7-6-4----------|
Db|---------------------------------|----------------------------------|
Ab|-5-----4-----2---5-5---4-----2---|-5-5---4-----2---4-5-4-2----------|
Eb|---------------------------------|----------------------------------|
    1 + + + 2 + + + 3 + + + 4 + + +   1 + + + 2 + + + 3 + + + 4 + + +

eb|---------------------------------|---------------------------------|
Bb|---------------------------------|---------------------------------|
Gb|-7-----6-----4---7-7---6-----4---|-4-4-4-4-4-4-4-4-4-4-4-4-4-4-4-4-|
Db|---------------------------------|---------------------------------|
Ab|-5-----4-----2---5-5---4-----2---|-2-2-2-2-2-2-2-2-2-2-2-2-2-2-2-2-|
Eb|---------------------------------|---------------------------------|
    1 + + + 2 + + + 3 + + + 4 + + +   1 + + + 2 + + + 3 + + + 4 + + +  

eb|---------------------------------|----------------------------------|
Bb|---------------10----------------|---------------10-----------------|
Gb|-----9/11\9--------11--9---11----|-----9/11\9--------11--9---11-----|
Db|-9-12------12-9------12----------|-9-12------12-9------12-----------|
Ab|---------------------------------|----------------------------------|
Eb|---------------------------------|----------------------------------|
    1 + + + 2 + + + 3 + + + 4 + + +   1 + + + 2 + + + 3 + + + 4 + + +

eb|---------------------------------|--------------------------------------------|
Bb|---------------10----------------|--------------------------------------------|
Gb|-----9/11\9--------11--9---11----|-7/9--9--9--9-\-7-7-7-7/9--9--9--9-\-7-7-7--|
Db|-9-12------12-9------12----------|-9/11-11-11-11\-9-9-9-9/11-11-11-11\-9-9-9--|
Ab|---------------------------------|--------------------------------------------|
Eb|---------------------------------|--------------------------------------------|
    1 + + + 2 + + + 3 + + + 4 + + +   1 +  +  +  2   + + + 3 +  +  +  4   + + +  

eb|---------------------------------|----------------------------------|
Bb|---------------------------------|----------------------------------|
Gb|-7-----6---------9-----7---------|-----------------5-6-5-2----------|
Db|---------------------------------|-7-----9--------------------------|
Ab|-5-----4---------7-----5---------|-----------------4-5-4-0----------|
Eb|---------------------------------|-5-----7--------------------------|
    1 + + + 2 + + + 3 + + + 4 + + +   1 + + + 2 + + + 3 + + + 4 + + + 

eb|-----------------------------------------------------------------|
Bb|-12p10---12p10---12p10---12p10---12------10------12------10------|
Gb|-------11------11------11------11--------------------------------|
Db|-----------------------------------------------------------------|
Ab|-----------------------------------------------------------------|
Eb|-----------------------------------------------------------------|
    1   +   +   +   2   +   +   +   3   +   +   +   4   +   +   +  

eb|---------------------------------||
Bb|-12------------------------------||
Gb|---------------------------------||
Db|---------------------------------||
Ab|---------------------------------||
Eb|---------------------------------||
    1 + + + 2 + + + 3 + + + 4 + + +  

| /  slide up
| \  slide down
| h  hammer-on
| p  pull-off
| ~  hold note
| +  harmonic
| x  Mute note
===============================================================================
1 comment total.
0 reply
Knightmare444 wrote on January 25 2009, 10:11 pm

Amazing tab. 5*****

I want to post or [tab]
guest
You may want to rate the tab now too:
select rating
Please do not post tabs as comments. Select "correction" instead!