Oops, an error
Loading. Please wait.

Broken Mirrors Tab

ver1
ver1

Whole song

More versions @911Tabs.com
16,587 views 24 this week
3 commentsread comments
1 2 3 4 5
accurate
x 15
Autoscroll
+/-
esc
set tempo
stop
Contributor
Difficulty
Tuning
intermediate
D# G# C# F# A# D#
WARNING: You are trying to view
                                    content from Ultimate-Guitar.com
                                    in an unauthorized application,
                                    which is prohibited.

                                    Please use an official Ultimate
                                    Guitar Tabs application for iPhone,
                                    iPad or Android to access legitimate
                                    chords, guitar, bass, and drum tabs
                                    from Ultimate-Guitar.com database.

                                    Type "ultimate guitar tabs" in Apple
                                    App Store's or Android Market's
                                    search to find the application.

Broken Mirrors - Rise Against
Album: Endgame


Tabbed by:  N.A.B.

Tuning: Half-Step Down (Eb)

Guitar Parts 1 and 2 included.

Probably some mistakes, but it was done in a short amount of time.

-Guitar 1 Part- tone: clean - time: 0:00-----------------|
eb|------------------------------------------------------|
Bb|------------------------------------------------------|
Gb|------------------------------------------------------|
Db|-----------------2-----------------2------------------|  x2
Ab|----------0-h-2--2-2--------0-h-2--2-2----------------|
Eb|----3-2-0-0--(0)-0-0--3-2-0-0--(0)-0-0----------------|
       * * *             * * *
tone: distortion
eb|--------------------------------------------------|
Bb|--------------------------------------------------|
Gb|--------------------------------------------------|
Db|----------2-----------------2---------------------|  x4
Ab|---0-h-2--2-2--------0-h-2--2-2-------------------|
Eb|---0--(0)-0-0--3-2-0-0--(0)-0-0--3-2-0------------|
                  * * *             * * *
eb|--------------------------------------------------|
Bb|--------------------------------------------------|
Gb|----------9-------------------9-------------------|
Db|---7-h-9--9-9----------7-h-9--9-9-----------------|  x4
Ab|---7--(7)-7-7--10-9-7--7--(7)-7-7--10-9-7---------|
Eb|--------------------------------------------------|
                  *  * *              *  * *
time: 0:36
eb|--------------------------------------------------|
Bb|--------------------------------------------------|
Gb|--------------------------------------------------|
Db|--5-5-5-5-5-5-5-5-5-5-5-5-7-7-7-7-7-7-7-7-7-7-7-7-|
Ab|--5-5-5-5-5-5-5-5-5-5-5-5-7-7-7-7-7-7-7-7-7-7-7-7-|
Eb|--3-3-3-3-3-3-3-3-3-3-3-3-5-5-5-5-5-5-5-5-5-5-5-5-|

eb|--------------------------------------------------|
Bb|--------------------------------------------------|
Gb|--------------------------------------------------|
Db|--------------------------------------------------|
Ab|--------------------------------------------------|
Eb|---0-0--3-3-3-3--0-0--5-5-5-5---------------------|

eb|--------------------------------------------------|
Bb|--------------------------------------------------|
Gb|--------------------------------------------------|
Db|--5-5-5-5-5-5-5-5-5-5-5-5-7-7-7-7-7-7-7-7-7-7-7-7-|
Ab|--5-5-5-5-5-5-5-5-5-5-5-5-7-7-7-7-7-7-7-7-7-7-7-7-|
Eb|--3-3-3-3-3-3-3-3-3-3-3-3-5-5-5-5-5-5-5-5-5-5-5-5-|

eb|--------------------------------------------------|
Bb|--------------------------------------------------|
Gb|--------------------------------------------------|
Db|--2-(2)-------------------------------------------|
Ab|--2-(2)-----------------x\\\\\\\\\\\\\\\\\\\\\\---|
Eb|--0-(0)-----------------x\\\\\\\\\\\\\\\\\\\\\\---|

Chorus start - time: 0:49
eb|-------------------------------------------------------------------------|
Bb|-------------------------------------------------------------------------|
Gb|-9-9-9-9-9-9-9-9-7-7-7-7-7-7-7-7-12-12-12-12-12-12-12-12-----------------|
Db|-9-9-9-9-9-9-9-9-7-7-7-7-7-7-7-7-12-12-12-12-12-12-12-12-5-5-5-5-5-5-5-5-|
Ab|-7-7-7-7-7-7-7-7-5-5-5-5-5-5-5-5-10-10-10-10-10-10-10-10-5-5-5-5-5-5-5-5-|
Eb|---------------------------------------------------------3-3-3-3-3-3-3-3-|

eb|---------------------------------|
Bb|---------------------------------|
Gb|-9-9-9-9-9-9-9-9-7-7-7-7-7-7-7-7-|
Db|-9-9-9-9-9-9-9-9-7-7-7-7-7-7-7-7-|
Ab|-7-7-7-7-7-7-7-7-5-5-5-5-5-5-5-5-|
Eb|---------------------------------|

eb|------------------------------------------|
Bb|------------------------------------------|
Gb|-----------------7-7-7-7-7-7-7-7----------|
Db|-5-5-5-5-5-5-5-5-7-7-7-7-7-7-7-7----------|  replay from chorus start and
Ab|-5-5-5-5-5-5-5-5-5-5-5-5-5-5-5-5----------|  play tab below instead of
Eb|-3-3-3-3-3-3-3-3--------------------------|  adjacent part on second time

eb|------------------------------------------|
Bb|------------------------------------------|
Gb|------------------12-12-12-12--7-7-7-7-7--|
Db|-5-5-5-5-5-5-5-5--12-12-12-12--7-7-7-7-7--|
Ab|-5-5-5-5-5-5-5-5--10-10-10-10--5-5-5-5-5--|
Eb|-3-3-3-3-3-3-3-3--------------------------|

tone: clean - time 1:15
eb|--------------------------------------------------|
Bb|--------------------------------------------------|
Gb|--------------------------------------------------|
Db|----------2-----------------2---------------------|
Ab|---0-h-2--2-2--------0-h-2--2-2-------------------|
Eb|---0--(0)-0-0--3-2-0-0--(0)-0-0-------------------|
                  * * *
tone: distortion
eb|--------------------------------------------------|
Bb|--------------------------------------------------|
Gb|--------------------------------------------------|
Db|----------2-----------------2---------------------|  x2
Ab|---0-h-2--2-2--------0-h-2--2-2-------------------|
Eb|---0--(0)-0-0--3-2-0-0--(0)-0-0--3-2-0------------|
                  * * *             * * *
eb|--------------------------------------------------|
Bb|--------------------------------------------------|
Gb|-4/9------------------(9)-------------------------|
Db|-x/x------------------(x)-------------------------|
Ab|-2/7------------------(7)-------------------------|
Eb|--------------------------------------------------|

eb|--------------------------------------------------|
Bb|--------------------------------------------------|
Gb|-(9)------------------(9)-------------------------|
Db|-(x)------------------(x)-------------------------|
Ab|-(7)------------------(7)-------------------------|
Eb|--------------------------------------------------|

time: 1:32
eb|--------------------------------------------------|
Bb|--------------------------------------------------|
Gb|----------9-------------------9-------------------|
Db|---7-h-9--9-9----------7-h-9--9-9-----------------|  x2
Ab|---7--(7)-7-7--10-9-7--7--(7)-7-7--10-9-7---------|
Eb|--------------------------------------------------|
                  *  * *              *  * *
eb|--------------------------------------------------|
Bb|--------------------------------------------------|
Gb|--------------------------------------------------|
Db|--5-5-5-5-5-5-5-5-5-5-5-5-7-7-7-7-7-7-7-7-7-7-7-7-|
Ab|--5-5-5-5-5-5-5-5-5-5-5-5-7-7-7-7-7-7-7-7-7-7-7-7-|
Eb|--3-3-3-3-3-3-3-3-3-3-3-3-5-5-5-5-5-5-5-5-5-5-5-5-|

eb|--------------------------------------------------|
Bb|--------------------------------------------------|
Gb|--------------------------------------------------|
Db|--------------------------------------------------|
Ab|--------------------------------------------------|
Eb|---0-0--3-3-3-3--0-0--5-5-5-5---------------------|

eb|--------------------------------------------------|
Bb|--------------------------------------------------|
Gb|--------------------------------------------------|
Db|--5-5-5-5-5-5-5-5-5-5-5-5-7-7-7-7-7-7-7-7-7-7-7-7-|
Ab|--5-5-5-5-5-5-5-5-5-5-5-5-7-7-7-7-7-7-7-7-7-7-7-7-|
Eb|--3-3-3-3-3-3-3-3-3-3-3-3-5-5-5-5-5-5-5-5-5-5-5-5-|

eb|--------------------------------------------------|
Bb|--------------------------------------------------|
Gb|--5-5-5-5-5-5-5-5-5-5-5-5-7-7-7-7-7-7-7-7-7-7-7-7-|
Db|--x-x-x-x-x-x-x-x-x-x-x-x-x-x-x-x-x-x-x-x-x-x-x-x-|
Ab|--3-3-3-3-3-3-3-3-3-3-3-3-5-5-5-5-5-5-5-5-5-5-5-5-|
Eb|--------------------------------------------------|

Chorus start - time: 1:53
eb|-------------------------------------------------------------------------|
Bb|-------------------------------------------------------------------------|
Gb|-9-9-9-9-9-9-9-9-7-7-7-7-7-7-7-7-----------------7-7-7-7-7-7-7-7---------|
Db|-9-9-9-9-9-9-9-9-7-7-7-7-7-7-7-7-5-5-5-5-5-5-5-5-7-7-7-7-7-7-7-7---------|
Ab|-7-7-7-7-7-7-7-7-5-5-5-5-5-5-5-5-5-5-5-5-5-5-5-5-5-5-5-5-5-5-5-5---------|
Eb|---------------------------------3-3-3-3-3-3-3-3-------------------------|

eb|---------------------------------|
Bb|---------------------------------|
Gb|-9-9-9-9-9-9-9-9-7-7-7-7-7-7-7-7-|
Db|-9-9-9-9-9-9-9-9-7-7-7-7-7-7-7-7-|
Ab|-7-7-7-7-7-7-7-7-5-5-5-5-5-5-5-5-|
Eb|---------------------------------|

eb|------------------------------------------|
Bb|------------------------------------------|
Gb|-----------------7-7-7-7-7-7-7-7----------|
Db|-5-5-5-5-5-5-5-5-7-7-7-7-7-7-7-7----------|  replay from chorus start and
Ab|-5-5-5-5-5-5-5-5-5-5-5-5-5-5-5-5----------|  play tab below instead of
Eb|-3-3-3-3-3-3-3-3--------------------------|  adjacent part on second time

eb|------------------------------------------|
Bb|------------------------------------------|
Gb|------------------12-12-12-12--7-7-7-7-7--|
Db|-5-5-5-5-5-5-5-5--12-12-12-12--7-7-7-7-7--|
Ab|-5-5-5-5-5-5-5-5--10-10-10-10--5-5-5-5-5--|
Eb|-3-3-3-3-3-3-3-3--------------------------|

time: 2:20
eb|----------------------------------------------------------|
Bb|----------------------------------------------------------|
Gb|----------------------------------------------------------|
Db|---------14---------17-----19---------14--------16-----12-|  x8
Ab|---------14---------17-----19---------14--------16-----12-|
Eb|-0-0-0-0----0-0-0-0----0-0----0-0-0-0---0-0-0-0----0-0----|
    * * * *    * * * *    * *    * * * *   * * * *    * *
eb|-------------------------------------------|
Bb|-------------------------------------------|
Gb|-5-5-5-5-5-5-5-5-5-5-5-5-5-5-5-5-----------|
Db|-5-5-5-5-5-5-5-5-5-5-5-5-5-5-5-5-----------|  x2
Ab|-3-3-3-3-3-3-3-3-3-3-3-3-3-3-3-3-----------|
Eb|-------------------------------------------|

eb|-------------------------------------------|
Bb|-------------------------------------------|
Gb|-7-7-7-7-7-7-7-7-7-7-7-7-7-7-7-7-----------|
Db|-7-7-7-7-7-7-7-7-7-7-7-7-7-7-7-7-----------|  x2
Ab|-5-5-5-5-5-5-5-5-5-5-5-5-5-5-5-5-----------|
Eb|-------------------------------------------|

time: 3:05 - tone: clean
eb|-------------------------------------------|
Bb|-------------------------------------------|
Gb|-9----7---------9----7----9----7-----------|
Db|-9----7----5----9----7----9----7----5------|
Ab|-7----5----5----7----5----7----5----5------|
Eb|-----------3------------------------3------|

time: 3:15 - tone: distortion
eb|-------------------------------------------|
Bb|-------------------------------------------|
Gb|-7-7-7-7-7-7-7-7-7-7-7-7-------------------|
Db|-7-7-7-7-7-7-7-7-7-7-7-7-------------------|
Ab|-5-5-5-5-5-5-5-5-5-5-5-5-------------------|
Eb|-------------------------------------------|

Chorus start - time: 3:17
eb|-------------------------------------------------------------------------|
Bb|-------------------------------------------------------------------------|
Gb|-9-9-9-9-9-9-9-9-7-7-7-7-7-7-7-7-----------------7-7-7-7-7-7-7-7---------|
Db|-9-9-9-9-9-9-9-9-7-7-7-7-7-7-7-7-5-5-5-5-5-5-5-5-7-7-7-7-7-7-7-7---------|
Ab|-7-7-7-7-7-7-7-7-5-5-5-5-5-5-5-5-5-5-5-5-5-5-5-5-5-5-5-5-5-5-5-5---------|
Eb|---------------------------------3-3-3-3-3-3-3-3-------------------------|

eb|---------------------------------|
Bb|---------------------------------|
Gb|-9-9-9-9-9-9-9-9-7-7-7-7-7-7-7-7-|
Db|-9-9-9-9-9-9-9-9-7-7-7-7-7-7-7-7-|
Ab|-7-7-7-7-7-7-7-7-5-5-5-5-5-5-5-5-|
Eb|---------------------------------|

eb|------------------------------------------|
Bb|------------------------------------------|
Gb|-----------------7-7-7-7-7-7-7-7----------|
Db|-5-5-5-5-5-5-5-5-7-7-7-7-7-7-7-7----------|  replay from chorus start and
Ab|-5-5-5-5-5-5-5-5-5-5-5-5-5-5-5-5----------|  play tab below instead of
Eb|-3-3-3-3-3-3-3-3--------------------------|  adjacent part on second time

eb|------------------------------------------|
Bb|------------------------------------------|
Gb|------------------12----(12)---7----(7)---|
Db|-5-5-5-5-5-5-5-5--12----(12)---7----(7)---|
Ab|-5-5-5-5-5-5-5-5--10----(10)---5----(5)---|
Eb|-3-3-3-3-3-3-3-3--------------------------|

eb|--------------------------------------------------|
Bb|--------------------------------------------------|
Gb|--9-------------------(9)-------------------------|
Db|--9-------------------(9)-------------------------|
Ab|--7-------------------(7)-------------------------|
Eb|--0-------------------(0)-------------------------|

-guitar 2- tone: distortion - time: 0:10---------------|
eb|----------------------------------------------------|
Bb|----------------------------------------------------|
Gb|---12-(12)-----------11-----10-----9-(9)------------|
Db|---x---x-------------x------x------x--x-------------|
Ab|---10-(10)-----------9------8------7-(7)------------|
Eb|----------------------------------------------------|

eb|--------------------------------------------------|
Bb|--------------------------------------------------|
Gb|---12-(12)-----------14-----11-----9-(9)----------|
Db|---x---x-------------x------x------x--x--x\\\\\\\-|
Ab|---10-(10)-----------12-----9------7-(7)-x\\\\\\\-|
Eb|--------------------------------------------------|

eb|--------------------------------------------------|
Bb|--------------------------------------------------|
Gb|-9--------------------(9)-------------------------|
Db|-x---------------------x--------------------------|
Ab|-7--------------------(7)-------------------------|
Eb|--------------------------------------------------|

eb|--------------------------------------------------|
Bb|--------------------------------------------------|
Gb|-(9)------------------(9)-------------------------|
Db|-(x)------------------(x)-------------------------|  x2
Ab|-(7)------------------(7)-------------------------|
Eb|--------------------------------------------------|

eb|--------------------------------------------------|
Bb|--------------------------------------------------|
Gb|-(9)------------------(9)-------------------------|
Db|-(x)------------------(x)-------------------------|
Ab|-(7)------------------(7)--------x\\\\\\\\\\\\\\--|
Eb|---------------------------------x\\\\\\\\\\\\\\--|

time: 0:36
eb|--------------------------------------------------|
Bb|--------------------------------------------------|
Gb|--------------------------------------------------|
Db|--5-5-5-5-5-5-5-5-5-5-5-5-7-7-7-7-7-7-7-7-7-7-7-7-|
Ab|--5-5-5-5-5-5-5-5-5-5-5-5-7-7-7-7-7-7-7-7-7-7-7-7-|
Eb|--3-3-3-3-3-3-3-3-3-3-3-3-5-5-5-5-5-5-5-5-5-5-5-5-|

eb|--------------------------------------------------|
Bb|--------------------------------------------------|
Gb|---4-4--7-7-7-7--4-4--6-6-6-6---------------------|
Db|---x-x--x-x-x-x--x-x--x-x-x-x---------------------|
Ab|---2-2--5-5-5-5--2-2--4-4-4-4---------------------|
Eb|--------------------------------------------------|

eb|--------------------------------------------------|
Bb|--------------------------------------------------|
Gb|--------------------------------------------------|
Db|--5-5-5-5-5-5-5-5-5-5-5-5-7-7-7-7-7-7-7-7-7-7-7-7-|
Ab|--5-5-5-5-5-5-5-5-5-5-5-5-7-7-7-7-7-7-7-7-7-7-7-7-|
Eb|--3-3-3-3-3-3-3-3-3-3-3-3-5-5-5-5-5-5-5-5-5-5-5-5-|

eb|--------------------------------------------------|
Bb|--------------------------------------------------|
Gb|-------------------------9-9-9-9-9-9-9-9-9-9-9-9--|
Db|-------------------------x-x-x-x-x-x-x-x-x-x-x-x--|
Ab|-------------------------7-7-7-7-7-7-7-7-7-7-7-7--|
Eb|--------------------------------------------------|

Chorus start - time: 0:49
eb|-----------------------------------------------------------------------|
Bb|-----------------------------------------------------------------------|
Gb|-9-9-9-9--12--11--7-7-7-7--12--11-9-9-9-9-9-9-9-9--11-11-11-11--12--11-|
Db|-x-x-x-x--x---x---x-x-x-x--x---x--x-x-x-x-x-x-x-x--x--x--x--x---x---x--|x3
Ab|-7-7-7-7--10--9---5-5-5-5--10--9--7-7-7-7-7-7-7-7--9--9--9--9---10--9--|
Eb|-----------------------------------------------------------------------|

eb|-----------------------------------------------------------------------|
Bb|-----------------------------------------------------------------------|
Gb|-9-9-9-9--12--11--7-7-7-7--12--11-9-9-9-9-9-9-9-9--12-12-12-12-7-7-7-7-|
Db|-x-x-x-x--x---x---x-x-x-x--x---x--x-x-x-x-x-x-x-x--x--x--x--x--x-x-x-x-|
Ab|-7-7-7-7--10--9---5-5-5-5--10--9--7-7-7-7-7-7-7-7--10-10-10-10-5-5-5-5-|
Eb|-----------------------------------------------------------------------|

time: 1:15
eb|--------------------------------------------------|
Bb|--------------------------------------------------|
Gb|-9------------------------------------------------|
Db|-9------------------------------------------------|
Ab|-7------------------------------------------------|
Eb|--------------------------------------------------|

eb|--------------------------------------------------|
Bb|--------------------------------------------------|
Gb|---12-(12)-----------11-----10-----9-(9)----------|
Db|---x---x-------------x------x------x--x-----------|
Ab|---10-(10)-----------9------8------7-(7)----------|
Eb|--------------------------------------------------|

eb|--------------------------------------------------|
Bb|--------------------------------------------------|
Gb|-(9)--------------------(9)-----------------------|
Db|-(x)---------------------x------------------------|  x2
Ab|-(7)--------------------(7)-----------------------|
Eb|--------------------------------------------------|

time: 1:39
eb|--------------------------------------------------|
Bb|--------------------------------------------------|
Gb|--------------------------------------------------|
Db|--5-5-5-5-5-5-5-5-5-5-5-5-7-7-7-7-7-7-7-7-7-7-7-7-|
Ab|--5-5-5-5-5-5-5-5-5-5-5-5-7-7-7-7-7-7-7-7-7-7-7-7-|
Eb|--3-3-3-3-3-3-3-3-3-3-3-3-5-5-5-5-5-5-5-5-5-5-5-5-|

eb|--------------------------------------------------|
Bb|--------------------------------------------------|
Gb|---4-4--7-7-7-7--4-4--6-6-6-6---------------------|
Db|---x-x--x-x-x-x--x-x--x-x-x-x---------------------|
Ab|---2-2--5-5-5-5--2-2--4-4-4-4---------------------|
Eb|--------------------------------------------------|

eb|--------------------------------------------------|
Bb|--------------------------------------------------|
Gb|--------------------------------------------------|
Db|--5-5-5-5-5-5-5-5-5-5-5-5-7-7-7-7-7-7-7-7-7-7-7-7-|
Ab|--5-5-5-5-5-5-5-5-5-5-5-5-7-7-7-7-7-7-7-7-7-7-7-7-|
Eb|--3-3-3-3-3-3-3-3-3-3-3-3-5-5-5-5-5-5-5-5-5-5-5-5-|

eb|-------------------------------------|
Bb|-------------------------------------|
Gb|-12-12-12-12-12-12-12-12-12-12-12-12-|
Db|-x--x--x--x--x--x--x--x--x--x--x--x--|
Ab|-10-10-10-10-10-10-10-10-10-10-10-10-|
Eb|-------------------------------------|

eb|-------------------------------------|
Bb|-------------------------------------|
Gb|-11-11-11-11-11-11-11-11-11-11-11-11-|
Db|-x--x--x--x--x--x--x--x--x--x--x--x--|
Ab|-9--9--9--9--9--9--9--9--9--9--9--9--|
Eb|-------------------------------------|

Chorus start - time: 1:53
eb|-----------------------------------------------------------------------|
Bb|-----------------------------------------------------------------------|
Gb|-9-9-9-9--12--11--7-7-7-7--12--11-9-9-9-9-9-9-9-9--11-11-11-11--12--11-|
Db|-x-x-x-x--x---x---x-x-x-x--x---x--x-x-x-x-x-x-x-x--x--x--x--x---x---x--|x3
Ab|-7-7-7-7--10--9---5-5-5-5--10--9--7-7-7-7-7-7-7-7--9--9--9--9---10--9--|
Eb|-----------------------------------------------------------------------|

eb|-----------------------------------------------------------------------|
Bb|-----------------------------------------------------------------------|
Gb|-9-9-9-9--12--11--7-7-7-7--12--11-9-9-9-9-9-9-9-9--12-12-12-12-7-7-7-7-|
Db|-x-x-x-x--x---x---x-x-x-x--x---x--x-x-x-x-x-x-x-x--x--x--x--x--x-x-x-x-|
Ab|-7-7-7-7--10--9---5-5-5-5--10--9--7-7-7-7-7-7-7-7--10-10-10-10-5-5-5-5-|
Eb|-----------------------------------------------------------------------|

eb|--------------------------------------------------|
Bb|--------------------------------------------------|
Gb|-9--------------------(9)-----------------------9-|
Db|-x--------------------(x)-----------------------9-|
Ab|-7--------------------(7)-----------------------7-|
Eb|--------------------------------------------------|
After the final eb chord strummed in the above tab, the guitar volume cuts out.  The 
volume will gradually be turned up till full volume in the next section for a swell affect.

eb|--------------------------------------------------|
Bb|--------------------------------------------------|
Gb|-(9)--------------------(9)-----------------------|
Db|-(x)--------------------(x)-----------------------|
Ab|-(7)--------------------(7)----x\\\\\\\\\\\\\\\\\-|
Eb|-------------------------------x\\\\\\\\\\\\\\\\\-|

eb|---------------------------------------------------------|
Bb|---------------------------------------------------------|
Gb|---------9---------12-----14---------9---------11--------|
Db|---------9---------12-----14---------9---------11-----12-|  x2
Ab|------------------------------------------------------12-|
Eb|-0-0-0-0---0-0-0-0----0-0----0-0-0-0---0-0-0-0----0-0----|
    * * * *   * * * *    * *    * * * *   * * * *    * *
eb|-------------------------|
Bb|-------------------------|
Gb|-16-16-16-16-16-16-16-16-|
Db|-x--x--x--x--x--x--x--x--|  x2
Ab|-14-14-14-14-14-14-14-14-|
Eb|-------------------------|

eb|-------------------------|
Bb|-------------------------|
Gb|-14-14-14-14-14-14-14-14-|
Db|-x--x--x--x--x--x--x--x--|  x2
Ab|-12-12-12-12-12-12-12-12-|
Eb|-------------------------|

eb|-------------------------|
Bb|-------------------------|
Gb|-12-12-12-12-12-12-12-12-|
Db|-x--x--x--x--x--x--x--x--|  x2
Ab|-10-10-10-10-10-10-10-10-|
Eb|-------------------------|

eb|-------------------------|
Bb|-------------------------|
Gb|-11-11-11-11-11-11-11-11-|
Db|-x--x--x--x--x--x--x--x--|  x2
Ab|-9--9--9--9--9--9--9--9--|
Eb|-------------------------|

eb|-------------------------|
Bb|-------------------------|
Gb|-16-16-16-16-16-16-16-16-|
Db|-x--x--x--x--x--x--x--x--|  x2
Ab|-14-14-14-14-14-14-14-14-|
Eb|-------------------------|

eb|-------------------------|
Bb|-------------------------|
Gb|-14-14-14-14-14-14-14-14-|
Db|-x--x--x--x--x--x--x--x--|  x2
Ab|-12-12-12-12-12-12-12-12-|
Eb|-------------------------|

eb|-------------------------|
Bb|-------------------------|
Gb|-16-16-16-16-16-16-16-16-|
Db|-x--x--x--x--x--x--x--x--|  x2
Ab|-14-14-14-14-14-14-14-14-|
Eb|-------------------------|

eb|-------------------------|
Bb|-------------------------|
Gb|-14-14-14-14-14-14-14-14-|
Db|-x--x--x--x--x--x--x--x--|  x2
Ab|-12-12-12-12-12-12-12-12-|
Eb|-------------------------|

eb|-----------------------------------------------------|
Bb|-----------------------------------------------------|
Gb|-9-9-9-9-11-11-11-11-12-12-12-12-11-11-11-11-9-9-9-9-|
Db|-x-x-x-x-x--x--x--x--x--x--x--x--x--x--x--x--x-x-x-x-|
Ab|-7-7-7-7-9--9--9--9--10-10-10-10-9--9--9--9--7-7-7-7-|
Eb|-----------------------------------------------------|

eb|-------------------------|
Bb|-------------------------|
Gb|-7-7-7-7-4-4-4-4-7-7-7-7-|
Db|-x-x-x-x-x-x-x-x-x-x-x-x-|
Ab|-5-5-5-5-2-2-2-2-5-5-5-5-|
Eb|-------------------------|

eb|-------------------------------------------------------------|
Bb|-------------------------------------------------------------|
Gb|-11-11-11-11-12-12-12-12-14-14-14-14-11-11-11-11-16-16-16-16-|
Db|-x--x--x--x--x--x--x--x--x--x--x-x-x-x--x--x--x--x--x--x--x--|
Ab|-9--9--9--9--10-10-10-10-12-12-12-12-9--9--9--9--14-14-14-14-|
Eb|-------------------------------------------------------------|

eb|-------------------------------------|
Bb|-------------------------------------|
Gb|-14-14-14-14-12-12-12-12-11-11-11-11-|
Db|-x--x--x--x--x--x--x--x--x--x--x--x--|
Ab|-12-12-12-12-10-10-10-10-9--9--9--9--|
Eb|-------------------------------------|

eb|--------------------------------------------------|
Bb|--------------------------------------------------|
Gb|-9--------------------(9)-------------------------|
Db|-x---------------------x--------------------------|
Ab|-7--------------------(7)-------------------------|
Eb|--------------------------------------------------|

time: 3:11 - tone: clean, turn distortion on for slide
eb|--------------------------------------------------|
Bb|--------------------------------------------------|
Gb|--------7-------7-------7-------------------------|
Db|------9-------9--------9--------------------------|
Ab|-7/10----7/10-----7/10-------x\\\\\\\\\\\\\\\\\\--|
Eb|-----------------------------x\\\\\\\\\\\\\\\\\\--|

Chorus start - time: 3:17
eb|-----------------------------------------------------------------------|
Bb|-----------------------------------------------------------------------|
Gb|-9-9-9-9--12--11--7-7-7-7--12--11-9-9-9-9-9-9-9-9--11-11-11-11--12--11-|
Db|-x-x-x-x--x---x---x-x-x-x--x---x--x-x-x-x-x-x-x-x--x--x--x--x---x---x--|x3
Ab|-7-7-7-7--10--9---5-5-5-5--10--9--7-7-7-7-7-7-7-7--9--9--9--9---10--9--|
Eb|-----------------------------------------------------------------------|

eb|-----------------------------------------------------------------------|
Bb|-----------------------------------------------------------------------|
Gb|-9-9-9-9--12--11--7-7-7-7--12--11-9-9-9-9-9-9-9-9--12----------7-------|
Db|-x-x-x-x--x---x---x-x-x-x--x---x--x-x-x-x-x-x-x-x--x-----------x-------|
Ab|-7-7-7-7--10--9---5-5-5-5--10--9--7-7-7-7-7-7-7-7--10----------5-------|
Eb|-----------------------------------------------------------------------|

eb|--------------------------------------------------|
Bb|--------------------------------------------------|
Gb|-9--------------------(9)-------------------------|
Db|-x--------------------(x)-------------------------|
Ab|-7--------------------(7)-------------------------|
Eb|-0--------------------(0)-------------------------|
comments
print report bad tab
3 comments total.
0 reply
awifal wrote on May 4 2011, 07:30 pm

you forgot the part in the intro that goes
eb|--------------------------------------------
Bb|--------------------------------------------
Gb|--12--11--10--9~---12--14--11--9~-----------
Db|--x---x---x---x----x---x---x---x------------
Ab|--10--9---8---7~---10--12--9---7~-----------
Eb|--------------------------------------------
other than that, great job

+1 reply
AnEvilWalrus wrote on May 18 2011, 07:35 pm

One thing...

eb|------------------------------------------------------|
Bb|------------------------------------------------------|
Gb|------------------------------------------------------|
Db|-----------------2-----------------2------------------|
Ab|----------0-h-2--2-2--------0-h-2--2-2----------------|
Eb|----3-2-0-0--(0)-0-0--3-2-0-0--(0)-0-0----------------|


Should be...

eb|------------------------------------------------------|
Bb|------------------------------------------------------|
Gb|------------------------------------------------------|
Db|-----------------2-----------------2------------------|
Ab|----------1-h-2--2-2--------1-h-2--2-2----------------|
Eb|----3-2-0-0--(0)-0-0--3-2-0-0--(0)-0-0----------------|

0 reply
awifal wrote on June 9 2011, 03:36 pm

eb|----------------------------------------------
Bb|----------------------------------------------
Gb|--12--11--10--9~---9/12--14--11--9~-----------
Db|--x---x---x---x----x-x---x---x---x------------
Ab|--10--9---8---7~---7/10--12--9---7~-----------
Eb|----------------------------------------------
one small mistake in my correction. you have to play the seven/nine octave one more time befoe sliding back up for the second half

I want to post or [tab]
guest
You may want to rate the tab now too:
select rating
Please do not post tabs as comments. Select "correction" instead!