Oops, an error
Loading. Please wait.

Endgame Bass Tab

ver1
ver1

Album

Whole song

Interactive

More versions @911Tabs.com
1,758 views 15 this week
no commentswrite comment
1 2 3 4 5
excellent!
x 1
Autoscroll
+/-
esc
set tempo
stop
Contributor
Hey! There's an official Ultimate Guitar app which is ideal
for learning songs when you're away from computer. Get the app
WARNING: You are trying to view
                                    content from Ultimate-Guitar.com
                                    in an unauthorized application,
                                    which is prohibited.

                                    Please use an official Ultimate
                                    Guitar Tabs application for iPhone,
                                    iPad or Android to access legitimate
                                    chords, guitar, bass, and drum tabs
                                    from Ultimate-Guitar.com database.

                                    Type "ultimate guitar tabs" in Apple
                                    App Store's or Android Market's
                                    search to find the application.
Architects

F#|-----------------------------------------------------------------|
C#|-----------------------------------------------------------------|
G#|-2-2-----2-2-----2-2-----5--5--5-2-2-----2-2-----2-2-----5--5--5-|
D#|-----------------------------------------------------------------|

F#|-----------------------------------------------------------------|
C#|-----------------------------------------------------------------|
G#|-2-2-----2-2-----2-2-----5--5--5-2-2-----2-2-----2---------------|
D#|-----------------------------------------------------------------|

0:15
F#|-----------------------------------------------------------------|
C#|-----------------------------------------------------------------|
G#|-2-22-22-2-22-22-2-22-22-5-55-55-2-22-22-2-22-22-2-22-22-5-55-55-|
D#|-----------------------------------------------------------------|

F#|-----------------------------------------------------------------|
C#|-----------------------------------------------------------------|
G#|---------------------------------2-22-22-2-22-22-2-22-22---------|
D#|-3-33-33-3-33-33-3-33-33-0-00-00---------------------------------|

F#|-----------------------------------------------------------------|
C#|-----------------------------------------------------------------|
G#|-2-22-22-2-22-22-2-22-22-5-55-55-2-22-22-2-22-22-2-22-22-5-55-55-|
D#|-----------------------------------------------------------------|

F#|---------------------------------------------------------------------------------|
C#|---------------------------------------------------------------------------------|
G#|---------------------------------2-22-22-2-22-22-0-0-0-0-0-0-0-0-0-0-0-0-0-0-2---|
D#|-3-33-33-3-33-33-3-33-33-0-00-00-------------------------------------------------|

0:40
F#|-----------------------------------------------------------------|
C#|-----------------------------------------------------------------|
G#|---------------5---5-5-5-5-5-5-5-0-0-0-0-0-0-0-2---2-2-2-2-2-2-2-|
D#|-3-3-3-3-3-3-3---------------------------------------------------|

F#|-----------------------------------------------------------------|
C#|-----------------------------------------------------------------|
G#|---------------5---5-5-5-5-5-5-5-0-0-0-0-0-0-0-2---2-2-0---0-0---|
D#|-3-3-3-3-3-3-3---------------------------------------------------|

F#|-----------------------------------------------------------------|
C#|-----------------------------------------------------------------|
G#|---------------5---5-5-5-5-5-5-5-0-0-0-0-0-0-0-2---2-2-2-2-2-2---|
D#|-3-3-3-3-3-3-3-------------------------------------------------2-|

F#|-----------------------------------------------------------------|
C#|---------------4-5-5-7-7-5-5-4-4---------------------------------|
G#|---------------------------------0-0-0-0-0-0-0-0-0-------5-------|
D#|-3-3-3-3-3-3-3---------------------------------------------------|

F#|-----------------------------------------------------------------|
C#|-----------------------------------------------------------------|
G#|-2-2-----2-2-----2-2-----5--5--5-2-2-----2-2-----2---------------|
D#|-----------------------------------------------------------------|

1:08
F#|-----------------------------------------------------------------|
C#|-----------------------------------------------------------------|
G#|-2-22-22-2-22-22-2-22-22-5-55-55-2-22-22-2-22-22-2-22-22-5-5-5-5-|
D#|-----------------------------------------------------------------|

F#|-----------------------------------------------------------------|
C#|-----------------------------------------------------------------|
G#|---------------------------------2-22-22-2-22-22-2-22-22---------|
D#|-3-33-33-3-33-33-3-33-33-0-00-00---------------------------------|

F#|-----------------------------------------------------------------|
C#|---------------------------------4-44-45-4-2-4-2-----------------|
G#|-2-22-22-2-22-22-2-22-22-5-55-57-----------------2-22-22-5-55-55-|
D#|-----------------------------------------------------------------|

F#|---------------------------------------------------------------------------------|
C#|---------------------------------------------------------------------------------|
G#|---------------------------------2-22-22-2-22-22-0-0-0-0-0-0-0-0-0-0-0-0-0-0-2-0-|
D#|-3-33-33-3-33-33-3-33-33-0-00-00-------------------------------------------------|

1:33 
F#|-----------------------------------------------------------------|
C#|-----------------------------------------------------------------|
G#|---------------5---5-5-5-5-5-5-5-0-0-0-0-0-0-0-2---2-2-2-2-2-2-2-|
D#|-3-3-3-3-3-3-3---------------------------------------------------|

F#|-----------------------------------------------------------------|
C#|-----------------------------------------------------------------|
G#|---------------5---5-5-5-5-5-5-5-0-0-0-0-0-0-0-2---2-2-0---0-0---|
D#|-3-3-3-3-3-3-3---------------------------------------------------|

F#|------------------------------------------------------11-12---11------------|
C#|-----------------------------------------------------------------12-\-\-\-\-|
G#|---------------5---5-5-5-5-5-5-5-12-12-12-12-12-12-12-----------------------|
D#|-3-3-3-3-3-3-3--------------------------------------------------------------|

Gb|-----------------------------------------------------------------|
Db|---------------4-5-5-4-4-0-0-7-7---------------------------------|
Ab|---------------------------------0-0-0-0-0-0-0-0-0-0-0-0-----0---|
Eb|-3-3-3-3-3-3-3-------------------------------------------2-3-----|

1:54
F#|-------------------------------------------------------------------|
C#|o-----------------------------------------------------------------o|
G#|o-2---2-----------2---2-----------2---2-----------2---2-----------o|x4
D#|-------------------------------------------------------------------|

F#|-----------------------------------------------------------------|
C#|-----------------------------------------------------------------|
G#|---------------------------------0-0-0-0-0-0-0-0-0-0-0-0-0-0-0-0-|
D#|-3---3-3-3-3-3-3-3-3-3-3-3-3-3-3---------------------------------|

F#|-----------------------------------------------------------------|
C#|-----------------------------------------------------------------|
G#|-2---2-----------2---2-----------2---2-----------2---2-----2-5---|
D#|-----------------------------------------------------------------|

F#|-------------------------------------------------------------------|
C#|o-----------------------------------------------------------------o|
G#|o-2---2-----------2---2-----------2---2-----------2---2-----------o|
D#|-------------------------------------------------------------------|

F#|-----------------------------------------------------------------|
C#|-----------------------------------------------------------------|
G#|---------------------------------0-0-0-0-0-0-0-0-0-0-0-0-0-0-0-0-|
D#|-3---3-3-3-3-3-3-3-3-3-3-3-3-3-3---------------------------------|

F#|-----------------------------------------------------------------|
C#|-----------------------------------------------------------------|
G#|-2-2-2-2-2-2-2-2-2-2-2-2-2-2-2-2-2-2-2-2-2-2-2-2-2-2-2-2---------|
D#|---------------------------------------------------------0-0-2-2-|

2:47
F#|-----------------------------------------------------------------|
C#|-----------------------------------------------------------------|
G#|-----------------5-5-5-5-5-5-5-5-0-0-0-0-0-0-0-0-2-2-2-2-2-2-2-2-|
D#|-3-3-3-3-3-3-3-3-------------------------------------------------|

F#|-----------------------------------------------------------------|
C#|-----------------------------------------------------------------|
G#|-----------------5-5-5-5-5-5-5-5-0-0-0-0-0-0-0-0-2-2-2-2-0-0-0-0-|
D#|-3-3-3-3-3-3-3-3-------------------------------------------------|

F#|-----------------------------------------------------------------|
C#|-----------------------------------------------------------------|
G#|-----------------5-5-5-5-5-5-5-5-0-0-0-0-0-0-0-0-2-2-2-2-2-2-2-2-|
D#|-3-3-3-3-3-3-3-3-------------------------------------------------|

F#|-----------------------------------------------------------------|
C#|-----------------------------------------------------------------|
G#|-----------------5-5-5-5-5-5-5-5-0-0-0-0-0-0-0-2---2-2-0---0-0---|
D#|-3-3-3-3-3-3-3-3-------------------------------------------------|
    1 + 2 + 3 + 4 + 1 + 2 + 3 + 4 + 1 + 2 + 3 + 4 + 1 + 2 + 3 + 4 +

3:07
F#|-----------------------------------------------------------------|
C#|-----------------------------------------------------------------|
G#|---------------5---5-5-5-5-5-5-5-0-0-0-0-0-0-0-2---2-2-2-2-2-2-2-|
D#|-3-3-3-3-3-3-3---------------------------------------------------|

F#|------------------------------------------------------------------------|
C#|------------------------------------------------------------------------|
G#|---------------5---5-5-5-5-5-5-5-0-0-0-0-0-0-12-14---14-14-12---12-12---|
D#|-3-3-3-3-3-3-3----------------------------------------------------------|

3:18
F#|------------------------------------------------------11-12---11------------|
C#|-----------------------------------------------------------------12-\-\-\-\-|
G#|---------------5---5-5-5-5-5-5-5-12-12-12-12-12-12-12-----------------------|
D#|-3-3-3-3-3-3-3--------------------------------------------------------------|

Gb|---------------------------------------------------------------------|
Db|---------------4-5-5-4-4-0-0-7-7-------------------------------------|
Ab|---------------------------------0-0-0-0-0-0-0-0-0-0-0-0-0-----0-2---|
Eb|-3-3-3-3-3-3-3---------------------------------------------2-3-------|

Help Is On The Way

F#|--------------------------------------------------------------------|
C#|o-------------------------------------------------------------------|
G#|o-------------------------------------------------------------------|
D#|--4---4-4---4---4---2---2---4-6-7---0---0-0---0---0---2---2---4-6-7-|

F#|--------------------------------------------------------------------|
C#|-------------------------------------------------------------------o|
G#|-------------------------------------------------------------------o|
D#|-4---4-4---4---4---7---7---6-7-6---0---0-0---0---0-----2-2-2-2-2-2--|

0:17
F#|------------------------------------------------------------------|
C#|-----------------------------------------------------9---11---9---|
G#|---------------------------------7---------------7----------------|
D#|-4-4-0-0-4-4-0-0-4-4-0-0-4-4-0-0-----7---0---7--------------------|

0:22
F#|-----------------------------------------------------------------|
C#|-----------------------------------------------------------------|
G#|-----------------------------------------------------------------|
D#|-4---4-4-4-4-4-4-4-4-4-4-4-4-4-4-7---7-7-7-7-7-7-7-7-7-7-7-7-7-7-|

F#|-----------------------------------------------------------------|
C#|-----------------------------------------------------------------|
G#|-7---7-7-7-7-7-7-7-7-7-7-7-7-7-7-9---9-9-9-9-9-9-----------------|
D#|-------------------------------------------------7-7-7-7-9-9-9-9-|

F#|-----------------------------------------------------------------|
C#|-----------------------------------------------------------------|
G#|-----------------------------------------------------------------|
D#|-4-4-4-4-4-4-4-4-4-4-4-4-4-4-4-4-7-7-7-7-7-7-7-7-7-7-7-7-7-7-7-7-|

F#|---------------------------------------------------------------|
C#|---------------------------------------------------------------|
G#|-7-7-7-7-7-7-7-7-7-7-7-7-7-7-7-7-9-9-9-9-9-9-9-9---------------|
D#|-------------------------------------------------7-7-7-7-9-9-9-|

0:39
F#|-------------------------------------------------------------------|
C#|-------------------------------------------------------------------|
G#|-------------------------------------------------------------------|
D#|-0---0-0---0---0---0---0---0-0-0---2---2-2---2---2---2---2---2-2-2-|

F#|-------------------------------------------------------------------|
C#|-------------------------------------------------------------------|
G#|-------------------------------------------------------------------|
D#|-4---4-4---4---4---4---4---4-4-4---7---7-7---7---7---7---7---7-7-7-|

0:48
F#|---------------------------------------------------------------------------|
C#|---------------------------------------------------------------------------|
G#|-7---7-7---7---7---7---7---------------------------------------------------|
D#|---------------------------7-7-7---2---2-2-2-2-2-2/14-14-14-14-14-14-14-14-|

0:53
F#|-------------------------------------------------------------------|
C#|-------------------------------------------------------------------|
G#|---------------------------------------7-------7---------7-------7-|
D#|-4---4---4-4-4-2---2-2-2---------0---0-----0-0-----0---0-----0-0---|

F#|-------------------------------------------------------------------|
C#|-------------------------------------------------------------------|
G#|---------------------------------------7-------7---2---2-2-4---4-4-|
D#|-4---4---4-4-4-2-2-2-2-2---------0---0-----0-0---------------------|

1:02
F#|-------------------------------------------------------------------|
C#|-------------------------------------------------------------------|
G#|---------------------------------2---2---2-2-2---------------------|
D#|-4---4---4-4-4-2---2-2---2-2-2-------------------0---0-0---0-0-0---|

F#|-------------------------------------------------------------------------------------------|
C#|---------------------------------2---2-2-4---4-4-6---6-6-2---------------------------------|
G#|-----------------------------------------------------------------------------------2-2-2-4-|
D#|-4---4---4-4-4-2---2-2---------------------------------------------------------------------|

1:13
F#|-----------------------------------------------------------------|
C#|-----------------------------------------------------------------|
G#|-----------------------------------------------------------------|
D#|-4---4-4-4-4-4-4-4-4-4-4-4-4-4-4-7---7-7-7-7-7-7-7-7-7-7-7-7-7-7-|

F#|-----------------------------------------------------------------|
C#|-----------------------------------------------------------------|
G#|-7---7-7-7-7-7-7-7-7-7-7-7-7-7-7-9---9-9-9-9-9-9-----------------|
D#|-------------------------------------------------7-7-7-7-9-9-9-9-|

F#|-----------------------------------------------------------------|
C#|-----------------------------------------------------------------|
G#|-----------------------------------------------------------------|
D#|-4-4-4-4-4-4-4-4-4-4-4-4-4-4-4-4-7-7-7-7-7-7-7-7-7-7-7-7-7-7-7-7-|

F#|---------------------------------------------------------------|
C#|---------------------------------------------------------------|
G#|-7-7-7-7-7-7-7-7-7-7-7-7-7-7-7-7-9-9-9-9-9-9-9-9---------------|
D#|-------------------------------------------------7-7-7-7-9-9-9-|

1:30
F#|-------------------------------------------------------------------|
C#|-------------------------------------------------------------------|
G#|-------------------------------------------------------------------|
D#|-0---0-0---0---0---0---0---0-0-0---2---2-2---2---2---2---2---2-2-2-|

F#|-------------------------------------------------------------------|
C#|-------------------------------------------------------------------|
G#|-------------------------------------------------------------------|
D#|-4---4-4---4---4---4---4---4-4-4---7---7-7---7---7---7---7---7-7-7-|

1:39
F#|-------------------------------------------------------------------|
C#|---------------------------------------------------9-9-9-9---------|
G#|-7---7-7---7---7---7---7-----------9-9-9-9-9-9-9-9---------9-9-9-9-|
D#|---------------------------7-7-7-----------------------------------|

1:44
F#|-------------------------------------------------------------------|
C#|-------------------------------------------------------------------|
G#|---------------------------------------7-------7---------7-------7-|
D#|-4---4---4-4-4-2---2-2-2---------0---0-----0-0-----0---0-----0-0---|

F#|-------------------------------------------------------------------|
C#|-------------------------------------------------------------------|
G#|---------------------------------------7-------7---2---2-2-4---4-4-|
D#|-4---4---4-4-4-2-2-2-2-2---------0---0-----0-0---------------------|

1:53
F#|-------------------------------------------------------------------|
C#|-------------------------------------------------------------------|
G#|---------------------------------2---1-----------------------------|
D#|-4---4---4-4-4-2---2-2---2-2-2-----------4---2---0---0-0---0-0-0---|

F#|----------------------------------------------------------------------|
C#|----------------------------------------------------------------------|
G#|----------------------------------------------------------------------|
D#|-4---4---4-4-4-2-----------------0---------------2------------------4-|

2:06
F#|-----------------------------------------------------------------|
C#|-----------------------------------------------------------------|
G#|---------------------------------------------------------4-4-6-6-|
D#|-0-0-0-0-0-0-0-0-0-0-0-0-0-0-0-0-4-4-4-4-4-4-4-4-4-4-4-4---------|

F#|-----------------------------------------------------------------|
C#|-----------------------------------------------------------------|
G#|-7-----7-----7---7-----7-7-7-7-7---------------------------------|
D#|---0-0---0-0---0---0-0-----------4-------------------------------|

2:19
F#|-----------------------------------------------------------------|
C#|-----------------------------------------------------------------|
G#|-7-----7-----7---7-----7-7-7-7-7-4-4-4-4-4-4-4-4-4-4-4-4-4-4-6-6-|
D#|---0-0---0-0---0---0-0-------------------------------------------|

F#|-----------------------------------------------------------------|
C#|-----------------------------------------------------------------|
G#|-7-7-7-7-7-7-7-7-7-7-7-7-7-7-7-7-4-4-4-4-4-4-4-4-4-4-4-4-4-4-4-4-|
D#|-----------------------------------------------------------------|

2:32
F#|-----------------------------------------------------------------|
C#|-----------------------------------------------------------------|
G#|-9-9-9-9-9-9-9-9-9-9-9-9-9-9-9-9---------------------------------|
D#|---------------------------------4-4-4-4-4-4-4-4-2-2-2-2-2-2-2-2-|

F#|-----------------------------------------------------------------|
C#|-----------------------------------------------------------------|
G#|-----------------------------------------------------------------|
D#|-0-0-0-0-0-0-0-0-0-0-0-0-0-0-0-0-4-4-4-4-4-4-4-4-2-2-2-2-2-2-2-2-|

2:45
F#|-----------------------------------------------------------------|
C#|-----------------------------------------------------------------|
G#|-----------------2-2-2-4-4-4-4-4---------------------------------|
D#|-0-0-0-0-0-0-0-0-----------------4-4-4-4-4-4-4-4-2-2-2-2-2-2-2-2-|

F#|-----------------------------------------------------------------|
C#|-----------------------------------------------------------------|
G#|-2-2-2-2-2-2-2-2-------------------------------------------------|
D#|-----------------0-0-0-0-0-0-0-0-4-4-4-4-4-4-4-4-2-2-2-2-2-2-2-2-|

2:58
F#|-----------------------------------------------------------------|
C#|-----------------------------------------------------------------|
G#|-----------------7-7-7-7-----7-9---------------------------------|
D#|-0-0-0-0-0-0-0-0---------9-7-----4-4-4-4-4-4-4-4-2-2-2-2-2-2-2-2-|

F#|-----------------------------------------------------------------|
C#|-----------------------------------------------------------------|
G#|-----------------------------------------------------------------|
D#|-0-0-0-0-0-0-0-0-0-0-0-0-0-0-0-0-4-4-4-4-4-4-4-4-2-2-2-2-2-2-2-2-|

3:11
F#|-----------------------------------------------------------------|
C#|-----------------------------------------------------------------|
G#|-----------------7-7-7-6-6-6-4-2---------------------------------|
D#|-0-0-0-0-0-0-0-0-----------------4-4-4-4-4-4-4-4-2-2-2-2-2-2-2-2-|

3:18
F#|-----------------------------------------------------------------|
C#|-----------------------------------------------------------------|
G#|---------------------------------4-4-4-4-4-4-4-4-4-4-4-4-4-4-4-4-|
D#|-0-0-0-0-0-0-0-0-0-0-0-0-0-0-0-0---------------------------------|

3:24
F#|-----------------------------------------------------------------|
C#|-----------------------------------------------------------------|
G#|-----------------------------------------------------------------|
D#|-0-0-0-0-0-0-0-0-2---4---0---2---4---2---4------------------12-\-|

F#|-------------------------------------|
C#|-------------------------------------|
G#|-------7-------7---7---6---4---6-4---|
D#|-0---0-----0-0-----------------------|

3:32
F#|-------------------------------------------------------------------|
C#|-------------------------------------------------------------------|
G#|---------------------------------------7-------7---2---2-2-4---4-4-|
D#|-4---4---4-4-4-2---2-2-2---------0---0-----0-0---------------------|

F#|-------------------------------------------------------------------|
C#|-------------------------------------------------------------------|
G#|---------------------------------2---1---2---4---------------------|
D#|-4---4---4-4-4-2---2-2---2-2-2-------------------0---0-0---0-0-0---|

F#|---------------------------------|
C#|---------------------------------|
G#|---------------------------------|
D#|-4---4---4-4-4-2---2-2---2-2-2---|

F#|-------------------------------------------------------------------|
C#|-------------------------------------------------------------------|
G#|-------------------------------------------------------------------|
D#|-4---4-4---4---4---2---2---4-6-7---0---0-0---0---0---2---2---4-6-7-|

F#|-----------------------------------------------------------------------|
C#|-----------------------------------------------------------------------|
G#|-----------------------------------------------------------------------|
D#|-4---4-4---4---4---2---2---4-6-7---0---0-0---0---0---2---2---7-6-4-4-\-|

Make It Stop (September's Children)

0:12
F#|-----------------------------------------------------------------|
C#|-----------------------------------------------------------------|
G#|-2-2-2-2-2-2-2-2-5-5-5-5-5-5-5-5-0-0-0-0-0-0-0-0-----------------|
D#|-------------------------------------------------0-0-0-0-0-0-0-0-|

F#|-----------------------------------------------------------------|
C#|-----------------------------------------------------------------|
G#|-2-2-2-2-2-2-2-2-5-5-5-5-5-5-5-5-0-0-0-0-0-0-0-0---------5-5-0-0-|
D#|-------------------------------------------------0-0-0-0---------|

0:24
F#|-----------------------------------------------------------------|
C#|-----------------------------------------------------------------|
G#|-2-2-2-2-2-2-2-2-5-5-5-5-5-5-5-5-0-0-0-0-0-0-0-0-7-7-7-7-7-7-7-7-|
D#|-----------------------------------------------------------------|

F#|-----------------------------------------------------------------|
C#|-----------------------------------------------------------------|
G#|-2-2-2-2-2-2-2-2-5-5-5-5-5-5-5-5-0-0-0-0-0-0-0-0-0-0-0-0-0-0-0-0-|
D#|-----------------------------------------------------------------|

0:37
F#|-----------------------------------------------------------------|
C#|-----------------------------------------------------------------|
G#|-2-2-2-2-2-2-2-2-5-5-5-5-5-5-5-5-0-0-0-0-0-0-0-0-7-7-7-7-7-5-4-5-|
D#|-----------------------------------------------------------------|

F#|-----------------------------------------------------------------|
C#|-----------------------------------------------------------------|
G#|-2-2-2-2-2-2-2-2-5-5-5-5-5-5-5-5-0-0-0-0-0-0-0-0-0-0-0-0-0-0-0-0-|
D#|-----------------------------------------------------------------|

0:49
F#|-----------------------------------------------------------------|
C#|-----------------------------------------------0-2-2-2-0-2-0-----|
G#|-----------------0-0-0-0-0-0-0-0-----------------------------4-2-|
D#|-3-3-3-3-3-3-3-3-----------------0-0-0-0-0-0-0-------------------|

F#|---------------------------------|
C#|---------------------------------|
G#|-----------------0-0-0-0-0-------|
D#|-3-3-3-3-3-3-3-3-----------------|

0:58
F#|-----------------------------------------------------------------|
C#|-----------------------------------------------------------------|
G#|-2-2-2-2-2-2-2-2-5-5-5-5-5-5-5-5-0-0-0-0-0-0-0-0-----------------|
D#|-------------------------------------------------0-0-0-0-0-0-0-0-|

F#|-----------------------------------------------------------------|
C#|-----------------------------------------------------------------|
G#|-2-2-2-2-2-2-2-2-5-5-5-5-5-5-5-5-0-0-0-0-0-----------------------|
D#|-------------------------------------------------0-0-0-0-0-------|

1:11
F#|-----------------------------------------------------------------|
C#|-----------------------------------------------------------------|
G#|-2-2-2-2-2-2-2-2-5-5-5-5-5-5-5-5-0-0-0-0-0-0-0-0-----------------|
D#|-------------------------------------------------0-0-0-0-0-0-0-0-|

F#|-----------------------------------------------------------------|
C#|-----------------5-5-5-5-5-4-2-0---------------------------------|
G#|---------------------------------0-0-0-0-0-0-0-0-0-0-0-0-0-0-0-0-|
D#|-3-3-3-3-3-3-3-3-------------------------------------------------|

1:24
F#|-----------------------------------------------------------------|
C#|-----------------------------------------------------------------|
G#|-2-2-2-2-2-2-2-2-5-5-5-5-5-5-5-5-0-0-0-0-0-0-0-0-----------------|
D#|-------------------------------------------------0-0-0-0-0-0-0-0-|

F#|-----------------------------------------------------------------|
C#|-----------------------------------------------------------------|
G#|-2-2-2-2-2-2-2-2-5-5-5-5-5-5-5-5-0-0-0-0-0-0-0-0---------5-5-7-7-|
D#|-------------------------------------------------0-0-0-0---------|

1:36
F#|-----------------------------------------------------------------|
C#|-----------------------------------------------------------------|
G#|-2-2-2-2-2-2-2-2-5-5-5-5-5-5-5-5-0-0-0-0-0-0-0-0-7-7-7-7-7-7-7-7-|
D#|-----------------------------------------------------------------|

F#|-----------------------------------------------------------------|
C#|-----------------------------------------------------------------|
G#|-2-2-2-2-2-2-2-2-5-5-5-5-5-5-5-5-0-0-0-0-0-0-0-0-0-0-0-0-7-0-0-7-|
D#|-----------------------------------------------------------------|

1:48
F#|-----------------------------------------------------------------|
C#|-----------------------------------------------------------------|
G#|-2-2-2-2-2-2-2-2-5-5-5-5-5-5-5-5-0-0-0-0-0-0-0-0-7-7-7-7-7-9-7-5-|
D#|-----------------------------------------------------------------|

F#|-----------------------------------------------------------------|
C#|-----------------------------------------------------------------|
G#|-2-2-2-2-2-2-2-2-5-5-5-5-5-5-5-5-0-0-0-0-0-0-0-0-0-0-0-0-----0-0-|
D#|---------------------------------------------------------0-0-----|

2:01
F#|-----------------------------------------------------------------|
C#|-------------------------------------------------2-------4---5---|
G#|-----------------0-----------------------------------------------|
D#|-3-------------------------------0-------------------------------|

F#|---------------------------------|
C#|---------------------------------|
G#|-----------------0-0-0-0-0-------|
D#|-3-------------------------------|

2:10
F#|-----------------------------------------------------------------|
C#|-----------------------------------------------------------------|
G#|-2-2-2-2-2-2-2-2-5-5-5-5-5-5-5-5-0-0-0-0-0-0-0-0-----------------|
D#|-------------------------------------------------0-0-0-0-0-0-0-0-|

F#|-----------------------------------------------------------------|
C#|-----------------------------------------------------------------|
G#|-2-2-2-2-2-2-2-2-5-5-5-5-5-5-5-5-0-0-0-0-0-----------------------|
D#|-------------------------------------------------0-0-0-0-0-------|

2:22
F#|-----------------------------------------------------------------|
C#|-----------------------------------------------------------------|
G#|-2-2-2-2-2-2-2-2-5-5-5-5-5-5-5-5-0-0-0-0-0-0-0-0-----------------|
D#|-------------------------------------------------0-0-0-0-0-2-3-5-|

F#|-----------------------------------------------------------------|
C#|-----------------5-5-5-5-7-5-4-5---------------------------------|
G#|---------------------------------0-0-0-0-0-0-0-0-0-0-0-0---0-4-5-|
D#|-3-3-3-3-3-3-3-3-----------------------------------------0-------|

2:35
F#|-----------------------------------------------------------------|
C#|-----------------------------------------------------------------|
G#|-2-2-2-2-2-2-2-2-0-0-0-0-0-0-0-0---------------------------------|
D#|---------------------------------2-2-2-2-2-2-2-2-3-3-3-3-3-3-3-3-|

F#|-----------------------------------------------------------------|
C#|-------------------------------------------------5-5-5-5---------|
G#|-2-2-2-2-2-2-2-2-4-4-4-5-5-5-7-7-------------------------7-5-4-5-|
D#|---------------------------------3-3-3-3-3-3-3-3-----------------|

2:48
F#|-----------------------------------------------------------------|
C#|-----------------------------------------------------------------|
G#|-2-2-2-2-2-2-2-2-0-0-0-0-0-0-0-0---------------------------4-----|
D#|---------------------------------2-2-2-2-2-2-2-2-3-3-3-3-3-------|

F#|--------------------------------------------------------------------|
C#|-----------------9-9-9-11-12-14-----5-5-5-5-5-5-5-7-4-4-4-4-4-4-4-4-|
G#|-2-2-2-2-2-2-2-2----------------------------------------------------|
D#|--------------------------------------------------------------------|

F#|---------------------------------|
C#|---------------------------------|
G#|-5-5-5-5-5-5-5-5-----------------|
D#|-----------------3-3-3-3-5-5-5-5-|

3:03
F#|------------------------------------------------------------------|
C#|o-----------------------------------------------------------------|
G#|o-2-2-2-2-2-2-2-2-5-5-5-5-5-5-5-5-0-0-0-0-0-0-0-0-7-7-7-7-7-7-7-7-|
D#|------------------------------------------------------------------|

F#|------------------------------------------------------------------|
C#|-----------------------------------------------------------------o|
G#|-2-2-2-2-2-2-2-2-5-5-5-5-5-5-5-5-0-0-0-0-0-0-0-0-----------------o|
D#|-------------------------------------------------0-0-0-0-0-2-3-0--|

3:27
F#|------------------------------------------------------------------|
C#|o-----------------------------------------------------------------|
G#|o-2-2-2-2-2-2-2-2-5-5-5-5-5-5-5-5-0-0-0-0-0-0-0-0-----------------|
D#|--------------------------------------------------0-0-0-0-0-0-0-0-|

F#|------------------------------------------------------------------|
C#|-----------------------------------------------------------------o|
G#|-2-2-2-2-2-2-2-2-5-5-5-5-5-5-5-5-0-0-0-0-0-----------------------o|
D#|-------------------------------------------------0-0-0-0-0--------|

Disparity By Design

0:10
F#|------------------------------------------------------------------|
C#|o-----------------------------------------------------------------| 
G#|o---------------------------------5-----0-----5-------7---7---7---|
D#|--2-----0-----2-------5---5---5-----------------------------------|

F#|------------------------------------------------------------------|
C#|-----------------------------------------------------------------o| 
G#|---------------------------------5---5-5---5-5---2---2-2---2-2---o|
D#|-2-----0-----2-------5---5---5------------------------------------|

0:22
F#|------------------------------------------------13-----14-14-14-13-13-13-14-14-|
C#|---------------------------------11-11-11-11-11--------------------------------| 
G#|-7---7-7---7-7---4---4-4---4-4-------------------------------------------------| 
D#|-------------------------------------------------------------------------------|

0:25
F#|-----------------------------------------------------------------|
C#|-----------------------------------------------------------------|
G#|---------------------------------5---5-5---5-5---5---5-5---5-5---|
D#|-2---2-2---2-2---2---2-2---2-2-----------------------------------|

F#|-----------------------------------------------------------------|
C#|-----------------------------------------------------------------|
G#|-2---2-2---2-2---2---2-2---2-2---4---4-4---4-4---4---4-4---4-4---|
D#|-----------------------------------------------------------------|

F#|-----------------------------------------------------------------|
C#|-----------------------------------------------------------------|
G#|---------------------------------5---5-5---5-5---5---5-5---5-5---|
D#|-2---2-2---2-2---2---2-2---2-2-----------------------------------|

F#|-----------------------------------------------------------------|
C#|-----------------------------------------------------------------|
G#|-7---7-7---7-7---7---7-7---7-7---7---7-7---7-7---4-------7-------|
D#|-----------------------------------------------------------------|

0:38
F#|-----------------------------------------------------------------|
C#|-----------------------------------------------------------------|
G#|-9---9-9---9-9---9---9-9---9-9---5---5-5---5-5---5---5-5---5-5---|
D#|-----------------------------------------------------------------|

F#|-----------------------------------------------------------------|
C#|-----------------------------------------------------------------|
G#|-2---2-2---2-2---2---2-2---2-2---4---4-4---4-4----4----2----0----|
D#|-----------------------------------------------------------------|

C#|-----------------------------------------------------------------|
G#|---------------------------------5---5-5---5-5---5---5-5---5-5---|
D#|-2---2-2---2-2---2---2-2---2-2-----------------------------------|

F#|-----------------------------------------------------------------|
C#|-----------------------------------------------------------------|
G#|-7---7-7---7-7---7---7-7---7-7---7---7-7---7-7---7---7-7---7-7---|
D#|-----------------------------------------------------------------|

0:50
F#|-----------------------------------------------------------------|
C#|-----------------------------------------------------------------|
G#|-4---4-4---4-4---5---5-5---5-5---2---2-2---2-2---4---4-4---4-4---|
D#|-----------------------------------------------------------------|

F#|-----------------------------------------------------------------|
C#|-----------------------------------------------------------------|
G#|-----4-----4---------5-----5---------2-----2---------4-----2-----|
D#|-----------------------------------------------------------------|

F#|-----------------------------------------------------------------|
C#|-----------------------------------------------------------------|
G#|-4---4-4---4-4---5---5-5---5-5---2---2-2---2-2---4---4-4---4-4---|
D#|-----------------------------------------------------------------|

F#|-----------------------------------------------------------------|
C#|------6----------7---------7-------------------------------------|
G#|-4---------4----------5----------7---7-7---7-7---7---7-7---7-7---|
D#|-----------------------------------------------------------------|

F#|-----------------------------------------------------------------|
C#|-----------------------------------------------------------------|
G#|-5---5-5---5-5---5---5-5---5-5---0---0-0---0-0---7-7-7-7-7-------|
D#|-----------------------------------------------------------------|

1:06
F#|-----------------------------------------------------------------|
C#|-----------------------------------------------------------------|
G#|---------------------------------4---4-4---4-4---4---4-4---4-4---|
D#|-2---2-2---2-2---2---2-2---2-2-----------------------------------|

F#|-----------------------------------------------------------------|
C#|-----------------------------------------------------------------|
G#|-5---5-5---5-5---5---5-5---5-5---0---0-0---0-0---7-7-7-7-7-7-7-7-|
D#|-----------------------------------------------------------------|

F#|-----------------------------------------------------------------|
C#|-----------------------------------------------------------------|
G#|---------------------------------4---4-4---4-4---4---4-4---4-4---|
D#|-2---2-2---2-2---2---2-2---2-2-----------------------------------|

F#|------------------------------------------------------------------|
C#|------------------------------------------------------------------|
G#|-5---5-5---5-5---5---5-5---5-5---7---7-7---7-7---7-/-19-7-7-7-7-7-|
D#|------------------------------------------------------------------|

1:18
F#|-----------------------------------------------------------------|
C#|-----------------------------------------------------------------| 
G#|---------------------------------5-----0-----5-------7---7---7---|
D#|-2-----0-----2-------5---5---5-----------------------------------|

F#|-----------------------------------------------------------------|
C#|-----------------------------------------------------------------| 
G#|---------------------------------7-------------------------------|
D#|-2-----0-----2-------5---5---5-----------------------------------|

1:24
F#|-----------------------------------------------------------------|
C#|-----------------------------------------------------------------|
G#|---------------------------------5---5-5---5-5---5---5-5---5-5---|
D#|-2---2-2---2-2---2---2-2---2-2-----------------------------------|

F#|-----------------------------------------------------------------|
C#|-----------------------------------------------------------------|
G#|-2---2-2---2-2---2---2-2---2-2---4---4-4---4-4---4---7---9---7---|
D#|-----------------------------------------------------------------|

F#|-----------------------------------------------------------------|
C#|-----------------------------------------------------------------|
G#|-9---9-9---9-9---9---9-9---9-9---5---5-5---5-5---5---5-5---5-5---|
D#|-----------------------------------------------------------------|

F#|-----------------------------------------------------------------|
C#|-----------------------------------------------------------------|
G#|-7---7-7---7-7---7---7-7---7-7---7---7-7---7-7---7-------2-------|
D#|-----------------------------------------------------------------|

1:36
F#|-----------------------------------------------------------------|
C#|-----------------------------------------------------------------|
G#|-4---4-4---4-4---5---5-5---5-5---2---2-2---2-2---4---4-4---4-4---|
D#|-----------------------------------------------------------------|

F#|-----------------------------------------------------------------|
C#|-----------------------------------------------------------------|
G#|-----4-----4---------5-----5---------2-----2---------4-----2-----|
D#|-----------------------------------------------------------------|

F#|-----------------------------------------------------------------|
C#|-----------------------------------------------------------------|
G#|-4---4-4---4-4---5---5-5---5-5---2---2-2---2-2---4---4-4---4-4---|
D#|-----------------------------------------------------------------|

F#|-----------------------------------------------------------------|
C#|------6----------7---------7-------------------------------------|
G#|-4---------4----------5----------7---7-7---7-7---7---7-7---7-7---|
D#|-----------------------------------------------------------------|

F#|-----------------------------------------------------------------|
C#|-----------------------------------------------------------------|
G#|-5---5-5---5-5---5---5-5---5-5---0---0-0---0-0---7---0---4/16----|
D#|-----------------------------------------------------------------|

1:52
F#|------------------------------------------------------------------|
C#|o-----------------------------------------------------------------|
G#|o---------------------------------4---4-4---4-4---4---4-4---4-4---|
D#|--2---2-2---2-2---2---2-2---2-2-----------------------------------|

F#|-----------------------------------------------------------------|
C#|-----------------------------------------------------------------|
G#|-5---5-5---5-5---5---5-5---5-5---0---0-0---0-0---7-7-7-7-7-7-7-7-|
D#|-----------------------------------------------------------------|

F#|-----------------------------------------------------------------|
C#|-----------------------------------------------------------------|
G#|---------------------------------4---4-4---4-4---4---4-4---4-4---|
D#|-2---2-2---2-2---2---2-2---2-2-----------------------------------|

F#|-------------------------------------------------------------------|
C#|------------------------------------------------------------------o|
G#|-5---5-5---5-5---5---5-5---5-5---7---7-7---7-7---7-/-19-7-7-7-7-7-o|
D#|-------------------------------------------------------------------|

2:16
F#|------------------------------------------------------------------|
C#|o-----------------------------------------------------------------|
G#|o---------------------------------4---4---4---4---4---4---4---4---|
D#|--2---2---2---2---2---2---2---2-----------------------------------|

F#|------------------------------------------------------------------|
C#|-----------------------------------------------------------------o| 
G#|-5---5---5---5---5---5---5---5---7---7---7---7---7---7---7---7---o| 
D#|------------------------------------------------------------------|

2:28
F#|-----------------------------------------------------------------|
C#|-----------------------------------------------------------------|
G#|---------------------------------4---4---4---4---4---4---4---2---|
D#|-2---2---2---2---2---2---2---0-----------------------------------|

F#|-----------------------------------------------------------------|
C#|-----------------------------------------------------------------| 
G#|-5---5---5---5---5---5---5---4---7---7---7---7---7---7---5---4---| 
D#|-----------------------------------------------------------------|

F#|-----------------------------------------------------------------|
C#|-----------------------------------------------------------------|
G#|---------------------------------4---4---4---4---4---4---4---2---|
D#|-2---2---2---2---2---2---2---0-----------------------------------|

F#|-----------------------------------------------------------------|
C#|-----------------------------------------------------------------| 
G#|-5---5---5---5---5---5---5---4---7---7---7---7---7---7---7---7---| 
D#|-----------------------------------------------------------------|

2:41
F#|-----------------------------------------------------------------|
C#|-----------------------------------------------------------------|
G#|-5---------------------------------------------------------------|
D#|---------------------------------0-------------------------------|

F#|-----------------------------------------------------------------|
C#|---------------------------------4---4---2-----4-----2---0-------|
G#|-------------------------------------------------------------4---|
D#|-2---2---0-----2-----0---2---0-----------------------------------|

F#|-----------------------------------------------------------------|
C#|-----------------------------------------------------------------|
G#|-5---------------------------------------------------------------|
D#|---------------------------------0-------------------------------|

F#|-----------------------------------------------2-----------------|
C#|-------------------------2-------4-------2-----------2---0-------|
G#|-------------------------------------------------------------4---|
D#|-2---2---2---2---2---2-------------------------------------------|

2:53
F#|-----------------------------------------------------------------|
C#|-----------------------------------------------------------------|
G#|-5---5---5---5---5---5---5---5-----------------------------------|
D#|---------------------------------0---0---0---0---0---0---0---0---|

F#|-----------------------------------------------------------------|
C#|---------------------------------0-------0-----2-----2---0-------|
G#|-------------------------------------4-----------------------4---|
D#|-2---2---2---2---2---2---2---2-----------------------------------|

F#|-----------------------------------------------------------------|
C#|-----------------------------------------------------------------|
G#|-5---5---5---5---5---5---5---5---7---7---7---7---7---7---7---7---|
D#|-----------------------------------------------------------------|

3:02
F#|-----------------------------------------------------------------|
C#|-----------------------------------------------------------------|
G#|---------------------------------4---4---4---4---4---4---4---4---|
D#|-2---2---2---2---2---2---2---2-----------------------------------|

F#|-----------------------------------------------------------------|
C#|-----------------------------------------------------------------| 
G#|-5---5---5---5---5---5---5---5---0---0---0---0---7---7---7---7---| 
D#|-----------------------------------------------------------------|

F#|-----------------------------------------------------------------|
C#|-----------------------------------------------------------------|
G#|---------------------------------4---4---4---4---4---4---4---4---|
D#|-2---2---2---2---2---2---2---2-----------------------------------|

F#|-----------------------------------------------------------------|
C#|-----------------------------------------------------------------| 
G#|-5---5---5---5---5---5---5---5---7---7---7---7---7---------------| 
D#|-----------------------------------------------------------------|

3:15
F#|-----------------------------------------------------------------|
C#|-----------------------------------------------------------------|
G#|---------------------------------4---4-4---4-4---4---4-4---4-4---|
D#|-2---2-2---2-2---2---2-2---2-2-----------------------------------|

F#|-----------------------------------------------------------------|
C#|-----------------------------------------------------------------|
G#|-5---5-5---5-5---5---5-5---5-5---0---0-0---0-0---7-7-7-7-7-7-7-7-|
D#|-----------------------------------------------------------------|

F#|-----------------------------------------------------------------|
C#|-----------------------------------------------------------------|
G#|---------------------------------4---4-4---4-4---4---4-4---4-4---|
D#|-2---2-2---2-2---2---2-2---2-2-----------------------------------|

F#|------------------------------------------------------------------|
C#|------------------------------------------------------------------|
G#|-5---5-5---5-5---5---5-5---5-5---7---7-7---7-7---7-/-19-7-7-7-7-7-|
D#|------------------------------------------------------------------|

F#|-----------------------------------------------------------------|
C#|-----------------------------------------------------------------|
G#|---------------------------------4---4-4---4-4---4---4-4---4-4---|
D#|-2---2-2---2-2---2---2-2---2-2-----------------------------------|

F#|-----------------------------------------------------------------|
C#|-----------------------------------------------------------------|
G#|-5---5-5---5-5---5---5-5---5-5---0---0-0---0-0---7-7-7-7-7-7-7-7-|
D#|-----------------------------------------------------------------|

F#|-----------------------------------------------------------------|
C#|-----------------------------------------------------------------|
G#|---------------------------------4---4-4---4-4---4---4-4---4-4---|
D#|-2---2-2---2-2---2---2-2---2-2-----------------------------------|

F#|-----------------------------------------------------------------|
C#|-----------------------------------------------------------------|
G#|-5---5-5---5-5---5---5-5---5-5---7---------------7---------------|
D#|-----------------------------------------------------------------|

F#|--------------------------------|
C#|--------------------------------| 
G#|--------------------------------| 
D#|-2------------------------------|

Satellite

0:28
F#|---------------------------------------------------------------------|
C#|-4-4-4-4-4-4-4-4-4-4-4-4-4-4-4-4-4-4-4-4-4-4-4-4---------------------|
G#|---------------------------------------------------------------------|
D#|-------------------------------------------------2-2-2-2-2-2-2-2-2---|

0:35
F#|-----------------------------------------------------------------|
C#|-----------------------------------------------------------------|
G#|---------------------------------0---0---0-0-0---0---0---0-0-0---|
D#|-2---2---2-2-2---2---2---2-2-2-----------------------------------|

F#|-----------------------------------------------------------------|
C#|-2---2---2-2-2-2-2-2-2-2-2-2-2-2-------------------------2-------|
G#|---------------------------------2---2---2-2-2---2---2-------2---|
D#|-----------------------------------------------------------------|

0:43
F#|-----------------------------------------------------------------|
C#|-4---4---4-4-4---4---4---4-4-4-----------------------------------|
G#|---------------------------------0---0---0-0-0---0---0---0-0-0---|
D#|-----------------------------------------------------------------|

F#|-----------------------------------------------------------------|
C#|-2---2---2-2-2-2-2-2-2-2-2-2-2-2-0---0---0---0---2---2---2---2---|
G#|-----------------------------------------------------------------|
D#|-----------------------------------------------------------------|

0:50
F#|-----------------------------------------------------------------|
C#|-----------------------------------------------------------------|
G#|---------------------------------0---0---0-0-0---0---0---0-0-0---|
D#|-2---2---2-2-2---2---2---2-2-2-----------------------------------|

F#|-----------------------------------------------------------------|
C#|-2---2---2-2-2---2---2---2---2---------------------------2-------|
G#|---------------------------------2---2---2-2-2---2---2-------2---|
D#|-----------------------------------------------------------------|

0:57
F#|-----------------------------------------------------------------|
C#|-4---4---4---4---4---4---4---4---7---7---7---7---7---7---7---7---|
G#|-----------------------------------------------------------------|
D#|-----------------------------------------------------------------|

F#|-----------------------------------------------------------------|
C#|-2---2---2---2---2---2---2---2---0---0---0---0---2---------------|
G#|-----------------------------------------------------------------|
D#|-----------------------------------------------------------------|

1:04
F#|-----------------------------------------------------------------|
C#|-----------------------------------------------------------------|
G#|-----------------------------------------------------------------|
D#|-2---2---2-2-2-2-2---2---2-2-2-2-2---2-2---2-2---2---2---2-2-2-2-|

F#|-----------------------------------------------------------------|
C#|-4---2---0---2---0---------------------------2-/-4---------------|
G#|---------------------4---2---0-----------------------------------|
D#|---------------------------------2-------------------------------|

1:11
F#|-----------------------------------------------------------------|
C#|-----------------------------------------------------------------|
G#|-----------------------------------------------------------------|
D#|-2-2-2-2-2-2-2-2-2-2-2-2-2-2-2-2-5-5-5-5-5-5-5-5-5---5-5---5-5---|

F#|-----------------------------------------------------------------|
C#|-2-2-2-2-2-2-2-2-2-2-2-2-2-2-2-2-0-0-0-0-0-0-0-0-0---0-0---0-0---|
G#|-----------------------------------------------------------------|
D#|-----------------------------------------------------------------|

F#|-----------------------------------------------------------------|
C#|-----------------------------------------------------------------|
G#|-----------------------------------------------------------------|
D#|-2-2-2-2-2-2-2-2-2-2-2-2-2-2-2-2-5-5-5-5-5-5-5-5-5-5-5-5-5-5-5-5-|

F#|-----------------------------------------------------------------|
C#|-2-2-2-2-2-2-2-2-2-2-2-2-2-2-2-2-0-0-0-0-0-0-0-0-2-2-2-2-2-2-2-2-|
G#|-----------------------------------------------------------------|
D#|-----------------------------------------------------------------|

1:25
F#|-----------------------------------------------------------------|
C#|-----------------------------------------------------------------|
G#|---------------------------------0---0---0-0-0---0---0---0-0-0---|
D#|-2---2---2-2-2---2---2---2-2-2-----------------------------------|

F#|-----------------------------------------------------------------|
C#|-2---2---2-2-2---2---2---2---2---------------------------2-------|
G#|---------------------------------2---2---2-2-2---2---2-------2---|
D#|-----------------------------------------------------------------|

1:32
F#|-----------------------------------------------------------------|
C#|-4---4---4---4---4---4---4---4---7---7---7---7---7---7---9---7---|
G#|-----------------------------------------------------------------|
D#|-----------------------------------------------------------------|

F#|-----------------------------------------------------------------|
C#|-2---2---2---2---2---2---2-------0---0---0---0---2---------------|
G#|-----------------------------4-----------------------------------|
D#|-----------------------------------------------------------------|

1:39
F#|-----------------------------------------------------------------|
C#|-----------------------------------------------------------------|
G#|---------------------------------0---0---0-0-0---0---0---0-0-0---|
D#|-2---2---2-2-2---2---2---2-2-2-----------------------------------|

F#|-----------------------------------------------------------------|
C#|-2---2---2-2-2---2---2---2---2---------------------------2-------|
G#|---------------------------------2---2---2-2-2---2---2-------2---|
D#|-----------------------------------------------------------------|

F#|-----------------------------------------------------------------|
C#|-4---4---4-4-4---4---4---4-4-4-----------------------------------|
G#|---------------------------------0---0---0-0-0---0---0---0-0-0---|
D#|-----------------------------------------------------------------|

F#|---------------------------------------------------------------------|
C#|-2---2---2---2---2---2---2---2---0---0---0---0---14------------------|
G#|------------------------------------------------------14-------------|
D#|-----------------------------------------------------------12---10---|

1:53
F#|-----------------------------------------------------------------|
C#|-----------------------------------------------------------------|
G#|---------------------------------0---0---0-0-0---0---0---0-0-0---|
D#|-2---2---2-2-2---2---2---2-2-2-----------------------------------|

F#|-----------------------------------------------------------------|
C#|-2---2---2-2-2---2---2---2---2---------------------------2-------|
G#|---------------------------------2---2---2-2-2---2---2-------2---|
D#|-----------------------------------------------------------------| 

F#|-----------------------------------------------------------------|
C#|-4---4---4---4---4---4---4-4-4---7---7---7---7---7---7-7---7-7---|
G#|-----------------------------------------------------------------|
D#|-----------------------------------------------------------------|

F#|-----------------------------------------------------------------|
C#|-2---2---2---2---2---2---2---2---0---0---0---0---2---------------|
G#|---------------------------------------------------------2-------|
D#|-----------------------------------------------------------------|

2:07
F#|-----------------------------------------------------------------|
C#|-0---0---0---0---0---0---0---0---0---0---0---0---0---0---0---0---|
G#|-----------------------------------------------------------------|
D#|-----------------------------------------------------------------|

F#|-------------------------------4/6-------4-------2-------2---1---|
C#|-2---2---2---2---2---2---2---2-------2-------2-------2-----------|
G#|-----------------------------------------------------------------|
D#|-----------------------------------------------------------------|

2:15
F#|-----------------7---7---7---7---7---7---7---7---9-----------------------|
C#|-0---0---0---0-------------------------------------------9---------------|
G#|-------------------------------------------------------------------------|
D#|-----------------------------------------------------------------0-------|

Rest

2:31
F#|-----------------------------------------------------------------|
C#|-----------------0---0---0---0---2---2---2---2-------------------|
G#|-------------------------------------------------2---2---2---2---|
D#|-2---2---2---2---------------------------------------------------|

F#|------------------------------------------------------------------|
C#|-----------------0---0---0---0---2---2---2---2--------------------|
G#|-------------------------------------------------2---2---2-/-14-\-|
D#|-2---2---2---2----------------------------------------------------|

2:40
F#|-----------------------------------------------------------------|
C#|-----------------------------------------------------------------|
G#|-----------------5---5---5---5-------------------2---2---2---2---|
D#|-2---2---2---2-------------------0---0---0---0-------------------|

F#|-----------------------------------------------------------------|
C#|-----------------------------------------------------------------|
G#|-----------------5---5---5---5-------------------2---2-----------|
D#|-2---2---2---2-------------------0---0---0---0-----------5---4---|

2:50
F#|-----------------------------------------------------------------|
C#|-----------------------------------------------------------------|
G#|-----------------5---5---5---5-------------------2---------------|
D#|-2---2---2---2-------------------0---0---0---0-------4---5---4---|

F#|-----------------------------------------------------------------|
C#|-----------------------------------------------------------------|
G#|-----------------5---5---5---5-------------------2---2---4---2---|
D#|-2---2---2---2-------------------0---0---0---0-------------------|

2:59
F#|-----------------------------------------1-------1---2---1-------|
C#|-0---0---0---0---0---0---0---0---2---2-------2---------------2---|
G#|-----------------------------------------------------------------|
D#|-----------------------------------------------------------------|

F#|-----------------------------------------------------------------|
C#|-0---0---0---0---0---0---0---0-----------------------------------|
G#|-----------------------------------------------------------------|
D#|---------------------------------0---0---0---0---0---------------|

3:08
F#|-----------------------------------------------------------------|
C#|-----------------------------------------------------------------|
G#|-----------------------------------------------------------------|
D#|-2-------------------------------------------------------0-0-0-0-|

F#|-----------------------------------------------------------------|
C#|-----------------------------------------------------------------|
G#|---------------------------------0---0---0-0-0-0-0---0---0-0-0-0-|
D#|-2---2---2-2-2-2-2---2---2-2-2-2---------------------------------|

F#|-----------------------------------------------------------------|
C#|-2---2---2-2-2-2-2---2---2-2-2-2-0---0---0-0-0-0-2---2---2-2-2-2-|
G#|-----------------------------------------------------------------|
D#|-----------------------------------------------------------------|

3:23
F#|-----------------------------------------------------------------|
C#|-----------------------------------------------------------------|
G#|---------------------------------0---0---0-0-0-0-0---0---0-0-0-0-|
D#|-2---2---2-2-2-2-2---2---2-2-2-2---------------------------------|

F#|-----------------------------------------------------------------|
C#|-2---2---2-2-2-2-2---2---2-2-2-2-------------------------2-2-----|
G#|---------------------------------2---2---2-2-2-2-2---2-2-----2---|
D#|-----------------------------------------------------------------|

F#|-----------------------------------------------------------------|
C#|-4---4---4-4-4-4-4---4---4-4-4-4---------------------------------|
G#|---------------------------------0---0---0-0-0-0-0---0---0-0-0-0-|
D#|-----------------------------------------------------------------|

F#|-----------------------------------------------------------------|
C#|-2---2---2-2-2-2-2---2---2-2-2-2-0---------------2---------------|
G#|-------------------------------------4---2---0-------------------|
D#|-----------------------------------------------------------------|

3:37
F#|-----------------------------------------------------------------|
C#|-----------------------------------------------------------------|
G#|---------------------------------0---0---0-0-0-0-0---0---0-0-0-0-|
D#|-2---2---2-2-2-2-2---2---2-2-2-2---------------------------------|

F#|-----------------------------------------------------------------|
C#|-2---2---2-2-2-2-2---2---2-2-2-2-------------------------0---2---|
G#|---------------------------------2---2---2-2-2-2-2---4-----------|
D#|-----------------------------------------------------------------|

F#|-----------------------------------------------------------------|
C#|-4---4---4-4-4-4-4---4---4-4-4-4-7---7---7-7-7-7-7---7-7---7-7---|
G#|-----------------------------------------------------------------|
D#|-----------------------------------------------------------------|

F#|-----------------------------------------------------------------|
C#|-2---2---2-2-2-2-2---2---2-2-2-2-2---2---2-2-2-2-2---2---2-2-2-2-|
G#|-----------------------------------------------------------------|
D#|-----------------------------------------------------------------|

F#|----------------------------------------------------------------------|
C#|----------------------------------------------------------------------|
G#|-5---5-----------5---5------------5---5-----------5---5---------------|
D#|------------------------------------------------------------------2---|

Midnight Hands - This song is in drop C# tuning

0:17
F#|-----------------------------------------------------------------|
C#|-----------------------------------------------------------------|
G#|-5-5-5-5-5-5-5-5-5-5-5-5-5-5-5-5-5-5-5-5-5-5-5-5-5-5-5-5-5-5-5-5-|
C#|-----------------------------------------------------------------|

F#|-------------------------------------------------------------------------|
C#|-------------------------------------------------------------------------|
G#|-5-5-5-5-5-5-5-5-5-5-5-5-5-5-5-5-5-5-5-5-5-5-5-5/17-17-17-17-17-15-13-12-|
C#|-------------------------------------------------------------------------|

0:27
F#|-----------------------------------------------------------------|
C#|-----------------------------------------------------------------|
G#|-1-1-1-1-1-1-1-1-1-1-1-1-1-1-1-1-3-3-3-3-3-3-3-3-3-3-3-3-3-3-3-3-|
C#|-----------------------------------------------------------------|

0:32
F#|-----------------------------------------------------------------|
C#|-3-0-0-0-0-0-0-0-0-0-3-0-3-5-3-0---------------------------------|
G#|-----------------------------------------------------------------|
C#|---------------------------------3-0-0-0-0-0-0-0-0-0-3-0-3-5-3-0-|

F#|-----------------------------------------------------------------|
C#|-----------------------------------------------------------------|
G#|-1-1-1-1-1-1-1-1-1-1-1-1-1-1-1-1-3-3-3-3-3-3-3-3-3-3-3-3-3-3-3-3-|
C#|-----------------------------------------------------------------|

0:43
F#|-----------------------------------------------------------------|
C#|-----------------------------------------------------------------|
G#|---------------------------------1---1---1-------3---------------|
C#|-5-5-5-5-5-5-5-5-5-5-5-5-5-5-5-5-------------3-------------------|

0:48
F#|-----------------------------------------------------------------|
C#|-----------------------------------------------------------------|
G#|-------------5-------5---5---0---1---1---1---1-------1---1---1---|
C#|-0---3---0-------------------------------------------------------|

0:53
F#|-----------------------------------------------------------------|
C#|-----------------------------------------------------------------|
G#|-----------------------------------------------------------------|
C#|-3---3---3---3-------3---3---3---5---5---5---5---5---7---5---3---|

0:58
F#|-----------------------------------------------------------------|
C#|-----------------------------------------------------------------|
G#|-------------5-------5---5---0---1---1---1---1-------1---1---1---|
C#|-0---3---0-------------------------------------------------------|

F#|-----------------------------------------------------------------|
C#|-----------------------------------------------------------------|
G#|-----------------------------------------------------------------|
C#|-3---3---3---3-------3---3---3---5---5---5---5---5---------------|

1:08
F#|-----------------------------------------------------------------|
C#|-----------------------------------------------------------------|
G#|-----------------------------------------------------------------|
C#|-0-0-0-0-0-0-0-0-0-0-0-0-0-0-0-0-0-0-0-0-0-0-0-0-0-0-3-0-3-5-3-0-|

1:14
F#|-----------------------------------------------------------------|
C#|-----------------------------------------------------------------|
G#|-----------------------------------------------------------------|
C#|-0-0-0-0-0-0-0-0-0-0-0-0-0-0-0-0-0-0-0-0-0-0-0-0-0-0-0-0-0-0-0-0-|

F#|------------------------------------------------------------------|
C#|------------------------------------------------------------------|
G#|------------------------------------------------------------------|
C#|-0-0-0-0-0-0-0-0-0-0-0-0-0-0-0-0-0-0-0-0-0-0-0-0-12-\-\-\-\-\-\-\-|

1:24
F#|-----------------------------------------------------------------|
C#|-7-7-7-7-7-7-7-7-7-7-7-7-7-7-7-7-6-6-6-6-6-6-6-6-6-7-7-6-6-5-5-5-|
G#|-----------------------------------------------------------------|
C#|-----------------------------------------------------------------|

F#|-------------------------------------------------------------------|
C#|-5-5-5-5-5-5-5-5-5-6-6-5-5-3-3-3-0-0-0-0-0-0-0-0/12------------12\-|
G#|-------------------------------------------------------------------|
C#|-------------------------------------------------------------------|

1:33
F#|-----------------------------------------------------------------|
C#|-----------------------------------------------------------------|
G#|-1-1-1-1-1-1-1-1-1-1-1-1-0-0-----3-3-3-3-3-3-3-3-3-3-3-3-1-1-0-0-|
C#|-----------------------------5-5---------------------------------|

F#|-----------------------------------------------------------------|
C#|-3-0-0-0-0-0-0-0-0-0-3-0-3-5-3-0---------------------------------|
G#|-----------------------------------------------------------------|
C#|---------------------------------3-0-0-0-0-0-0-0-0-0-3-0-3-5-3-0-|

1:44
F#|-----------------------------------------------------------------|
C#|-----------------------------------------------------------------|
G#|-1-1-1-1-1-1-1-1-1-1-1-1-1-1-1-1-3-3-3-3-3-3-3-3-3-3-3-3-3-3-3-3-|
C#|-----------------------------------------------------------------|

F#|--------------------------------------------------------------------------|
C#|--------------------------------------------------------------------------|
G#|-10-10-10-10-10-10-10-10-10---0---1---3---8---------------7---------------|
C#|----------------------------------------------3---3---3-------2---2---2---|

1:54
F#|---------------------------------------------------------------------|
C#|---------------------------------------------------------------------|
G#|-------------5-------5---5---0---1---1-/-5-/-17-------13---12---10---|
C#|-0---3---0-----------------------------------------------------------|

2:00
F#|------------------------------------------------------------------------|
C#|------------------------------------------------------------------------|
G#|-8--------8-/-15-------8-------8---10---10---10---10---10---12---10---8-|
C#|-----10-----------------------------------------------------------------|

2:04
F#|-----------------------------------------------------------------|
C#|-----------------------------------------------------------------|
G#|-5-5-5-5---5-5---5-5-7-7-8-8-7-7-1-1-1-1---1-1---1-1-1---1-1-1---|
C#|-----------------------------------------------------------------|

F#|-----------------------------------------------------------------|
C#|-----------------------------------------------------------------|
G#|-----------------------------------------------------------------|
C#|-3-3-3-3---3-3---3-3-3---3-3-3---5-5-5-5-5-5-5-5-5-5-5-5-5-5-5-5-|

2:14
F#|-------------------------------------|
C#|-------------------------------------|
G#|-1---0------------3------------------|
C#|-----------3-------------5-------5---|

2:20
F#|-----------------------------------------------------------------|
C#|-----------------------------------------------------------------|
G#|-----------------------------------------------------------------|
C#|-0-0-0-0-0-0-0-0-0-0-0-0-0-0-0-0-3-3-3-3-3-3-3-3-3-3-3-3-3-3-3-3-|

F#|-----------------------------------------------------------------|
C#|-----------------------------------------------------------------|
G#|-3-3-3-3-3-3-3-3-3-3-3-3-3-3-3-3-----------------------------8-8-|
C#|---------------------------------5-5-5-5-5-5-5-5-5-5-5-5-5-5-----|

2:29
F#|----------------------------------------------------------------------------|
C#|-------------------------------------------10-12------10-12------10-12------|
G#|-5-5-5-5-5-5-5-5-5-5-5-5-5-5-5-5-8-10---12---------12---------12---------12-|
C#|----------------------------------------------------------------------------|

F#|----------------------------------------------------------------------------|
C#|----------------------------------------------------------------------------|
G#|-13-13-13-13-13-13-13-13-13-13-13-13-8-8-8-8-------------------------3------|
C#|---------------------------------------------5---0---0---3---0---0----------|

2:42
F#|-----------------------------------------------------------------|
C#|-----------------------------------------------------------------|
G#|---------3-----5-------------------------3-----5-----------------|
C#|-3-0-0-0---0-0---0-0-3-0-3-5-3-0-3-0-0-0---0-0---0-0-3-0-3-5-3-0-|

2:48
F#|-------------------------------------------------------------------|
C#|-------------8-8-----------------------5-5---10-10---5-5-5---------|
G#|-1-1-1-8-8---------8-8-8-1-1-1-1-3-3-3---------------------3-3-3-3-|
C#|-------------------------------------------------------------------|

F#|-----------------------------------------------------------------|
C#|-----------------------------------------------------------------|
G#|---------3-----5-------------------------3-----5-----------------|
C#|-3-0-0-0---0-0---0-0-3-0-3-5-3-0-3-0-0-0---0-0---0-0-3-0-3-5-3-0-|

2:58
F#|-----------------------------------------------------------------|
C#|-----------------------------------------------------------------|
G#|-1---1-1---1-1---1-1-1---1-1-1-1-3---3-3---3-3---3-3-3---3-3-3-3-|
C#|-----------------------------------------------------------------|

F#|-----------------------------------------------------------------|
C#|-----------------------------------------------------------------|
G#|-----------------------------------------------------------------|
C#|-5-5-5-5-5-5-5-5-5-5-5-5-5-5-5-5-5-5-5-5-5-5-5-5-5-5-5-5-5-5-5-5-|

3:08
F#|---------------------------------------------------------------------|
C#|-8-8-8-7-7-7-5-5-5-5-----3-3-----------------------------------------|
G#|---------------------1-1-----1-1-3---3---3---3---3---3---3---3-------|
C#|-----------------------------------------------------------------0---|

Rest

3:32
F#|---------------------------------|
C#|---------------------------------|
G#|-------------------------0---1---|
C#|-5---0---0---3---0---0-----------|

3:35
F#|-----------------------------------------------------------------|
C#|-----------------------------------------------------------------|
G#|-5-5-5-5-5-5-5-5-5-5-5-5-5-5-5-5-1-1-1-1-1-1-1-1-1-1-1-1-1-1-1-1-|
C#|-----------------------------------------------------------------|

F#|-----------------------------------------------------------------|
C#|-----------------------------------------------------------------|
G#|-----------------------------------------------------------------|
C#|-3-3-3-3-3-3-3-3-3-3-3-3-3-3-3-3-5-5-5-5-5-5-5-5-5-5-5-5-5-5-5-5-|

F#|-----------------------------------------------------------------|
C#|-----------------------------------------------------------------|
G#|-5-5-5-5-5-5-5-5-5-5-7-7-8-8-7-7-1-1-1-1-1-1-1-1-1-1-1-1-1-1-1-1-|
C#|-----------------------------------------------------------------|

F#|-----------------------------------------------------------------|
C#|-----------------------------------------------------------------|
G#|-----------------------------------------------------8---7---3---|
C#|-3-3-3-3-3-3-3-3-3-3-3-3-3-3-3-3-5-5-5-5-5-5-5-5-5---------------|

3:54
F#|--------------------------------------------------------------------------|
C#|-12-12-12-12---12-12-------10---12---10---8---8-8---8-8---8-8-7-7-8-8-7-7-|
G#|--------------------------------------------------------------------------|
C#|--------------------------------------------------------------------------|

3:59
F#|------------------------------------------------------------------------|
C#|-15-15-15-15---15-15------------15-------17---12------------------------|
G#|---------------------------13----------------------10-------7---8---7---|
C#|------------------------------------------------------------------------|

F#|-----------------------------------------------------------------|
C#|-----------------------------------------------------------------|
G#|-5---5---5---5---5---5---5---5---1---1---1---1---1---1---1---1---|
C#|-----------------------------------------------------------------|

F#|-----------------------------------------------------------------|
C#|-----------------------------------------------------------------|
G#|---------------------------------------------------------0---1---|
C#|-3---3---3---3---3---3---3---3---5---0---0---3---0---0-----------|

Survivor Guilt

0:09
F#|--------------------------------------------------------|
C#|-------------------15-14-----15p14-17----15-----14------| 
G#|-3/17-------13------------------------------------------| 
D#|--------------------------------------------------------|

F#|-----------------------------------------------------------------------|
C#|-12-----12-------------------------------------------------------------| 
G#|---------------15---13-----13-----8---10-----3-3-----3/8-----7-----3---|
D#|-----------------------------------------------------------------------| 

0:24
F#|----------------------------------------------------------------------|
C#|----------------------------------------------------------------------| 
G#|-5---5---5---3---1---1---1---1---3---3---3---3---1---1---3---3---5----|
D#|----------------------------------------------------------------------| 

Rest

0:34
F#|----------------------------------------------------------------|
C#|o--------------------------------------------------------------o| 
G#|o-5-5-3-5-8-8-3-3-5-5-3-1-------5-5-3-5-8-8-3-3-5-5-3-1--------o|
D#|----------------------------------------------------------------| 

F#|--------------------------------------------------------------|
C#|--------------------------------------------------------------| 
G#|--------------------------------------------------------------|
D#|-3------------------------------------------------------------|

F#|--------------------------------------------------------------|
C#|--------------------------------------------------------------| 
G#|-5-5-3-5-8-8-3-3-5-5-3-1-------5-5-3-5-8-8-3-3-5-5-3-1--------|
D#|--------------------------------------------------------------| 

F#|--------------------------------------------------------------|
C#|--------------------------------------------------------------| 
G#|----------------------------------5-/-10-10-10-10-10-10-10-10-|
D#|-3------------------------------------------------------------|
 
F#|--------------------------------------------------------------|
C#|--------------------------------------------------------------| 
G#|-5-5-3-5-8-8-3-3-5-5-3-1-------5-5-3-5-8-8-3-3-5-5-3-1--------|
D#|--------------------------------------------------------------| 

F#|-----------------------------------------------------------------|
C#|-----------------------------------------------------------------| 
G#|-------------------------------------------------3-3-3-3-3-3-8-7-|
D#|-3-3-3-3-3-3-3-3-3-3-3-3-3-3-3-3-6-6-6-6-6-6-6-3-----------------|

1:01
F#|-----------------------------------------------------------------|
C#|-----------------------------------------------------------------| 
G#|-5-5-5-5-5-5-5-------------------3-3-3-3-3---3-------------------| 
D#|-----------------6-6-6-6-6-6-6-6-----------------3-3-3-3-3---3-3-|

F#|-----------------------------------------------------------------|
C#|-----------------------------------------------------------------| 
G#|-5-5-5-5-5-5-5-------------------3-3-3-3-3-3-3-3-3-3-3-3-------3-| 
D#|-----------------6-6-6-6-6-6-6-6-------------------------3-1-----|

F#|-----------------------------------------------------------------|
C#|-----------------------------------------------------------------| 
G#|-5-5-5-5-5-5-5-------------------3-3-3-3-3---3-------------------| 
D#|-----------------6-6-6-6-6-6-6-6-----------------3-3-3-3-3---3---|

1:21
F#|---------------------------------------------------------------------|
C#|---------------------------------------------------------------------| 
G#|---------------------------------3-3-3-3-3-3-3-3-3-3-3-3-3---8-7-5---| 
D#|-6-6-6-6-6-6-6-6-6-6-6-6-3-3-1-1---------------------------6---------|

Rest

1:30
F#|-----|----------------------------------------------------------------|
C#|-----|o--------------------------------------------------------------o| 
G#|-3---|o-5-5-3-5-8-8-3-3-5-5-3-1-------5-5-3-5-8-8-3-3-5-5-3-1--------o|
D#|-----|----------------------------------------------------------------| 

F#|--------------------------------------------------------------|
C#|--------------------------------------------------------------| 
G#|--------------------------------------------------------------|
D#|-3------------------------------------------------------------|

F#|--------------------------------------------------------------|
C#|--------------------------------------------------------------| 
G#|-5-5-3-5-8-8-3-3-5-5-3-1-------5-5-3-5-8-8-3-3-5-5-3-1--------|
D#|--------------------------------------------------------------| 

F#|--------------------------------------------------------------|
C#|--------------------------------------------------------------| 
G#|----------------------------------5-/-10-10-10-10-10-10-10-10-|
D#|-3------------------------------------------------------------|
 
F#|--------------------------------------------------------------|
C#|--------------------------------------------------------------| 
G#|-5-5-3-5-8-8-3-3-5-5-3-1-------5-5-3-5-8-8-3-3-5-5-3-1--------|
D#|--------------------------------------------------------------|

1:51
F#|-------------------------------------------------------------------|
C#|-----------------5-5-5-3-3-3---------------------------------------| 
G#|---------------------------------------5-5-5-8-8-7-------7---10-10-|
D#|-3-3-3-3-3-3-3-3-------------3-3-6-6-6-------------8-8-8---8-------|

1:58
F#|-----------------------------------------------------------------|
C#|-----------------------------------------------------------------| 
G#|-5-5-5-5-5-5-5-------------------3-3-3-3-3---3-------------------| 
D#|-----------------6-6-6-6-6-6-6-6-----------------3-3-3-3-3---3-3-|

F#|-----------------------------------------------------------------|
C#|-----------------------------------------------------------------| 
G#|-5-5-5-5-5-5-5-------------------3-3-3-3-3-3-3-3-3-3-3-3-------3-| 
D#|-----------------6-6-6-6-6-6-6-6-------------------------3-1-----|

F#|-----------------------------------------------------------------|
C#|-----------------------------------------------------------------| 
G#|-5-5-5-5-5-5-5-------------------3-3-3-3-3---3-------------------| 
D#|-----------------6-6-6-6-6-6-6-6-----------------3-3-3-3-3---3---|

F#|-----------------------------------------------------------------|
C#|-----------------------------------------------------------------| 
G#|---------------------------------3-3-3-3-3-3-3-3-3-3-3-3-3---8-7-| 
D#|-6-6-6-6-6-6-6-6-6-6-6-6-3-3-1-1---------------------------6-----|

2:24
F#|-----------------------------------------------------------------|
C#|-----------------------------------------------------------------| 
G#|-5---5---5-5----------------------5---5---5-5--------------------| 
D#|-----------------------------------------------------------------|

F#|-----------------------------------------------------------------|
C#|-----------------------------------------------------------------| 
G#|-----------------3---3-3---3-3-----------------------------------| 
D#|-1---1-1---1-1-------------------3---3-3---3-3---5---5-5---5-5---|

F#|-----------------------------------------------------------------|
C#|----------------------------------15---12---10--12-\-------------| 
G#|-5---5---5-5-----------------------------------------------------| 
D#|-----------------------------------------------------------------|

F#|-----------------------------------------------------------------|
C#|-----------------------------------------------------------------| 
G#|-----------------3---3-3---3-3-----------------------------------| 
D#|-1---1-1---1-1-------------------3---3-3---3-3---5---5-5---5-5---|

F#|-----------------------------------------------------------------|
C#|-----------------------------------------------------------------| 
G#|-5---5-5---5-5---5---5-5---5-5---5---5-5---5-5---5---5-5---5-5---| 
D#|-----------------------------------------------------------------|

F#|-----------------------------------------------------------------|
C#|-----------------------------------------------------------------| 
G#|-----------------3---3-3---3-3-----------------------------------| 
D#|-1---1-1---1-1-------------------3---3-3---3-3---5---5-5---5-5---|

F#|-----------------------------------------------------------------|
C#|-----------------------------------------------------------------| 
G#|-5---5-5---5-5---5---5-5---5-5---5---5-5---5-5---5---5-5---5-5---| 
D#|-----------------------------------------------------------------|

F#|-----------------------------------------------------------------|
C#|-----------------------------------------------------------------| 
G#|-----------------3---3-3---3-3-----------------------------------| 
D#|-1---1-1---1-1-------------------3---3-3---3-3---5---5-5---5-5---|

2:48
F#|-----------------------------------------------------------------|
C#|-----------------------------------------------------------------| 
G#|-----------------------------------------------------------------|
D#|-6---6-6---6-6---6---6-6---6-6---6---6-6---6-6---1---1-1---1-1---|

F#|-----------------------------------------------------------------|
C#|-----------------------------------------------------------------| 
G#|-----------------------------------------------------------------|
D#|-3---3-3---3-3---3---3-3---3-3---3---3-3---3-3---1---1-1---1-1---|

F#|-----------------------------------------------------------------|
C#|-----------------------------------------------------------------| 
G#|-----------------------------------------------------------------| 
D#|-5---5-5---5-5---5---5-5---5-5---5---5-5---5-5---5---5-5---5-5---|

F#|-----------------------------------------------------------------|
C#|-----------------------------------------------------------------| 
G#|---------------------------------3---3---3---3---3---3---3---3---|
D#|-6---6-6---6-6---6---6-6---6-6-----------------------------------|

3:00
F#|-----------------------------------------------------------------|
C#|-----------------------------------------------------------------| 
G#|-5-5-5-5-5-5-5-5-1-1-1-1-1-1-1-1-3-3-3-3-3-3-3-3-3-3-3-3-3-3-3-3-| 
D#|-----------------------------------------------------------------|

F#|-----------------------------------------------------------------|
C#|-------------5-7-8-8-8-7-7-7-----5-5-5---------------------------| 
G#|-5-5-5-5-5-5-----------------8-8-------3-3-3-3-3-3-3-3-3-1-1-3-3-| 
D#|-----------------------------------------------------------------|

F#|-----------------------------------------------------------------|
C#|-----------------------------------------------------------------| 
G#|-5-5-5-5-5-5-5-5-1-1-1-1-1-1-1-1-3-3-3-3-3-3-3-3-3-3-3-3-3-3-3-3-| 
D#|-----------------------------------------------------------------|

3:17
F#|-----------------------------------------------------------------|
C#|-----------------------------------------------------------------| 
G#|-5-5-5-5-5-5-5-5-1-1-1-1-1-1-1-1-3-3-3-3-3-3-3-3-3-0-1-3-1-3-7-8-| 
D#|-----------------------------------------------------------------|

3:23
F#|-----------------------------------------------------------------|
C#|-----------------------------------------------------------------| 
G#|-5-5-5-5-5-5-5-5-1-1-1-1-1-1-1-1-3-3-3-3-3-3-3-3-----------------| 
D#|-------------------------------------------------3-3-3-3-3-3-3-3-|

F#|-----------------------------------------------------------------|
C#|-----------------------------------------------------------------| 
G#|-5-5-5-5-5-5-5-5-1-1-1-1-1-1-1-1-3-3-3-3-3-3-3-3---------7-7-3-3-| 
D#|-------------------------------------------------3-3-1-1---------|

3:35
F#|-----------------------------------------------------------------|
C#|-----------------------------------------------------------------| 
G#|-5-5-5-5-5-5-5-5-1-1-1-1-1-1-1-1-3-3-3-3-3-3-3-3-----------------| 
D#|-------------------------------------------------3-3-3-3-3-3-3-3-|

F#|-----------------------------------------------------------------|
C#|-----------------------------------------------------------------| 
G#|---------------------------------3-3-3-3-3-3-3-3-3-3-3-3-3-3-3-3-| 
D#|-6-6-6-6-6-6-6-6-6-6-6-6-3-3-1-1---------------------------------|

3:47
F#|-------------------------------------------------------------------------------|
C#|-12-12-12-12-------------------------------------------------------------------| 
G#|-------------13-13-13-13-12-12-12-12-8-8-10-10-3-3-3-3-3-3-3-3-3-3-3-3-8---7---|
D#|-------------------------------------------------------------------------------| 

F#|--------------------------------------------14---19-\------------|
C#|----------------------------------12---15------------------------| 
G#|-5---5---5-5-----------------------------------------------------| 
D#|-----------------------------------------------------------------|

Broken Mirrors

0:06
F#|------}---------------------------|
C#|------|o-------------------------o|
G#|------|o-------------------------o| x8
D#|-12-\-|--0---0-0---0-0---0-3-2-3--|

0:20
F#|-------------------------------------------------|
C#|-------------------------------------------------|
G#|-------------------------------------------------|
D#|-0---0-0---0-0---0-0---0-0---0-0---0-0---0-3-2-3-|

F#|-------------------------------------------------|
C#|-------------------------------------------------|
G#|-------------------------------------------7-7-7-|
D#|-0---0-0---0-0---0-0---0-0---0-0---0-0---0-------|

F#|-------------------------------------------------|
C#|-------------------------------------------------|
G#|-------------------------------------------------|
D#|-0---0-0---0-0---0-0---0-0---0-0---0-0---0-3-2-3-|

F#|-------------------------------------------------|
C#|-------------------------------------------------|
G#|-------------------------------------------------|
D#|-0---0-0---0-0---0-0---0-0---0-0---0-0---0-0-0-0-|

0:33
F#|-------------------------------------------------|
C#|-------------------------------------------------|
G#|-------------------------------------------------|
D#|-3-3-3-3-3-3-3-3-3-3-3-3-5-5-5-5-5-5-5-5-5-5-5-5-|

F#|-------------------------------------------------|
C#|-------------------------------------------------|
G#|-------------------------------------------------|
D#|-0---0-0---0-0---0-0---0-0---0-0---0-0---0-3---0-|

F#|-------------------------------------------------|
C#|-------------------------------------------------|
G#|-------------------------------------------------|
D#|-3-3-3-3-3-3-3-3-3-3-3-3-5-5-5-5-5-5-5-5-5-5-5-5-|

F#|-------------------------------------------------|
C#|-------------------------------------------------|
G#|-------------------------7-7-7-7-7-7-7-7-7-7-7-7-|
D#|-0---0-0---0-0---0-0---0-------------------------|

0:47
F#|-------------------------------------------------|
C#|-------------------------------------------------|
G#|-------------------------3---3-3---3-3---3-3-----|
D#|-0---0-0---0-0---0-0-----------------------------|

F#|-------------------------------------------------|
C#|-------------------------------------------------|
G#|-------------------------5---5-5---5-5---5-5---5-|
D#|-3---3-3---3-3---3-3---3-------------------------|

0:54
F#|-------------------------------------------------|
C#|-------------------------------------------------|
G#|-------------------------3---3-3---3-3---3-3---3-|
D#|-0---0-0---0-0---0-0-----------------------------|

F#|-------------------------------------------------|
C#|-------------------------------------------------|
G#|-------------------------5-5-5-5-5-5-5-5-5-5-5-5-|
D#|-3---3-3---3-3---3-3---3-------------------------|

1:00
F#|-------------------------------------------------|
C#|-------------------------------------------------|
G#|-7---7-7---7-7---7-7-----3---3-3---3-3---3-3---3-|
D#|-------------------------------------------------|

F#|-------------------------------------------------|
C#|-5-----5-----9-----10----7-----------------------|
G#|-----------------------------5-5---5-5---5-5---5-|
D#|-------------------------------------------------|

1:07
F#|-------------------------------------------------|
C#|-------------------------------------------------|
G#|-------------------------3---3-3---3-3---3-3-----|
D#|-0---0-0---0-0---0-0-----------------------------|

F#|-------------------------------------------------|
C#|-------------------------------------------------|
G#|-------------------------------------------------|
D#|-3---3-3---3-3---3-3---3-5-5-5-5-----2-2-2-2-----|

F#|-------------------------------------------------|
C#|-------------------------------------------------|
G#|-------------------------------------------------|
D#|-0------------------------------------------12-\-|

1:17
F#|---------------------------------------------------|
C#|o-------------------------------------------------o|
G#|o-------------------------------------------------o|
D#|--0---0-0---0-0---0-3-2-3-0---0-0---0-0---0-3-2-3--|

1:23
F#|-------------------------------------------------|
C#|-------------------------------------------------|
G#|-------------------------------------------------|
D#|-0---0-0---0-0---0-0---0-0---0-0---0-0---0-0---0-|

F#|-------------------------------------------------|
C#|-------------------------------------------------|
G#|-----------------------------------------7-7-7-7-|
D#|-0---0-0---0-0---0-0---0-0---0-0---0-0-----------|

F#|-------------------------------------------------|
C#|-------------------------------------------------|
G#|-------------------------------------------------|
D#|-0---0-0---0-0---0-0---0-0---0-0---0-0---0-3-2-3-|

F#|-------------------------------------------------|
C#|-------------------------------------------------|
G#|-------------------------------------------------|
D#|-0---0-0---0-0---0-0---0-0---0-0---0-0---0-0-0-0-|

1:37
F#|-------------------------------------------------|
C#|-------------------------------------------------|
G#|-------------------------------------------------|
D#|-3-3-3-3-3-3-3-3-3-3-3-3-5-5-5-5-5-5-5-5-5-5-5-5-|

F#|-------------------------------------------------|
C#|-------------------------------------------------|
G#|-------------------------------------------------|
D#|-0---0-0---0-0---0-0---0-0---0-0---0-0---0-3---0-|

F#|-------------------------------------------------|
C#|-------------------------------------------------|
G#|-------------------------------------------------|
D#|-3-3-3-3-3-3-3-3-3-3-3-3-5-5-5-5-5-5-5-5-5-5-5-5-|

1:47
F#|-------------------------------------------------|
C#|-5-5-5-4-4-4-------------5-7-7-7-7-7-7-7-7-7-7-7-|
G#|-------------5-5-5-0-0-0-------------------------|
D#|-------------------------------------------------|

1:51
F#|-------------------------------------------------|
C#|-------------------------------------------------|
G#|-7-----------------------3---3-3---3-3---3-3-----|
D#|-----0-0---0-0---0-0-----------------------------|

F#|-------------------------------------------------|
C#|-------------------------------------------------|
G#|-------------------------5---5-5---5-5---5-5---5-|
D#|-3---3-3---3-3---3-3---3-------------------------|

1:57
F#|-------------------------------------------------|
C#|-------------------------------------------------|
G#|-7-----------------------3---3-3---3-3---3-3---3-|
D#|-----0-0---0-0---0-0-----------------------------|

F#|-------------------------------------------------|
C#|-------------------------------------------------|
G#|-------------------------5-5-5-5-5-5-5-5-5-5-5-5-|
D#|-3---3-3---3-3---3-3---3-------------------------|

2:04
F#|-------------------------------------------------|
C#|-------------------------------------------------|
G#|-5---7-7---7-7---7-7-----3---3-3---3-3---3-3---3-|
D#|-------------------------------------------------|

F#|-------------------------------------------------|
C#|-5-----5-----9-----10----7-----------------------|
G#|-----------------------------5-5---5-5---5-5---5-|
D#|-------------------------------------------------|

2:11
F#|-------------------------------------------------|
C#|-------------------------------------------------|
G#|-7-----------------------3---3-3---3-3---3-3-----|
D#|-----0-0---0-0---0-0-----------------------------|

F#|-------------------------------------------------|
C#|-------------------------------------------------|
G#|-------------------------------------------------|
D#|-3---3-3---3-3---3-3---3-5-5-5-5-----2-2-2-2-----|

F#|-------------------------------------------------|
C#|-------------------------------------------------|
G#|-----------------------------------------------5-|
D#|-0-----------------------------------------------|

F#|-------------------------------------------------|
C#|-------------------------------------------------|
G#|-7-----------------------------------------7---5-|
D#|-------------------------------------------------|

2:26
F#|-------------------------------------------------------------------|
C#|o---------------------5-----7-------------------------5-----------o|
G#|o---------7-------------------------------7-----------------5-----o|
D#|--0-0-0-0---0-0-0-0-0---0-0---0-0-0-0-0-0---0-0-0-0-0---0-0---0-0--|

2:35
F#|-------------------------------------------------------------------| 
C#|o---------------------5-----7-------------------------5-----------o|
G#|o---------7-------------------------------7-----------------5-----o|
D#|--0-0-0-0---0-0-0-0-0---0-0---0-0-0-0-0-0---0-0-0-0-0---0-0---0-0--|

2:45
F#|---------------------7-----9-------------------------7-----5---4-|
C#|-----------------------------------------------------------------|
G#|---------7-------------------------------7-----------------------|
D#|-0-0-0-0---0-0-0-0-0---0-0---0-0-0-0-0-0---0-0-0-0-0---0-0-------|

F#|---------------------7-----9-----------------------4---7---7---4-|
C#|---------9-------------------------------------------------------|
G#|-----------------------------------------7-----------------------|
D#|-0-0-0-0---0-0-0-0-0---0-0---0-0-0-0-0-0---0-0-0-0---------------|

2:53
F#|-----------------------------------------------------------------|
C#|-----------------------------------------------------------------|
G#|-3-3-3---3-3-3---3-3-3---3-3-3---3-3-2-2-0-0---------------------|
D#|---------------------------------------------3-3-2-2-0-0-2-2-3-3-|

F#|-----------------------------------------------------------------|
C#|-----------------------------------------------------------------|
G#|-5-5-5---5-5-5---5-5-5---5-5-5---5-5-5-5-5-5-5-5-5-5-5-5-3---5---|
D#|-----------------------------------------------------------------|

3:02
F#|-----------------------------------------------------------------|
C#|-----------------------------------------------------------------|
G#|-------------------------------------------------------------3-/-|
D#|-0---------------------------------------------------------------|

3:08
F#|-----------------------------------------------------------------|
C#|---------------------------------9-------10---9---7--------------|
G#|-7---------------10----------------------------------------------|
D#|----------------------------------------------------------/-12-\-|

3:16
F#|-------------------------------------------------|
C#|-------------------------------------------------|
G#|-7-----------------------3---3-3---3-3---3-3-----|
D#|-----0-0---0-0---0-0-----------------------------|

F#|-------------------------------------------------|
C#|-------------------------------------------------|
G#|-------------------------5---5-5---5-5---5-5---5-|
D#|-3---3-3---3-3---3-3---3-------------------------|

3:22
F#|-------------------------------------------------|
C#|-------------------------------------------------|
G#|-7-----------------------3---3-3---3-3---3-3-----|
D#|-----0-0---0-0---0-0-----------------------------|

F#|-------------------------------------------------|
C#|-------------------------------------------------|
G#|-------------------------5-5-5-5-5-5-5-5-5-5-5-5-|
D#|-3---3-3---3-3---3-3---3-------------------------|

3:29
F#|-------------------------------------------------|
C#|-------------------------------------------------|
G#|-5---7-7---7-7---7-7-----3---3-3---3-3---3-3-----|
D#|-------------------------------------------------|

F#|-------------------------------------------------|
C#|-5-----5-----9-----10----12--0-0---0-5---5-4---4-|
G#|-------------------------------------------------|
D#|-------------------------------------------------|

F#|-------------------------------------------------|
C#|-------------------------------------------------|
G#|-7-----------------------3---3-3---3-3---3-3-----|
D#|-----0-0---0-0---0-0-----------------------------|

F#|-------------------------------------------------------------|
C#|-------------------------------------------------------------|
G#|-------------------------------------------------------------|
D#|-3---3-3---3-3---3-3-----5-----------2-----------0-----------|

Wait For Me

0:45
F#|-------------------------------------------------------------------------|
C#|-------------------------------------------------------------------------|
G#|-3-3-3-3-3-3-3-3-5-5-5-5-5-5-5-5-7-7-7-7-7-7-7-7-10-10-10-10-10-10-10-10-|
D#|-------------------------------------------------------------------------|

F#|-----------------------------------------------------------------|
C#|-----------------------------------------------------------------|
G#|-3-3-3-3-3-3-3-3-5-5-5-5-5-5-5-5-7-7-7-7-7-7-7-7-7-3-5-7---5-3-2-|
D#|-----------------------------------------------------------------|

0:58
F#|-------------------------------------------------------------------------|
C#|-------------------------------------------------------------------------|
G#|-3-3-3-3-3-3-3-3-5-5-5-5-5-5-5-5-7-7-7-7-7-7-7-7-10-10-10-10-10-10-10-10-|
D#|-------------------------------------------------------------------------|

F#|-----------------------------------------------------------------|
C#|-----------------------------------------------------------------|
G#|-3-3-3-3-3-3-3-3-3-3-3-3-3-3-3-2-5-5-5-5-5-5-5-5-5-5-5-5-5-5-----|
D#|-------------------------------------------------------------3-2-|

1:11
F#|-----------------------------------------------------------------|
C#|-----------------------------------------------------------------|
G#|---------------------------------5-5-5-5-5-5-5-5-5-5-5-5-5-5-5-5-|
D#|-0-0-0-0-0-0-0-0-3-3-3-3-3-3-3-3---------------------------------|

F#|-----------------------------------------------------------------|
C#|-----------------------------------------------------------------|
G#|-3-3-3-3-3-3-3-3-3-3-3-3-3-3-3-3-5-5-5-5-5-5-5-5-5-5-5-5-3-2-----|
D#|-------------------------------------------------------------3-2-|

1:24
F#|-----------------------------------------------------------------|
C#|-----------------------------------------------------------------|
G#|---------------------------------5-5-5-5-5-5-5-5-5-5-5-5-5-5-5-5-|
D#|-0-0-0-0-0-0-0-0-3-3-3-3-3-3-3-3---------------------------------|

F#|---------------------------------------------------------7-------|
C#|-------------------------------------------------------7---7-5-4-|
G#|-3-3-3-3-3-3-3-3-3-3-3-3-3-3-3-3-5-5-5-5-5-5-5-5-5-5-5-----------|
D#|-----------------------------------------------------------------|

F#|-----------------------------------------------------------------|
C#|-2-2-2-2-2-2-2-2-------------------------------------------------|
G#|---------------------------------5-5-5-5-5-5-5-5-5-5-5-5-5-5-5-5-|
D#|-----------------3-3-3-3-3-3-3-3---------------------------------|

F#|-----------------------------------------------------------------|
C#|---------------------------------------------------------4-4-5-5-|
G#|-3-3-3-3-3-3-3-3-3-3-3-3-3-3-3-3-5-5-5-5-5-5-5-5-5-5-5-5---------|
D#|-----------------------------------------------------------------|

F#|----------------------------------------------------------------------|
C#|-----------------------------------------------7/12-12-12-12-12-0-5-4-|
G#|-3-3-3-3-3-3-3-3-3-3-3-3-3-3-3-3-5-5-5-5-5-5-5------------------------|
D#|----------------------------------------------------------------------|

1:56
F#|-------------------------------------------------------------------------|
C#|-------------------------------------------------------------------------|
G#|-3-3-3-3-3-3-3-3-5-5-5-5-5-5-5-5-7-7-7-7-7-7-7-7-10-10-10-10-10-10-10-10-|
D#|-------------------------------------------------------------------------|

F#|-----------------------------------------------------------------|
C#|-----------------------------------------------------------------|
G#|-3-3-3-3-3-3-3-3-5-5-5-5-5-5-5-5-7-7-7-7-7-7-7-7-------7-----3-2-|
D#|-------------------------------------------------0-2-3-----0-----|

F#|------------------------------------------------------------------------|
C#|----------------------------------------------------------------------9-|
G#|-3-3-3-3-3-3-3-3-5-5-5-5-5-5-5-5-7-7-7-7-7-7-7-7-10-10-10-10-10-10-10---|
D#|------------------------------------------------------------------------|

F#|-----------------------------------------------------------------|
C#|---------------7-9-9-9-7-7-7-5-5-----------------------4-5-5-----|
G#|-3-3-3-3-3-3-3-------------------5-5-5-5-5-5-5-5-5-5-5-------5-5-|
D#|-----------------------------------------------------------------|

2:21
F#|---------11--12--14------11--12--14------12--11------------------|
C#|-----------------------------------------------------------------|
G#|-----------------12--------------12--------------3-3-3-3-3-3-3-3-|
D#|-0---------------------------------------------------------------|

2:28
F#|---------11--12--14------11--12----------------------------------|
C#|-----------------------------------------------------------------|
G#|-----------------12--------------3-3-3-3-3-3-3-3-3-3-3-3-3-3-3-3-|
D#|-0---------------------------------------------------------------|

2:34
F#|-----------------------------------------------------------------|
C#|-----------------------------------------------------------------|
G#|-7-7-7-7-7-7-7-7-5-5-5-5-5-5-5-7-5-5-5-5-5-5-7-5-3-3-3-3-3-3-3-3-|
D#|-----------------------------------------------------------------|

F#|------------------------------------------------------------------|
C#|---------------------------------------------------------10-9-----|
G#|-7-7-7-7-7-7-7-7-5-5-5-5-7-7-5-5-3-3-3-3-3-3-3-3-3-3-3-3------7-5-|
D#|------------------------------------------------------------------|

2:47
F#|-----------------------------------------------------------------|
C#|-----------------------------------------------------------------|
G#|-7-7-7-7-7-7-7-7-5-5-5-5-5-5-5-----------------2-3-3-3-3-3-3-3-3-|
D#|-------------------------------3-2-2-2-2-3-2-3-------------------|

F#|-----------------------------------------------------------------|
C#|-----------------------------------------------------------------|
G#|-7-7-7-7-7-7-7-7-5-5-5-5-7-7-5-5-3-3-3-3-3-3-3-3---------7-5-3-2-|
D#|-------------------------------------------------3-2-2-3---------|

3:00
F#|-------------------------------------------------------------------------|
C#|-------------------------------------------------------------------------|
G#|-3-3-3-3-3-3-3-3-5-5-5-5-5-5-5-5-7-7-7-7-7-7-7-7-10-10-10-10-10-10-10-10-|
D#|-------------------------------------------------------------------------|

F#|------------------------------------------------------------------|
C#|------------------------------------------------------------------|
G#|-3-3-3-3-3-3-3-3-5-5-5-5-5-5-5-5-7-7-7-7-7-7-7-----5-7-10---7-5-2-|
D#|-----------------------------------------------0-3----------------|

F#|-------------------------------------------------------------------------|
C#|-------------------------------------------------------------------------|
G#|-3-3-3-3-3-3-3-3-5-5-5-5-5-5-5-5-7-7-7-7-7-7-7-7-10-10-10-10-10-10-10-10-|
D#|-------------------------------------------------------------------------|

F#|-------------------------------------------------------------------------|
C#|-------------------------------------------------------------------------|
G#|-3-3-3-3-3-3-3-3-3-3-3-3-3-3-3-2-5-5-5-5-5-5-5-5-5-5-5-5-----------------|
D#|---------------------------------------------------------3-3-2-2-0-------|

A Gentlemen's Coup

0:04
F#|-----------------------------------------------------------------|
C#|-----------------------------------------------------------------|
G#|-----------------3---3-3-3-3-3-3---------------------------------|
D#|-0---0-0-0-0-0-0-----------------5---5-5-5-5-5-5-3---3---2---2---|

F#|-----------------------------------------------------------------|
C#|-----------------------------------------------------------------|
G#|-----------------3---3-3-3-3-3-3-------------------------5---5---|
D#|-0---0-0-0-0-0-0-----------------5---5-5-5-5-5-5-3---3-----------|

F#|-----------------------------------------------------------------|
C#|-----------------------------------------------------------------|
G#|-----------------3---3-3-3-3-3-3---------------------------------|
D#|-0---0-0-0-0-0-0-----------------5---5-5-5-5-5-5-3---3---2---2---|

F#|-----------------------------------------------------------------|
C#|-----------------------------------------------------------------|
G#|-----------------3---3-3-3-3-3-3---------------------------------|
D#|-0---0-0-0-0-0-0-----------------5---5-5-5-5-5-5-3---------------|

0:22
F#|---------------------------------------------------|
C#|o-------------------------------------------------o|
G#|o-----------------------------------------5---5---o| x3
D#|--0---------------0---0-----------3---3------------|

F#|-----------------------------------------------------------------|
C#|-----------------------------------------------------------------|
G#|-3---3-3-3-3-3---3---3-3-3-3-3---3---3-3-3-3-3-----------5---5---|
D#|-------------------------------------------------3---3-----------|

0:38
F#|---------------------------------------------------|
C#|o-------------------------------------------------o|
G#|o-----------------------------------------5---5---o|
D#|--0---------------0---0-----------3---3------------|

0:45
F#|-------------------------------------------------|
C#|-------------------------------------------------|
G#|---------------7-------------------------5---5---|
D#|-0---0---0---0-------0---0---0---3---3-----------|

F#|-----------------------------------------------------------------|
C#|-----------------------------------------------------------------|
G#|-3---3-3-3-3-3---3---3-3-3-3-3---3---3-3-3-3-3-----------5---5---|
D#|-------------------------------------------------3---3-----------|

0:53
F#|-----------------------------------------------------------------|
C#|-----------------------------------------------------------------|
G#|-----------------3---3-3-3-3-3-3---------------------------------|
D#|-0---0-0-0-0-0-0-----------------5---5-5-5-5-5-5-3---3---2---2---|

F#|-----------------------------------------------------------------|
C#|-----------------------------------------------------------------|
G#|-----------------3---3-3-3-3-3-3-------------------------5---5---|
D#|-0---0-0-0-0-0-0-----------------5---5-5-5-5-5-5-3---3-----------|

1:02
F#|-----------------------------------------------------------------|
C#|-----------------------------------------------------------------|
G#|---------7-----2-3---3---3-----3---------------------------------|
D#|-0---0---------------------------5---5-5---5-5-5-3---3---2---2---|

F#|-----------------------------------------------------------------|
C#|-----------------------------------------------------------------|
G#|-----------------3---3-3-3-3-3-3-------------------------5---5---|
D#|-0---0-0-0-0-0-0-----------------5---5-5-5-5-5-5-3---3-----------|

1:11
F#|-----------------------------------------------------------------|
C#|-----------------------------------------------------------------|
G#|-3---3-3---3-3-3---3-3-3-------------------------2---------------|
D#|---------------------------3-3-3-5---5-5-5-5-5-5-----------------|

1:16
F#|-----------------------------------------------------------------|
C#|-----------------------------------------------------------------|
G#|-------------------------------------------------5---------------|
D#|-0---0-3-2-3-2-0-0---0-3-0-3-4-5-0---0-3-2-3-2-0-----------------|

1:21
F#|---------------------------------------------------|
C#|o-------------------------------------------------o|
G#|o-----------------------------------------5---5---o|
D#|--0---------------0---0-----------3---3------------|

1:28
F#|-------------------------------------------------|
C#|---------------5---------------------------------|
G#|-----7---7-------------------------------5---5---|
D#|-0-----------0-------0---0---0---3---3-----------|

F#|-----------------------------------------------------------------|
C#|-----------------------------------------------------------------|
G#|-3---3-3-3-3-3---3---3-3-3-3-3---3---3-3-3-3-3-----------5---5---|
D#|-------------------------------------------------3---3-----------|

1:36
F#|-----------------------------------------------------------------|
C#|-----------------------------------------------------------------|
G#|-0---0---0---0---0---0---0---0-2-----2---2---2---5---------------|
D#|-----------------------------------------------------------------|

1:40
F#|-----------------------------------------------------------------|
C#|-----------------------------------------------------------------|
G#|-----------------3---3-3-3-3-3-3---------------------------------|
D#|-0---0-0-0-0-0-0-----------------5---5-5-5-5-5-5-3---3---2---2---|

F#|-----------------------------------------------------------------|
C#|-----------------------------------------------------------------|
G#|-----------------3---3-3-3-3-3-3-------------------------5---5---|
D#|-0---0-0-0-0-0-0-----------------5---5-5-5-5-5-5-3---3-----------|

1:50
F#|-----------------------------------------------------------------|
C#|-----------------------------------------------------------------|
G#|---------7-----2-3---3---3-----3---------------------------------|
D#|-0---0---------------------------5---5-5---5-5-5-3---3---2---2---|

F#|-----------------------------------------------------------------|
C#|-----------------------------------------------------------------|
G#|-----------------3---3-3-3-3-3-3-------------------------5---5---|
D#|-0---0-0-0-0-0-0-----------------5---5-5-5-5-5-5-3---3-----------|

2:00
F#|-----------------------------------------------------------------|
C#|-----------------------------------------------------------------|
G#|-3---3-3---3-3-3---3-3-3-------------------------2---------------|
D#|---------------------------3-3-3-5---5-5-5-5-5-5-----------------|

2:04
F#|-----------------------------------------------------------------|
C#|-----------------------------------------------------------------|
G#|-----------------------------------------------------------------|
D#|-0---------------------------------------------------------------|

F#|-----------------------------------------------------------------|
C#|-----------------------------------------------------------------|
G#|-----------------------------------------------------------------|
D#|-(0)-------------------------------------------------------------|

F#|-----------------------------------------------------------------|
C#|-----------------------------------------------------------------|
G#|-----------------------------------------------------------------|
D#|-0-------------------------------2-------------------------------|

F#|-----------------------------------------------------------------|
C#|-----------------------------------------------------------------|
G#|-----------------------------------------------------------------|
D#|-3-------------------------------5-------------------------------|

F#|-----------------------------------------------------------------|
C#|-14------------------------------12---------------17-----16------|
G#|-----------------------------------------------------------------|
D#|-----------------------------------------------------------------|

F#|-----------------------------------------------------------------|
C#|-10--------------------------------------------------------------|
G#|---------------------------------3---3---3---3---5---5---5---5---|
D#|-----------------------------------------------------------------|

2:33
F#|--------------------------------------------------------------12h14-|
C#|--------------------------------------------------------------------|
G#|--------------------------------------------------------------------|
D#|-3------------------------------------------------------------------|

F#|-12--------------------------------------------------------------|
C#|-----------------------------------------------------------------|
G#|-----------------------------------------------------------------|
D#|-------------------------------------------------------------0---|

F#|-----------------------------------------------------------------|
C#|-----------------------------------------------------------------|
G#|-------------------------------------------------3---3---3---3---|
D#|-3---3---3---3---5---5---5---5---0---0---0---0-------------------|

F#|---------------------------------------------------------------------|
C#|---------------------------------------------------------------------|
G#|-------------------------------------------------3---3---3---3---3---|
D#|-3---3---3---3---5---5---5---5---0---0---0---0-----------------------|

F#|-----------------------------------------------------------------|
C#|-----------------------------------------------------------------|
G#|-------------------------------------------------3---3---3---3---|
D#|-3---3---3---3---5---5---5---5---0---0---0---0-------------------|

F#|-----------------------------------------------------------------|
C#|-----------------------------------------------------------------|
G#|---------------------------------7---7---7-------3---3---3---3---|
D#|-3---3---3---3---5---5---5---5-----------------------------------|

3:02
F#|-----------------------------------------------------------------|
C#|-5---5---9---5---7---0---0---0---2---2---4---5-------------------|
G#|-------------------------------------------------3---3---3---3---|
D#|-----------------------------------------------------------------|

3:08
F#|---------------------------------|
C#|---------------------------------|
G#|---------------------------------|
D#|-3---3---3---3---5---5---5---5---|

F#|-----------------------------------------------------------------|
C#|------------------10-------------7---------------5---5---4---4---|
G#|-7---------------------------------------------------------------|
D#|-0----------------8--------------5---------------3---3---2---2---|

F#|-----------------------------------------------------------------|
C#|------------------10-------------7-------------------------------|
G#|-7---------------------------------------------------------------|
D#|-0----------------8--------------5---------------3---------------|

3:19
F#|-----------------------------------------------------------------|
C#|-----------------------------------------------------------------|
G#|-----------------3---3-3---3-3-3---------------------------------|
D#|-0---0-0---0-0-0-----------------5---5-5---5-5-5-3---3---2---2---|

F#|-----------------------------------------------------------------|
C#|-----------------------------------------------------------------|
G#|-----------------3---3-3-3-3-3-3-------------------------5---5---|
D#|-0---0-0-0-0-0-0-----------------5---5-5-5-5-5-5-3---3-----------|

F#|-----------------------------------------------------------------|
C#|-----------------------------------------------------------------|
G#|---------7-----2-3---3---3-----3---------------------------------|
D#|-0---0---------------------------5---5-5---5-5-5-3---3---2---2---|

F#|-----------------------------------------------------------------|
C#|-----------------------------------------------------------------|
G#|-----------------3---3-3-3-3-3-3-------------------------5---5---|
D#|-0---0-0-0-0-0-0-----------------5---5-5-5-5-5-5-3---3-----------|

2:00
F#|-----------------------------------------------------------------|
C#|-----------------------------------------------------------------|
G#|-3---3-3---3-3-3---3-3-3-------------------------2---------------|
D#|---------------------------3-3-3-5---5-5-5-5-5-5-----------------|

This Is Letting Go

0:09
F#|---------------------------------------------------------------------|
C#|-2--/4-4-4-6-6-6-7-7-9-9-9-7-7-7-6-6---------------------------------|
G#|-----------------------------------------------------7-7-7-7-7-7-7-7-|
D#|-------------------------------------0-0-0-0-0-0-0-0-----------------|

F#|-----------------------------------------------------------------|
C#|-----------------------------------------------------------------|
G#|-9-9-9-9-9-9-9-9-5-5-5-5-5-5-5-5-0-0-0-0-0-0-0-0-7-7-7-7-7-7-7-7-|
D#|-----------------------------------------------------------------|

F#|---------------------------------------------------------------------|
C#|---------------------------------------------------------------------|
G#|-9-9-9-9-9-9-9-9-5-5-5-5-5-5-5-5-----------------7-7-7-7-5-4-7---9---|
D#|---------------------------------0-0-0-0-0-0-0-0---------------------|

Rest

0:30
F#|-----------------------------------------------------------------|
C#|-----------------------------------------------------------------|
G#|-----------------5-5-5-5-5-5-5-5-7-7-7-7-7-7-7-7-7-7-7-7-7-7-7-7-|
D#|-2-2-2-2-2-2-2-2-------------------------------------------------|

F#|-----------------------------------------------------------------|
C#|-----------------------------------------------------------------|
G#|-----------------5-5-5-5-5-5-5-5-0-0-0-0-0-0-0-0-7-7-7-7-7-7-7-7-|
D#|-2-2-2-2-2-2-2-2-------------------------------------------------|

F#|-----------------------------------------------------------------|
C#|-----------------------------------------------------------------|
G#|-9-9-9-9-9-9-9-9-5-5-5-5-5-5-5-5-7-7-7-7-7-7-7-7-7-7-7-7-7-7-2-4-|
D#|-----------------------------------------------------------------|

0:45
F#|------------------------------------------------------------------|
C#|---------------------------------------------------------11-9-7-6-|
G#|-5-----4-4-----2-2-----0-0-----------------------7-7-7-7----------|
D#|-------------------------------0-0-0-0-0-0-0-0-0------------------|

0:50
F#|-----------------------------------------------------------------|
C#|---------------------------------------------6-7---6-------------|
G#|-0-0-0-0-0-0-0-0---0-0---0-0-0-0-7-7-7-7-7-7---------7---7-7-7-7-|
D#|-----------------------------------------------------------------|

F#|-----------------------------------------------------------------------|
C#|-------------11---9-9-9-11-11-11-11-11---------------------------------|
G#|-9-9-9-7-9-----------------------------5-5-9-9-9-7-7-7-5-5-5-5-5-5-5-5-|
D#|-----------------------------------------------------------------------|

1:00
F#|-----------------------------------------------------------------|
G#|---------------------------------------------6-7---6-------------|
G#|-0---4p0-5p0-5-4---4p0-5p0-5---7---7-7-7-7-7---------7---7-7-7-7-|
D#|-----------------------------------------------------------------|

1:05
F#|--------------------------------------------------13---14-------------14-|
C#|-----------------9-9-9-11-11-11-11-11-0-0-0-0-0-0-----------------0------|
G#|-9-----7-9---7-----------------------------------------------------------|
D#|-------------------------------------------------------------------------|

F#|-------------------------------------|
C#|-------------------------------------|
G#|-5---5-5---5-5-5-7---7-7---7-7-7-----|
D#|-------------------------------------|

1:12
F#|-----------------------------------------------------------------|
C#|-----------------------------------------------------------------|
G#|-9-9-9-9-9-9-9-9-5-5-5-5-5-5-5-5-0-0-0-0-4-4-5-5-2-2-2-2---------|
D#|---------------------------------------------------------0-0-0-0-|

F#|-----------------------------------------------------------------|
C#|-----------------------------------------------------------------|
G#|-9-9-9-9-9-9-9-9-5-5-5-5-5-5-5-5-7-7-7-7-7-7-7-7-7-7-7-7-7-7-7-7-|
D#|-----------------------------------------------------------------|

1:22
F#|-----------------------------------------------------------------|
C#|-----------------------------------------------------------------|
G#|-----------------5-5-5-5-5-5-5-5-0-0-0-0-0-0-0-0-----------------|
D#|-2-2-2-2-2-2-2-2---------------------------------0-0-0-0-0-0-0-0-|

F#|-----------------------------------------------------------------|
C#|-----------------------------------------------------------------|
G#|-----------------5-5-5-5-5-5-5-5-------------------------5-5-7-7-|
D#|-2-2-2-2-2-2-2-2-----------------0-0-0-0-0-0-0-0-0-0-0-0---------|

F#|-----------------------------------------------------------------|
C#|-----------------------------------------------------------------|
G#|-9-9-9-9-9-9-9-9-5-5-5-5-5-5-5-5-0-0-0-0-0-0-0-0-7-7-7-7-7-7-7-7-|
D#|-----------------------------------------------------------------|

F#|-----------------------------------------------------------------|
C#|-----------------------------------------------------------------|
G#|-9-9-9-9-9-9-9-9-5-5-5-5-5-5-5-5-7-7-7-7-7-7-7-7-7-7-7-7-7-7-2-4-|
D#|-----------------------------------------------------------------|

1:42
F#|----------------------------------------------------|
C#|----------------------------------------------------|
G#|-5-----4-4-----2-2-----0-0----------------------7---|
D#|------------------------------0-0-0-0-0-0-0-0-0-----|

1:47
F#|-----------------------------------------------------------------|
C#|---------------------------------------------6-7---6-------------|
G#|-0-0-0-0-0-0-0-0---0-0---0-0-0-0-7-7-7-7-7-7---------7---7-7-7-7-|
D#|-----------------------------------------------------------------|

F#|-----------------------------------------------------------------|
C#|-----------------------------------------------------------------|
G#|-9-9-9-7---9-7---2---4---5-5-5-5-5-5-9-9-9-7-7-7-5-5-5-5-5-5-5-5-|
D#|-----------------------------------------------------------------|

1:57
F#|-----------------------------------------------------------------|
C#|---------------------------------------------6-7---6-------------|
G#|-0---4p0-5p0-5-4---4p0-5p0-5---7---7-7-7-7-7---------7---7-7-7-7-|
D#|-----------------------------------------------------------------|

F#|-----------------------------------------------------------------|
C#|-----------------------------------------------------------------|
G#|-9-----7-9---7---2---4----5-5-5-5-5-5-5-5-5-5-5-5-5-5-5-5-2--4---|
D#|-----------------------------------------------------------------|

2:06
F#|-----------------------------------------------------------------------------|
C#|-----------------------------------------------------------------------------|
G#|-----------------------5----5----5----5------------------------9------7------|
D#|-2--4--5--7----5--4------------------------2--4--5--7----5--4----------------|

F#|---------------------------------------------------------------------------------|
C#|---------------------------------------------------------------------------------|
D#|-9-9-9-9-9-9-9-9-9-9-9-9-9-9-9-9/17-17-17-17-17-17-17-17-17-17-17-17-17-17-17-17-|
D#|---------------------------------------------------------------------------------|

F#|-----------------------------------------------------------------------------------------------|
C#|-----------------------------------------------------------------------------------------------|
G#|12-12-12-12-12-12-12-12-12-12-12-12-12-12-12-12-14-14-14-14-14-14-14-14-14-14-14-14-14-14-14-14|
D#|-----------------------------------------------------------------------------------------------|

F#|-----------------------------------------------------------------|
C#|-----------------------------------------------------------------|
G#|---------------------------------5-5-5-5-5-5-5-5-5-5-5-5-5-5-5-5-|
D#|-2-2-2-2-2-2-2-2-2-2-2-2-2-2-2-2---------------------------------|

F#|-----------------------------------------------------------------|
C#|-----------------------------------------------------------------|
G#|-0-0-0-0-0-0-0-0-0-0-0-0-0-0-0-0-2-2-2-2-2-2-2-2-2---------------|
D#|-----------------------------------------------------------------|

2:34
F#|-----------------------------------------------------------------|
C#|-----------------------------------------------------------------|
G#|-----------------5---5-5-5-5-5-5-0---0---0-0-0---2---2-2-2-2-2-2-|
D#|-2---2---2-2-2---------------------------------------------------|

F#|-----------------------------------------------------------------|
C#|-----------------------------------------------------------------|
G#|-----------------5---5-5-5-5-5-5-0---0---0-0-0---2---2-2-4-4-4-4-|
D#|-2---2---2-2-2---------------------------------------------------|

2:43
F#|-----------------------------------------------------------------|
C#|-----------------------------------------------------------------|
G#|-9---9---9-9-7---5---5-5-5-5-5-5-0---0---0-0-0---2---2-2-2-2-2-2-|
D#|-----------------------------------------------------------------|

F#|-----------------------------------------------------------------|
C#|-----------------------------------------------------------------|
G#|-9---9-9-9-11-12-5---5-5-5-5-5-5-0---0---0-0-0---2---2-2-2-2-4-4-|
D#|-----------------------------------------------------------------|

2:51
F#|-----------------------------------------------------------------------------|
C#|-----------------------------------------------------------------------------|
G#|-5-5-----0-0-2-2-5-5-4-4-2-2-0-0-7-7-7-7/11-11-11-11-12-12-12-12-11-11-11-11-|
D#|-----2-2---------------------------------------------------------------------|

2:56
F#|-----------------------------------------------------------------|
C#|-----------------------------------------------------------------|
G#|-0------------------------------h7-------------------------------|
D#|-----------------------------------------------------------------|

F#|-----------------------------------------------------------------|
C#|-----------------------------------------------------------------|
G#|---------------------------------5-5-9-9-9-7-7-7-5-5-5-5-5-5-5-5-|
D#|-2-2-2-2-2-2-2-2---2-2---2-2-2-2---------------------------------|

3:06
F#|-----------------------------------------------------------------|
C#|-----------------------------------------------------------------|
G#|-0-0-0-0-0-0-0-0-0-0-0-0-4-4-5-5-7-7-7-7-7-7-7-7-7-7-7-7---------|
D#|---------------------------------------------------------5-5-4-4-|

F#|--------------------------------------------------------------------|
C#|--------------------------------------------------------------------|
G#|-------------------------2-2-4-4-5-5-5-5-5-5-5-5-5-5-5-5-5-5-5/17\5-|
D#|-2-2-2-2-2-2-2-2-2-2-2-2--------------------------------------------|

3:15
F#|-----------------------------------------------------------------|
C#|-----------------------------------------------------------------|
G#|-0---0---0---0---0---0---0---0-----------------------------------|
D#|---------------------------------0---0---0---0---0---0---0---0---|

F#|--------------------------------------------------------------------|
C#|--------------------------------------------------------------------|
G#|-------------------------2---4---5-5-5-5---5-5---5-5-5-/-17-17-17---|
D#|-2---2-2-2---2-2-2---2-2--------------------------------------------|

3:24
F#|-----------------------------------------------------------------|
C#|-----------------------------------------------------------------|
G#|-0---0---0---0---0---0---0---0-----------------------------------|
D#|---------------------------------0---0---0---0---0---0---0---0---|

F#|---------------------------------------------------------------------|
C#|---------------------------------------------------------------------|
G#|-------------------------2---4---5-5-5-5---5-5---5-5-5-5-5-5-5-5-----|
D#|-2---2-2-2---2-2-2---2-2-----------------------------------------2---|

Endgame

                                    x3
F#|-----------------------------------|---------------------------------|
C#|o---------------------------------o|---------------------------------|
G#|o-----------------3---2-0---2-3-5-o|-3---3-3-3-3-3-3-5---5-5-5-5-5-5-|
D#|--0---0-2-3-2-0-3---------3--------|---------------------------------|
                                    x3
F#|-----------------------------------|---------------------------------|
C#|o---------------------------------o|---------------------------------|
G#|o-----------------3---2-0---2-3-5-o|-3---3-3-3-3-3-3-5---5-5-5-5-5-5-|
D#|--0---0-2-3-2-0-3---------3--------|---------------------------------|

0:18                                x3
F#|-----------------------------------|---------------------------------|
C#|o---------------------------------o|---------------------------------|
G#|o-----------------3---2-0---2-3-5-o|-3---3-3-3-3-3-3-5---5-5-5-5-5-5-|
D#|--0---0-2-3-2-0-3---------3--------|---------------------------------|
                                    x3
F#|-----------------------------------|---------------------------------|
C#|o---------------------------------o|---------------------------------|
G#|o-----------------3---2-0---2-3-5-o|-3---3-3-3-3-3-3-5---5-5-5-5-5-5-|
D#|--0---0-2-3-2-0-3---------3--------|---------------------------------|

0:38
F#|-----------------------------------------------------------------|
C#|-----------------------------------------------------------------|
G#|-0-------------------------------3-------------------------------|
D#|-----------------------------------------------------------------|

F#|-----------------------------------------------------------------|
C#|-----------------------------------------------------------------|
G#|-0-------------------------------3---3---3---3---5---5---5---5---|
D#|-----------------------------------------------------------------|

F#|-----------------------------------------------------------------|
C#|-----------------------------------------------------------------|
G#|-----------------------------------------------------------------|
D#|-0---0---0---0---0---0---0---0---3---3---3---3---3---3---3---3---|

F#|-----------------------------------------------------------------|
C#|-----------------------------------------------------------------|
G#|-0---0---0---0---0---0---0---0---2---2---2---2---5---5---5---5---|
D#|-----------------------------------------------------------------|

0:55
F#|-----------------------------------------------------------------|
C#|-----------------------------------------------------------------|
G#|-7---7---7---7---7---7---2---------------------------------------|
D#|-----------------------------2---3---3---3---3---3---3---3---3---|

F#|-----------------------------------------------------------------|
C#|-----------------------------------------------------------------|
G#|-0---0---0---0---0---0---0---0---2---2---2---2---5---5---5---5---|
D#|-----------------------------------------------------------------|

1:05
F#|-------------------------------------------------5---4-2-0-4-5-7-|
C#|---------------------------------2---2-4-5-4-2-5-----------------|
G#|-----------------3---2-0---2-3-5---------------------------------|
D#|-0---0-2-3-2-0-3---------3---------------------------------------|

                                    x3
F#|-----------------------------------|---------------------------------|
C#|o---------------------------------o|---------------------------------|
G#|o-----------------3---2-0---2-3-5-o|-3---3-3-3-3-3-3-5---5-5-5-5-5-5-|
D#|--0---0-2-3-2-0-3---------3--------|---------------------------------|
                                    x3
F#|-----------------------------------|---------------------------------|
C#|o---------------------------------o|---------------------------------|
G#|o-----------------3---2-0---2-3-5-o|-3---3-3-3-3-3-3-5---5-5-5-5-5-5-|
D#|--0---0-2-3-2-0-3---------3--------|---------------------------------|

1:28
F#|-----------------------------------------------------------------|
C#|-----------------------------------------------------------------|
G#|-3p0-----------------------------3---3---3---3---5---------------|
D#|-----------------------------------------------------------------|

F#|-----------------------------------------------------------------|
C#|-----------------------------------------------------------------|
G#|-----------------------------------------------------------------|
D#|-0---0---0---0---0---0---0---0---3---3---3---3---3---3---3---3---|

F#|-----------------------------------------------------------------|
C#|-----------------------------------------------------------------|
G#|-0---0---0---0---0---0---0---0---2---2---2---2---5---5---5---5---|
D#|-----------------------------------------------------------------|

1:41
F#|-----------------------------------------------------------------|
C#|---------------------------------5---5---5---5---5---5---5-------|
G#|-7---7---7---7---7---7---2---2-------------------------------5---|
D#|-----------------------------------------------------------------|

F#|-----------------------------------------------------------------|
C#|-------------------------4---5---4---4---4---5---4---2---0---0---|
G#|-7---0---0---0---0---0-------------------------------------------|
D#|-----------------------------------------------------------------|

1:50
F#|-------------------------------------------------------------------|
C#|o---------5---------------5---------------5---------------5-------o|
G#|o-7---7-------7-------7-------7---7---7-------7-------7-------7---o|
D#|-------------------------------------------------------------------|

F#|-----------------------------------------------------------------|
C#|---------5---------------5---7-----------5---------------5---7---|
G#|-7---7-------7-------7-----------7---7-------7-------7-----------|
D#|-----------------------------------------------------------------|

F#|-5---5---5---5---5---7---5---4---2---2---2---2---2---4---2---0---|
C#|-----------------------------------------------------------------|
G#|-----------------------------------------------------------------|
D#|-----------------------------------------------------------------|

F#|-----------------------------------------------------------------|
C#|---------5---------------5---7-----------5---------------5---7---|
G#|-7---7-------7-------7-----------7---7-------7-------7-----------|
D#|-----------------------------------------------------------------|

2:11
F#|-----------------------------------------------------------------|
C#|-----------------------------------------------------------------|
G#|-3---3---3---3---3---3---3---3---0---0---0---0---0---0---0---0---|
D#|-----------------------------------------------------------------|

F#|-----------------------------------------------------------------|
C#|-----------------------------------------------------------------|
G#|---------------------------------5---5---5---5---5---5---5---5---|
D#|-0---0---0---0---0---0---0---0-----------------------------------|

F#|-----------------------------------------------------------------|
C#|-----------------------------------------------------------------|
G#|-3---3---3---3---3---3---3-------5---5---5---5---5---5---5-------|
D#|-----------------------------3-------------------------------5---|

2:23
F#|---------------------------------9---7---------------------------|
C#|-----------------------------9-----------9-----------9---7---9---|
G#|-7---7---7---7---7---7---7---------------------------------------|
D#|-----------------------------------------------------------------|

F#|-----------------------------------------------------------------|
C#|-----------------------------------------------------------------|
G#|-3---3---3---3---3---3---3---3---0---0---0---0---0---0---0---0---|
D#|-----------------------------------------------------------------|

F#|-----------------------------------------------------------------|
C#|-----------------------------------------------------------------|
G#|-----------------------------------------------------------------|
D#|-0---0---0---0---0---0---0---0---3---3---3---3---3---3---3---3---|

F#|-----------------------------------------------------------------|
C#|-----------------------------------------------------------------|
G#|-3---3---3---3---3---3---3---3---5---5---5---5---5---5---5---5---|
D#|-----------------------------------------------------------------|

F#|-----------------------------------------------------------------|
C#|-----------------------------------------------------------------|
G#|-----------------------------------------------------------------|
D#|-0---------------------------------------------------------------|

F#|-----------------------------------------------------------------|
C#|-----------------------------------------------------------------|
G#|-----------------------------------------------------------------|
D#|---------------------------------R-------------------------------|

2:48
F#|-----------------------------------------------------------------|
C#|-----------------------------------------------------------------|
G#|-----------------------------------------------------------------|
D#|-0---0---0---0---0---0---0---0---3---3---3---3---3---3---3---3---|

F#|-----------------------------------------------------------------|
C#|-----------------------------------------------------------------|
G#|-0---0---0---0---0---0---0---0---2---2---2---2---5---5---5---5---|
D#|-----------------------------------------------------------------|

F#|-----------------------------------------------------------------|
C#|-----------------------------------------------------------------|
G#|-7---7---7---7---7---7---2---------------------------------------|
D#|-----------------------------2---3---3---3---3---3---3---3---3---|

F#|-----------------------------------------------------------------|
C#|-----------------------------------------------------------------|
G#|-0---0---0---0---0---0---0---0---2---2---2---2---5---5---5---5---|
D#|-----------------------------------------------------------------|

3:04
F#|-----------------------------------------------------------------|
C#|-----------------------------------------------------------------|
G#|-----------------------------------------------------------------|
D#|-0---0---0---0---0---0---0---0---3---3---3---3---3---3---3---3---|

F#|-----------------------------------------------------------------|
C#|-----------------------------------------------------------------|
G#|-0---0---0---0---0---0---0---0---2---2---2---2---5---5---5---5---|
D#|-----------------------------------------------------------------|

F#|-----------------------------------------------------------------|
C#|-----------------------------------------------------------------|
G#|-----------------------------------------------------------------|
D#|-0---0-------0---0---0-------0---3---3-------3---3---3-------3---|

F#|-----------------------------------------------------------------|
C#|-----------------------------------------------------------------|
G#|-0---0-------0---0---0-------0---2---2---2---2---5---5---5---5---|
D#|-----------------------------------------------------------------|

Lanterns - Itunes Bonus Track


0:13
F#|-----------------------------------------------------------------|
C#|-----------------------------------------------------------------|
G#|-7-------------------------------10------------------------------|
D#|-0-------------------------------8-------------------------------|

F#|-----------------------------------------------------------------|
C#|-----------------------------------------------------------------|
G#|-12------------------------------14------------------------------|
D#|-10------------------------------12------------------------------|

0:27
F#|-----------------------------------------------------------------|
C#|-----------------------------------------------------------------|
G#|-7-------------------------------10------------------------------|
D#|-0-------------------------------8-------------------------------|

F#|-----------------------------------------------------------------------------|
C#|-----------------------------------------------------------------------------|
G#|-12--------------------------------------------------------------------------|
D#|-10------------------------------12-R------------------------10-/-12-\-\-\-\-|

0:43
F#|-----------------------------------------------------------------|
C#|-----------------------------------------------------------------|
G#|-7-----2-2-------------5-5-5-2---7-----2-2-------------5-5-5-2---|
D#|---------------3-3-----------------------------3-3---------------|

F#|-----------------------------------------------------------------|
C#|-----------------------------------------------------------------|
G#|-7-----2-2-------------5-5-5-2---3-3-3-3-3-3-3-3---------5-5-5-5-|
D#|---------------3-3-------------------------------3-3-3-3---------|

0:52
F#|-----------------------------------------------------------------|
C#|-----------------------------------------------------------------|
G#|-------2-2-2-2---------5-5-5-2---------2-2-2-2---------5-5-5-2---|
D#|-0-0-0---------3-3-3-3-----------0-0-0---------3-3-3-3-----------|

F#|-----------------------------------------------------------------|
C#|-----------------------------------------------------------------|
G#|-------2-2-2-2---------5-5-5-2---3-3-3-3---------5-5-5-5-2-2-2-2-|
D#|-0-0-0---------3-3-3-3-------------------3-3-3-3-----------------|

1:01
F#|-----------------------------------------------------------------|
C#|-----5-----5-----5-------9-7-5-7-----5-----5-----5-------9-7-5-7-|
G#|-7-7---7-7---7-7---7-7-7---------7-7---7-7---7-7---7-7-7---------|
D#|-----------------------------------------------------------------|
    1 2 3 4 1 2 3 4 1 2 3 4 1 2 3 4 1 2 3 4 1 2 3 4 1 2 3 4 1 2 3 4

F#|-----------------------------------------------------------------|
C#|-----5-----5-----5-------9-7-5-7-------------------------9-7-5-7-|
G#|-3-3---3-3---3-3---3-3-3---------5-5-5-5-5-5-5-5-5-5-5-5---------|
D#|-----------------------------------------------------------------|
    1 2 3 4 1 2 3 4 1 2 3 4 1 2 3 4 1 2 3 4 1 2 3 4 1 2 3 4 1 2 3 4

F#|-----------------------------------------------------------------|
C#|-----5-----5-----5-------9-7-5-7-----5-----5-----5-------9-7-5-7-|
G#|-7-7---7-7---7-7---7-7-7---------7-7---7-7---7-7---7-7-7---------|
D#|-----------------------------------------------------------------|
    1 2 3 4 1 2 3 4 1 2 3 4 1 2 3 4 1 2 3 4 1 2 3 4 1 2 3 4 1 2 3 4

F#|-----------------------------------------------------------------|
C#|-----5-----5-----5-------9-7-5-7-9-9-9-9-7-7-7-7-5-5-5-5-4-4-4-4-|
G#|-3-3---3-3---3-3---3-3-3-----------------------------------------|
D#|-----------------------------------------------------------------|
    1 2 3 4 1 2 3 4 1 2 3 4 1 2 3 4 1 2 3 4 1 2 3 4 1 2 3 4 1 2 3 4

1:19
F#|-----------------------------------------------------------------|
C#|-----------------------------------------------------------------|
G#|-----------------------------------------------------------------|
D#|-0-------------------------------------------------------12-\-\--|

1:24
F#|-----------------------------------------------------------------|
C#|-----------------------------------------------------------------|
G#|-7-----2-2-------------5-5-5-2---7-----2-2-------------5-5-5-2---|
D#|---------------3-3-----------------------------3-3---------------|

F#|-----------------------------------------------------------------|
C#|-----------------------------------------------------------------|
G#|-7-----2-2-------------5-5-5-2---3-3-3-3-3-3-3-3---------5-5-5-5-|
D#|---------------3-3-------------------------------3-3-3-3---------|

F#|-----------------------------------------------------------------|
C#|-----------------------------------------------------------------|
G#|-------2-2-2-2---------5-5-5-2---------2-2-2-2---------5-5-5-2---|
D#|-0-0-0---------3-3-3-3-----------0-0-0---------3-3-3-3-----------|

F#|-----------------------------------------------------------------|
C#|-----------------------------------------------------------------|
G#|-------2-2-2-2---------5-5-5-2---3-3-3-3---------5-5-5-5-2-2-2-2-|
D#|-0-0-0---------3-3-3-3-------------------3-3-3-3-----------------|

1:43
F#|-----------------------------------------------------------------|
C#|-----5-----5-----5-------9-7-5-7-----5-----5-----5-------9-7-5-7-|
G#|-7-7---7-7---7-7---7-7-7---------7-7---7-7---7-7---7-7-7---------|
D#|-----------------------------------------------------------------|

F#|-----------------------------------------------------------------|
C#|-----5-----5-----5-------9-7-5-7-------------------------9-7-5-7-|
G#|-3-3---3-3---3-3---3-3-3---------5-5-5-5-5-5-5-5-5-5-5-5---------|
D#|-----------------------------------------------------------------|

F#|-----------------------------------------------------------------|
C#|-----5-----5-----5-------9-7-5-7-----5-----5-----5-------9-7-5-7-|
G#|-7-7---7-7---7-7---7-7-7---------7-7---7-7---7-7---7-7-7---------|
D#|-----------------------------------------------------------------|

F#|-----------------------------------------------------------------|
C#|-----5-----5-----5-------9-7-5-7-9-9-9-9-7-7-7-7-5-5-5-5-4-4-4-4-|
G#|-3-3---3-3---3-3---3-3-3-----------------------------------------|
D#|-----------------------------------------------------------------|

F#|-----------------------------------------------------------------|
C#|-----------------------------------------------------------------|
G#|-----------------------------------------------------------------|
D#|-0---------------------------------------------------------------|

F#|-----------------------------------------------------------------|
C#|-----------------------------------------------------------------|
G#|-----------------------------------------------------------------|
D#|-(0)-------------------------------------------------------------|

2:11
F#|-----------------------------------------------------------------|
C#|-----------------------------------------------------------------|
G#|-----------------------------2-------------------------------2---|
D#|-0-------------------------------3-------------------------------|

F#|-----------------------------------------------------------------|
C#|-----------------------------------------------------------------|
G#|-0------------------------------------------------5--------------|
D#|---------------------------------3-------------------------------|

F#|-----------------------------------------------------------------|
C#|-----------------------------------------------------------------|
G#|-----------------------------2-------------------------------2---|
D#|-0-------------------------------3-------------------------------|

F#|-----------------------------------------------------------------|
C#|-----------------------------------------------------------------|
G#|-0---------------------------------------------------------------|
D#|---------------------------------3----------------2--------------|

F#|-----------------------------------------------------------------|
C#|-----------------------------------------------------------------|
G#|-----------------------------2-------------------------------2---|
D#|-0-------------------------------3-------------------------------|

F#|-----------------------------------------------------------------|
C#|-----------------------------------------------------------------|
G#|-0------------------------------------------------5--------------|
D#|---------------------------------3-------------------------------|

2:41
F#|-----------------------------------------------------------------|
C#|-----------------------------------------------------------------|
G#|-----------------------------------------------------------------|
D#|-0---------------------------------------------------------------|

2:46
F#|-----------------------------------------------------------------|
C#|-----------------------------------------------------------------|
G#|-3-----3-----3-------3---3---3---5-----5-----5---5---5---5---5---|
D#|-----------------------------------------------------------------|

F#|-----------------------------------------------------------------|
C#|-----------------------------------------------------------------|
G#|---------------------------------7-------------------------------|
D#|-0-0-0-0-0-0-0-0-0-0-0-0-0-0-0-0---0-0-0-0-0-0-0-0-0-0-0-0-0-0-0-|

2:46
F#|-------------------------------------------------7-7-7-7-7-7-7-7-|
C#|-----------------------------------------------------------------|
G#|-3-3-3-3-3-3-3-3-3-3-3-3-3-3-3-3-5-5-5-5-5-5-5-5-----------------|
D#|-----------------------------------------------------------------|

3:00
F#|-----------------------------------------------------------------|
C#|-----5-----5-----5-------9-7-5-7-----5-----5-----5-------9-7-5-7-|
G#|-7-7---7-7---7-7---7-7-7---------7-7---7-7---7-7---7-7-7---------|
D#|-----------------------------------------------------------------|

F#|-----------------------------------------------------------------|
C#|-----5-----5-----5-------9-7-5-7-------------------------9-7-5-7-|
G#|-3-3---3-3---3-3---3-3-3---------5-5-5-5-5-5-5-5-5-5-5-5---------|
D#|-----------------------------------------------------------------|

F#|-----------------------------------------------------------------|
C#|-----5-----5-----5-------9-7-5-7-----5-----5-----5-------9-7-5-7-|
G#|-7-7---7-7---7-7---7-7-7---------7-7---7-7---7-7---7-7-7---------|
D#|-----------------------------------------------------------------|

F#|-----------------------------------------------------------------|
C#|-----5-----5-----5-------9-7-5-7-9-9-9-9-7-7-7-7-5-5-5-5-4-4-4-4-|
G#|-3-3---3-3---3-3---3-3-3-----------------------------------------|
D#|-----------------------------------------------------------------|

3:19
F#|-----------------------------------------------------------------|
C#|-----------------------------------------------------------------|
G#|-7-7-7-7-7-7-5-5-2-2-0-0-----5-5-7-7-7-7-7-7-5-5-2-2-0-0-----5-5-|
D#|-------------------------3-3-----------------------------3-3-----|

F#|-----------------------------------------------------------------|
C#|-----------------------------------------------------------------|
G#|-3-3-3-3-3-3-2-2-0-0---------2-2-5-5-5-5-5-5-5-5-5-5-5-5-5-5-5-5-|
D#|---------------------3-3-2-2-------------------------------------|

3:29
F#|-9-9-9-7-7-7----------------------9-9-9-7-7-7-------------12-12-11-11-|
C#|-------------9-9-9-9------7-7-9-9-------------9-9-9-9-----------------|
G#|----------------------7-7-----------------------------7-7-------------|
D#|----------------------------------------------------------------------|

F#|-------------------------------------------------------------------------|
C#|-10-10-10-10-9-9-9-9-7-7-7-7-5-5-5-5-9-9-9-9-7-7-7-7-5-5-5-5-4-4-4-4-----|
G#|-------------------------------------------------------------------------|
D#|---------------------------------------------------------------------0---|
Tabbed by Dave Vucko
comments
We did not receive enough feedback on this tab! Please rate:
print report bad tab
1 2 3 4 5
I want to post or [tab]
guest
You may want to rate the tab now too:
select rating
Please do not post tabs as comments. Select "correction" instead!