Oops, an error
Loading. Please wait.

Make It Stop Septembers Children Bass Tab

ver5
ver5

Whole song

More versions @911Tabs.com
1,027 views 9 this week
no commentswrite comment
1 2 3 4 5
excellent!
x 3
Autoscroll
+/-
esc
set tempo
stop
Contributor
Tuning
D# G# C# F# A# D#
WARNING: You are trying to view
                                    content from Ultimate-Guitar.com
                                    in an unauthorized application,
                                    which is prohibited.

                                    Please use an official Ultimate
                                    Guitar Tabs application for iPhone,
                                    iPad or Android to access legitimate
                                    chords, guitar, bass, and drum tabs
                                    from Ultimate-Guitar.com database.

                                    Type "ultimate guitar tabs" in Apple
                                    App Store's or Android Market's
                                    search to find the application.
0:12
F#|-----------------------------------------------------------------|
C#|-----------------------------------------------------------------|
G#|-2-2-2-2-2-2-2-2-5-5-5-5-5-5-5-5-0-0-0-0-0-0-0-0-----------------|
D#|-------------------------------------------------0-0-0-0-0-0-0-0-|

F#|-----------------------------------------------------------------|
C#|-----------------------------------------------------------------|
G#|-2-2-2-2-2-2-2-2-5-5-5-5-5-5-5-5-0-0-0-0-0-0-0-0---------5-5-0-0-|
D#|-------------------------------------------------0-0-0-0---------|

0:24
F#|-----------------------------------------------------------------|
C#|-----------------------------------------------------------------|
G#|-2-2-2-2-2-2-2-2-5-5-5-5-5-5-5-5-0-0-0-0-0-0-0-0-7-7-7-7-7-7-7-7-|
D#|-----------------------------------------------------------------|

F#|-----------------------------------------------------------------|
C#|-----------------------------------------------------------------|
G#|-2-2-2-2-2-2-2-2-5-5-5-5-5-5-5-5-0-0-0-0-0-0-0-0-0-0-0-0-0-0-0-0-|
D#|-----------------------------------------------------------------|

0:37
F#|-----------------------------------------------------------------|
C#|-----------------------------------------------------------------|
G#|-2-2-2-2-2-2-2-2-5-5-5-5-5-5-5-5-0-0-0-0-0-0-0-0-7-7-7-7-7-5-4-5-|
D#|-----------------------------------------------------------------|

F#|-----------------------------------------------------------------|
C#|-----------------------------------------------------------------|
G#|-2-2-2-2-2-2-2-2-5-5-5-5-5-5-5-5-0-0-0-0-0-0-0-0-0-0-0-0-0-0-0-0-|
D#|-----------------------------------------------------------------|

0:49
F#|-----------------------------------------------------------------|
C#|-----------------------------------------------0-2-2-2-0-2-0-----|
G#|-----------------0-0-0-0-0-0-0-0-----------------------------4-2-|
D#|-3-3-3-3-3-3-3-3-----------------0-0-0-0-0-0-0-------------------|

F#|---------------------------------|
C#|---------------------------------|
G#|-----------------0-0-0-0-0-------|
D#|-3-3-3-3-3-3-3-3-----------------|

0:58
F#|-----------------------------------------------------------------|
C#|-----------------------------------------------------------------|
G#|-2-2-2-2-2-2-2-2-5-5-5-5-5-5-5-5-0-0-0-0-0-0-0-0-----------------|
D#|-------------------------------------------------0-0-0-0-0-0-0-0-|

F#|-----------------------------------------------------------------|
C#|-----------------------------------------------------------------|
G#|-2-2-2-2-2-2-2-2-5-5-5-5-5-5-5-5-0-0-0-0-0-----------------------|
D#|-------------------------------------------------0-0-0-0-0-------|

1:11
F#|-----------------------------------------------------------------|
C#|-----------------------------------------------------------------|
G#|-2-2-2-2-2-2-2-2-5-5-5-5-5-5-5-5-0-0-0-0-0-0-0-0-----------------|
D#|-------------------------------------------------0-0-0-0-0-0-0-0-|

F#|-----------------------------------------------------------------|
C#|-----------------5-5-5-5-5-4-2-0---------------------------------|
G#|---------------------------------0-0-0-0-0-0-0-0-0-0-0-0-0-0-0-0-|
D#|-3-3-3-3-3-3-3-3-------------------------------------------------|

1:24
F#|-----------------------------------------------------------------|
C#|-----------------------------------------------------------------|
G#|-2-2-2-2-2-2-2-2-5-5-5-5-5-5-5-5-0-0-0-0-0-0-0-0-----------------|
D#|-------------------------------------------------0-0-0-0-0-0-0-0-|

F#|-----------------------------------------------------------------|
C#|-----------------------------------------------------------------|
G#|-2-2-2-2-2-2-2-2-5-5-5-5-5-5-5-5-0-0-0-0-0-0-0-0---------5-5-7-7-|
D#|-------------------------------------------------0-0-0-0---------|

1:36
F#|-----------------------------------------------------------------|
C#|-----------------------------------------------------------------|
G#|-2-2-2-2-2-2-2-2-5-5-5-5-5-5-5-5-0-0-0-0-0-0-0-0-7-7-7-7-7-7-7-7-|
D#|-----------------------------------------------------------------|

F#|-----------------------------------------------------------------|
C#|-----------------------------------------------------------------|
G#|-2-2-2-2-2-2-2-2-5-5-5-5-5-5-5-5-0-0-0-0-0-0-0-0-0-0-0-0-7-0-0-7-|
D#|-----------------------------------------------------------------|

1:48
F#|-----------------------------------------------------------------|
C#|-----------------------------------------------------------------|
G#|-2-2-2-2-2-2-2-2-5-5-5-5-5-5-5-5-0-0-0-0-0-0-0-0-7-7-7-7-7-9-7-5-|
D#|-----------------------------------------------------------------|

F#|-----------------------------------------------------------------|
C#|-----------------------------------------------------------------|
G#|-2-2-2-2-2-2-2-2-5-5-5-5-5-5-5-5-0-0-0-0-0-0-0-0-0-0-0-0-----0-0-|
D#|---------------------------------------------------------0-0-----|

2:01
F#|-----------------------------------------------------------------|
C#|-------------------------------------------------2-------4---5---|
G#|-----------------0-----------------------------------------------|
D#|-3-------------------------------0-------------------------------|

F#|---------------------------------|
C#|---------------------------------|
G#|-----------------0-0-0-0-0-------|
D#|-3-------------------------------|

2:10
F#|-----------------------------------------------------------------|
C#|-----------------------------------------------------------------|
G#|-2-2-2-2-2-2-2-2-5-5-5-5-5-5-5-5-0-0-0-0-0-0-0-0-----------------|
D#|-------------------------------------------------0-0-0-0-0-0-0-0-|

F#|-----------------------------------------------------------------|
C#|-----------------------------------------------------------------|
G#|-2-2-2-2-2-2-2-2-5-5-5-5-5-5-5-5-0-0-0-0-0-----------------------|
D#|-------------------------------------------------0-0-0-0-0-------|

2:22
F#|-----------------------------------------------------------------|
C#|-----------------------------------------------------------------|
G#|-2-2-2-2-2-2-2-2-5-5-5-5-5-5-5-5-0-0-0-0-0-0-0-0-----------------|
D#|-------------------------------------------------0-0-0-0-0-2-3-5-|

F#|-----------------------------------------------------------------|
C#|-----------------5-5-5-5-7-5-4-5---------------------------------|
G#|---------------------------------0-0-0-0-0-0-0-0-0-0-0-0---0-4-5-|
D#|-3-3-3-3-3-3-3-3-----------------------------------------0-------|

2:35
F#|-----------------------------------------------------------------|
C#|-----------------------------------------------------------------|
G#|-2-2-2-2-2-2-2-2-0-0-0-0-0-0-0-0---------------------------------|
D#|---------------------------------2-2-2-2-2-2-2-2-3-3-3-3-3-3-3-3-|

F#|-----------------------------------------------------------------|
C#|-------------------------------------------------5-5-5-5---------|
G#|-2-2-2-2-2-2-2-2-4-4-4-5-5-5-7-7-------------------------7-5-4-5-|
D#|---------------------------------3-3-3-3-3-3-3-3-----------------|

2:48
F#|-----------------------------------------------------------------|
C#|-----------------------------------------------------------------|
G#|-2-2-2-2-2-2-2-2-0-0-0-0-0-0-0-0---------------------------4-----|
D#|---------------------------------2-2-2-2-2-2-2-2-3-3-3-3-3-------|

F#|--------------------------------------------------------------------|
C#|-----------------9-9-9-11-12-14-----5-5-5-5-5-5-5-7-4-4-4-4-4-4-4-4-|
G#|-2-2-2-2-2-2-2-2----------------------------------------------------|
D#|--------------------------------------------------------------------|

F#|---------------------------------|
C#|---------------------------------|
G#|-5-5-5-5-5-5-5-5-----------------|
D#|-----------------3-3-3-3-5-5-5-5-|

3:03
F#|------------------------------------------------------------------|
C#|o-----------------------------------------------------------------|
G#|o-2-2-2-2-2-2-2-2-5-5-5-5-5-5-5-5-0-0-0-0-0-0-0-0-7-7-7-7-7-7-7-7-|
D#|------------------------------------------------------------------|

F#|------------------------------------------------------------------|
C#|-----------------------------------------------------------------o|
G#|-2-2-2-2-2-2-2-2-5-5-5-5-5-5-5-5-0-0-0-0-0-0-0-0-----------------o|
D#|-------------------------------------------------0-0-0-0-0-2-3-0--|

3:27
F#|------------------------------------------------------------------|
C#|o-----------------------------------------------------------------|
G#|o-2-2-2-2-2-2-2-2-5-5-5-5-5-5-5-5-0-0-0-0-0-0-0-0-----------------|
D#|--------------------------------------------------0-0-0-0-0-0-0-0-|

F#|------------------------------------------------------------------|
C#|-----------------------------------------------------------------o|
G#|-2-2-2-2-2-2-2-2-5-5-5-5-5-5-5-5-0-0-0-0-0-----------------------o|
D#|-------------------------------------------------0-0-0-0-0--------|
Tabbed by Dave Vucko
comments
We did not receive enough feedback on this tab! Please rate:
print report bad tab
1 2 3 4 5
I want to post or [tab]
guest
You may want to rate the tab now too:
select rating
Please do not post tabs as comments. Select "correction" instead!