Oops, an error
Loading. Please wait.

Methadone Bass Tab

ver1
ver1

Whole song

More versions @911Tabs.com
508 views 21 this week
1 commentread comment
1 2 3 4 5
accurate
x 3
Autoscroll
+/-
esc
set tempo
stop
Contributor
Difficulty
Tuning
intermediate
D# G# C# F# A# D#
Hey! There's an official Ultimate Guitar app which is ideal
for learning songs when you're away from computer. Get the app
WARNING: You are trying to view
                                    content from Ultimate-Guitar.com
                                    in an unauthorized application,
                                    which is prohibited.

                                    Please use an official Ultimate
                                    Guitar Tabs application for iPhone,
                                    iPad or Android to access legitimate
                                    chords, guitar, bass, and drum tabs
                                    from Ultimate-Guitar.com database.

                                    Type "ultimate guitar tabs" in Apple
                                    App Store's or Android Market's
                                    search to find the application.
 Song: METHADONE
 Band: Rise Against
Album: THE BLACK MARKET (2014)

Tabbed by: BassMasse 
   E-mail: FleischMasse@yahoo.de 

Tuning: Half-Step Down (Eb, Ab, Db, Gb)


###############################################################################

Only Drums for 2 measures.

Intro:
    let ring..................................................................
Gb|------------------|------------------|------------------|------------------|
Db|------------------|------------------|------------------|------------------|
Ab|-0----------------|------------------|-4----------------|-4-------6---7----|
Eb|------------------|-2----------------|------------------|------------------|
    1 + 2 + 3 + 4 +    1 + 2 + 3 + 4 +    1 + 2 + 3 + 4 +    1 + 2 + 3 + 4 +   
    
    let ring..................................................................
Gb|------------------|------------------|------------------|------------------|
Db|-7----------------|-4-----------6\4--|------------------|------------------|
Ab|------------------|------------------|4-----------------|-2-------6---7----|
Eb|------------------|------------------|------------------|------------------|
    1 + 2 + 3 + 4 +    1 + 2 + 3 + 4 +    1 + 2 + 3 + 4 +    1 + 2 + 3 + 4 +    



Verse 1:
Gb|------------------|------------------|------------------|------------------|
Db|------------------|------------------|------------------|------------------|
Ab|------------------|----------------4-|------------------|-----------2---2--|
Eb|------------------|------------2-----|------------------|------------------|
    1 + 2 + 3 + 4 +    1 + 2 + 3 + 4 +    1 + 2 + 3 + 4 +    1 + 2 + 3 + 4 +   

                                          let ring............................
Gb|------------------|------------------|------------------|------------------|
Db|------------------|------------------|------------------|---4-----6---4----|
Ab|-0----------------|------------------|-4-----6-----7----|------------------|
Eb|------------------|-----------2---2--|------------------|------------------| 
    1 + 2 + 3 + 4 +    1 + 2 + 3 + 4 +    1 + 2 + 3 + 4 +    1 + 2 + 3 + 4 +

   let ring.............................                     let ring.........
Gb|------------------|------------------|------------------|------------------|
Db|------------------|------------------|------------------|------------------|
Ab|-0----------------|------------------|-4-4-4-4-4-4-4-4--|-4----------------|
Eb|-------------4\---|-2-----------4p2--|------------------|------------------|
    1 + 2 + 3 + 4 +    1 + 2 + 3 + 4 +    1 + 2 + 3 + 4 +    1 + 2 + 3 + 4 +



Pre-Chorus:
Gb|------------------|------------------|------------------|------------------|------------------|
Db|------------------|------------------|------------------|------------------|------------------|
Ab|-2---2-2-2-2-2-2--|-2-2-2-2----------|-4---4-4-4-4-4-4--|-4-4-4-4-0-0-0----|-2---2-2-2-2-2-2--|
Eb|------------------|---------0-2-0----|------------------|------------------|------------------|
    1 + 2 + 3 + 4 +    1 + 2 + 3 + 4 +    1 + 2 + 3 + 4 +    1 + 2 + 3 + 4 +    1 + 2 + 3 + 4 +

Gb|------------------|------------------|------------------|------------------|------------------|
Db|------------------|------------------|------------------|------------------|------------------|
Ab|-2-2-2-2-2--------|------------------|------------------|------------------|------------------|
Eb|-----------0-0-0--|-2---2-2-2-2-2-2--|-4---4-4-4-4-4-4--|-5---5-5-5-5-5-5--|------------------|
    1 + 2 + 3 + 4 +    1 + 2 + 3 + 4 +    1 + 2 + 3 + 4 +    1 + 2 + 3 + 4 +    1 + 2 + 3 + 4 +



Chorus 1:
Gb|------------------|------------------|------------------|------------------|
Db|------------------|------------------|------------------|------------------|
Ab|-4-4-4-4-4-4-4-4--|-0-0-0-0-0-0-0-0--|------------------|-2-2-2-2-2-2-2-2--|
Eb|------------------|------------------|-0-0-0-0-0-0-0-0--|------------------|
    1 + 2 + 3 + 4 +    1 + 2 + 3 + 4 +    1 + 2 + 3 + 4 +    1 + 2 + 3 + 4 +  

Gb|------------------|------------------|------------------|------------------|
Db|------------------|------------------|------------------|------------------|
Ab|-4-4-4-4-4-4-4-4--|-0-0-0-0-0-0-0-0--|-7-7-7-7-7-7-7-7--|-2-2-2-2-2-2-2-2--|
Eb|------------------|------------------|------------------|------------------|
    1 + 2 + 3 + 4 +    1 + 2 + 3 + 4 +    1 + 2 + 3 + 4 +    1 + 2 + 3 + 4 +    

Gb|------------------|------------------|------------------|------------------|
Db|------------------|-7-7-7-7-7-7-9----|------------------|------------------|
Ab|-4-4-4-6-6-6-7-7--|------------------|-7-7-7-6-6-6-4-4--|-2-2-2-2-2-2-2-2--|
Eb|------------------|------------------|------------------|------------------|
    1 + 2 + 3 + 4 +    1 + 2 + 3 + 4 +    1 + 2 + 3 + 4 +    1 + 2 + 3 + 4 +   

Gb|------------------|------------------|------------------|------------------|
Db|------------------|------------------|------------------|------------------|
Ab|-0-0-0-0-0-0-0-0--|-0-0-0-0-0-0-0-0--|-0-0-0-0-0-0-0-0--|-0-0-0-0-2-4-2-4--|
Eb|------------------|------------------|------------------|------------------|
    1 + 2 + 3 + 4 +    1 + 2 + 3 + 4 +    1 + 2 + 3 + 4 +    1 + 2 + 3 + 4 +   



Bridge 1:
Gb|------------------|------------------|------------------|------------------|
Db|------------------|------------------|------------------|------------------|
Ab|-0-0-0-0-0-0-0-0--|------------------|-4-4-4-4-4-4-4-4--|-4-4-4-4-4-4-4-4--|
Eb|------------------|-2-2-2-2-2-2-2-2--|------------------|------------------|
    1 + 2 + 3 + 4 +    1 + 2 + 3 + 4 +    1 + 2 + 3 + 4 +    1 + 2 + 3 + 4 +    



Verse 2:
Gb|------------------|------------------|------------------|------------------|
Db|------------------|------------------|------------------|------------------|
Ab|-0-0-0-0-0-0-0-0--|------------------|-4-4-4-4-4-4-4-4--|-4-4-4-4-4-2-0----|
Eb|------------------|-2-2-2-2-2-2-2-2--|------------------|---------------4--|
    1 + 2 + 3 + 4 +    1 + 2 + 3 + 4 +    1 + 2 + 3 + 4 +    1 + 2 + 3 + 4 +   

Gb|------------------|------------------|------------------|------------------|
Db|------------------|------------------|------------------|------------------|
Ab|-0-0-0-0-0-0-0-0--|------------------|-4-4-4-4-4-4-4-4--|-2-2-2-2-2-2-2-2--|
Eb|------------------|-2-2-2-2-2-2-2-2--|------------------|------------------|
    1 + 2 + 3 + 4 +    1 + 2 + 3 + 4 +    1 + 2 + 3 + 4 +    1 + 2 + 3 + 4 +   

Gb|------------------|------------------|------------------|------------------|
Db|------------------|------------------|------------------|------------------|
Ab|-0-0-0-0-0-0-0-0--|------------------|-4-4-4-4-4-4-4-4--|-2-2-2-2-2-2-2-2--|
Eb|------------------|-2-2-2-2-2-2-2-2--|------------------|------------------|
    1 + 2 + 3 + 4 +    1 + 2 + 3 + 4 +    1 + 2 + 3 + 4 +    1 + 2 + 3 + 4 +   

Gb|------------------|------------------|------------------|-----------------|
Db|---------------2--|-4-4-4-4-4-4-6-4--|------------------|-----------------|
Ab|-0-0-0-0-0-0-0----|------------------|-4-4-4-4-4-4-4-4--|-4-4-4-4---------|
Eb|------------------|------------------|------------------|---------2-2-----|
    1 + 2 + 3 + 4 +    1 + 2 + 3 + 4 +    1 + 2 + 3 + 4 +    1 + 2 + 3 + 4 +  



Pre-Chorus 2:
Gb|------------------|------------------|------------------|------------------|------------------|
Db|------------------|------------------|------------------|------------------|------------------|
Ab|-2---2-2-2-2-2-2--|-2-2-2-2----------|-4---4-4-4-4-4-4--|-4-4-4-4-0-0-0----|-2---2-2-2-2-2-2--|
Eb|------------------|---------0-2-0----|------------------|------------------|------------------|
    1 + 2 + 3 + 4 +    1 + 2 + 3 + 4 +    1 + 2 + 3 + 4 +    1 + 2 + 3 + 4 +    1 + 2 + 3 + 4 +

Gb|------------------|------------------|------------------|------------------|------------------|
Db|------------------|------------------|------------------|------------------|------------------|
Ab|-2-2-2-2-2--------|------------------|------------------|------------------|------------------|
Eb|-----------0-0-0--|-2---2-2-2-2-2-2--|-4---4-4-4-4-4-4--|-5---5-5-5-5-5-5--|-7----------------|
    1 + 2 + 3 + 4 +    1 + 2 + 3 + 4 +    1 + 2 + 3 + 4 +    1 + 2 + 3 + 4 +    1 + 2 + 3 + 4 +

Gb|------------------|
Db|------------------|
Ab|------------------|
Eb|------------------|
    1 + 2 + 3 + 4 +



Chorus 2:
Gb|------------------|------------------|------------------|------------------|
Db|------------------|------------------|------------------|------------------|
Ab|-4-4-4-4-4-4-4-4--|-0-0-0-0-0-0-0-0--|------------------|-2-2-2-2-2-2-2-2--|
Eb|------------------|------------------|-0-0-0-0-0-0-0-0--|------------------|
    1 + 2 + 3 + 4 +    1 + 2 + 3 + 4 +    1 + 2 + 3 + 4 +    1 + 2 + 3 + 4 +  

Gb|------------------|------------------|------------------|------------------|
Db|------------------|------------------|------------------|------------------|
Ab|-4-4-4-4-4-4-4-4--|-0-0-0-0-0-0-0-0--|-7-7-7-7-7-7-7-7--|-2-2-2-2-2-2-2-2--|
Eb|------------------|------------------|------------------|------------------|
    1 + 2 + 3 + 4 +    1 + 2 + 3 + 4 +    1 + 2 + 3 + 4 +    1 + 2 + 3 + 4 +    

Gb|------------------|------------------|------------------|------------------|
Db|------------------|-7-7-7-7-7-7-9----|------------------|------------------|
Ab|-4-4-4-6-6-6-7-7--|------------------|-7-7-7-6-6-6-4-4--|-2-2-2-2-2-2-2-2--|
Eb|------------------|------------------|------------------|------------------|
    1 + 2 + 3 + 4 +    1 + 2 + 3 + 4 +    1 + 2 + 3 + 4 +    1 + 2 + 3 + 4 +   

Gb|------------------|------------------|------------------|------------------|
Db|------------------|------------------|------------------|------------------|
Ab|-0-0-0-0-0-0-0-0--|-0-0-0-0-0-0-0-0--|-2-2-2-2-2-2-2-2--|-2-2-2-2-2-2-2-2--|
Eb|------------------|------------------|------------------|------------------|
    1 + 2 + 3 + 4 +    1 + 2 + 3 + 4 +    1 + 2 + 3 + 4 +    1 + 2 + 3 + 4 +   



Bridge 2:

Gb|------------------|------------------|------------------|------------------|
Db|------------------|------------------|------------------|---------------1--|
Ab|-4-4-4-4-4-4-4-4--|-4-4-4-4-4-4-4-4--|-0-0-0-0-0-0-0-0--|-0-0-0-0-0-0-4----|
Eb|------------------|------------------|------------------|------------------|
    1 + 2 + 3 + 4 +    1 + 2 + 3 + 4 +    1 + 2 + 3 + 4 +    1 + 2 + 3 + 4 +   

Gb|------------------|------------------|------------------|------------------|
Db|-2-2-2-2-2-2-2-2--|-2-2-2-2-2-2-1-2--|-4-4-4-4-4-4-4-4--|-4-4-4-4-4-4-4-4--|
Ab|------------------|------------------|------------------|------------------|
Eb|------------------|------------------|------------------|------------------|
    1 + 2 + 3 + 4 +    1 + 2 + 3 + 4 +    1 + 2 + 3 + 4 +    1 + 2 + 3 + 4 +   

Gb|------------------|------------------|------------------|------------------|
Db|------------------|-------------4-4--|-6-6-6-6-6-6-6-6--|-6-6-6-6-6-6-4-4--|
Ab|-4-4-4-4-4-4-4-4--|-4-4-4-4-4-4------|------------------|------------------|
Eb|------------------|------------------|------------------|------------------|
    1 + 2 + 3 + 4 +    1 + 2 + 3 + 4 +    1 + 2 + 3 + 4 +    1 + 2 + 3 + 4 +    

Gb|------------------|------------------|------------------|------------------|
Db|-7-7-7-7-7-7-7-7--|-7-7-7-7-7-7-6-6--|-9-9-9-9-9-9-9-9--|-9-9-9-9-9-9-9-9--|
Ab|------------------|------------------|------------------|------------------|
Eb|------------------|------------------|------------------|------------------|
    1 + 2 + 3 + 4 +    1 + 2 + 3 + 4 +    1 + 2 + 3 + 4 +    1 + 2 + 3 + 4 +   

Gb|------------------|
Db|------------------|
Ab|-4----------------|
Eb|------------------| 
    1 + 2 + 3 + 4 +  


Interlude: no bass


Chorus 3:
Gb|------------------|------------------|------------------|------------------|
Db|------------------|------------------|------------------|------------------|
Ab|-4-4-4-4-4-4-4-4--|-0-0-0-0-0-0-0-0--|------------------|-2-2-2-2-2-2-2-2--|
Eb|------------------|------------------|-0-0-0-0-0-0-0-0--|------------------|
    1 + 2 + 3 + 4 +    1 + 2 + 3 + 4 +    1 + 2 + 3 + 4 +    1 + 2 + 3 + 4 +  

Gb|------------------|------------------|------------------|------------------|
Db|------------------|------------------|------------------|------------------|
Ab|-4-4-4-4-4-4-4-4--|-0-0-0-0-0-0-0-0--|-7-7-7-7-7-7-7-7--|-2-2-2-2-2-2-2-2--|
Eb|------------------|------------------|------------------|------------------|
    1 + 2 + 3 + 4 +    1 + 2 + 3 + 4 +    1 + 2 + 3 + 4 +    1 + 2 + 3 + 4 +    

Gb|------------------|------------------|------------------|------------------|
Db|------------------|-7-7-7-7-7-7-9----|------------------|------------------|
Ab|-4-4-4-6-6-6-7-7--|------------------|-7-7-7-6-6-6-4-4--|-2-2-2-2-2-2-2-2--|
Eb|------------------|------------------|------------------|------------------|
    1 + 2 + 3 + 4 +    1 + 2 + 3 + 4 +    1 + 2 + 3 + 4 +    1 + 2 + 3 + 4 +   

Gb|------------------|------------------|------------------|------------------|
Db|-----6-6-6-6-6-6--|------------------|---------6-6-6-6--|-4-4-4-4-6-4------|
Ab|-4/---------------|-0---4---4-2-0----|-7-7-7-7----------|-------------7-6--|
Eb|------------------|---------------4--|------------------|------------------|
    1 + 2 + 3 + 4 +    1 + 2 + 3 + 4 +    1 + 2 + 3 + 4 +     1 + 2 + 3 + 4 +   

    let ring..................................................................
Gb|------------------|------------------|------------------|-4---4---4-6-4----|
Db|------------------|------------------|------------------|------------------|
Ab|-4---4---4---4----|-0---0---0---0----|-7---7---7---7----|------------------|
Eb|------------------|------------------|------------------|------------------|
    1 + 2 + 3 + 4 +    1 + 2 + 3 + 4 +    1 + 2 + 3 + 4 +    1 + 2 + 3 + 4 +   

    let ring..................................................................
Gb|------------------|------------------|------------------|------------------|
Db|------------------|-7-----------7----|------------------|------------------|
Ab|-4-----6-----7----|------------------|-7-----6-----4----|-2-------2---4----|
Eb|------------------|------------------|------------------|-----0------------|
    1 + 2 + 3 + 4 +    1 + 2 + 3 + 4 +    1 + 2 + 3 + 4 +    1 + 2 + 3 + 4 +   

    let ring.........
Gb|------------------|
Db|------------------|
Ab|-0----------------|
Eb|------------------|
   1 + 2 + 3 + 4 +    

##############################################################################
comments
We did not receive enough feedback on this tab! Please rate:
print report bad tab
1 2 3 4 5
1 comment total.
0 reply
Teh D Bot wrote on August 17 2014, 04:06 pm

Lack of accuracy.

I want to post or [tab]
guest
You may want to rate the tab now too:
select rating
Please do not post tabs as comments. Select "correction" instead!