Oops, an error
Loading. Please wait.

Midnight Hands Bass Tab

ver1
ver1

Whole song

Interactive

More versions @911Tabs.com
777 views 12 this week
no commentswrite comment
1 2 3 4 5
excellent!
x 1
Autoscroll
+/-
esc
set tempo
stop
Contributor
Tuning
C# G# C# F# A# D#
NEW! There's an official Ultimate Guitar app which is ideal
for learning songs when you're away from computer. Get the app
WARNING: You are trying to view
                                    content from Ultimate-Guitar.com
                                    in an unauthorized application,
                                    which is prohibited.

                                    Please use an official Ultimate
                                    Guitar Tabs application for iPhone,
                                    iPad or Android to access legitimate
                                    chords, guitar, bass, and drum tabs
                                    from Ultimate-Guitar.com database.

                                    Type "ultimate guitar tabs" in Apple
                                    App Store's or Android Market's
                                    search to find the application.
0:17
F#|-----------------------------------------------------------------|
C#|-----------------------------------------------------------------|
G#|-5-5-5-5-5-5-5-5-5-5-5-5-5-5-5-5-5-5-5-5-5-5-5-5-5-5-5-5-5-5-5-5-|
C#|-----------------------------------------------------------------|

F#|-------------------------------------------------------------------------|
C#|-------------------------------------------------------------------------|
G#|-5-5-5-5-5-5-5-5-5-5-5-5-5-5-5-5-5-5-5-5-5-5-5-5/17-17-17-17-17-15-13-12-|
C#|-------------------------------------------------------------------------|

0:27
F#|-----------------------------------------------------------------|
C#|-----------------------------------------------------------------|
G#|-1-1-1-1-1-1-1-1-1-1-1-1-1-1-1-1-3-3-3-3-3-3-3-3-3-3-3-3-3-3-3-3-|
C#|-----------------------------------------------------------------|

0:32
F#|-----------------------------------------------------------------|
C#|-3-0-0-0-0-0-0-0-0-0-3-0-3-5-3-0---------------------------------|
G#|-----------------------------------------------------------------|
C#|---------------------------------3-0-0-0-0-0-0-0-0-0-3-0-3-5-3-0-|

F#|-----------------------------------------------------------------|
C#|-----------------------------------------------------------------|
G#|-1-1-1-1-1-1-1-1-1-1-1-1-1-1-1-1-3-3-3-3-3-3-3-3-3-3-3-3-3-3-3-3-|
C#|-----------------------------------------------------------------|

0:43
F#|-----------------------------------------------------------------|
C#|-----------------------------------------------------------------|
G#|---------------------------------1---1---1-------3---------------|
C#|-5-5-5-5-5-5-5-5-5-5-5-5-5-5-5-5-------------3-------------------|

0:48
F#|-----------------------------------------------------------------|
C#|-----------------------------------------------------------------|
G#|-------------5-------5---5---0---1---1---1---1-------1---1---1---|
C#|-0---3---0-------------------------------------------------------|

0:53
F#|-----------------------------------------------------------------|
C#|-----------------------------------------------------------------|
G#|-----------------------------------------------------------------|
C#|-3---3---3---3-------3---3---3---5---5---5---5---5---7---5---3---|

0:58
F#|-----------------------------------------------------------------|
C#|-----------------------------------------------------------------|
G#|-------------5-------5---5---0---1---1---1---1-------1---1---1---|
C#|-0---3---0-------------------------------------------------------|

F#|-----------------------------------------------------------------|
C#|-----------------------------------------------------------------|
G#|-----------------------------------------------------------------|
C#|-3---3---3---3-------3---3---3---5---5---5---5---5---------------|

1:08
F#|-----------------------------------------------------------------|
C#|-----------------------------------------------------------------|
G#|-----------------------------------------------------------------|
C#|-0-0-0-0-0-0-0-0-0-0-0-0-0-0-0-0-0-0-0-0-0-0-0-0-0-0-3-0-3-5-3-0-|

1:14
F#|-----------------------------------------------------------------|
C#|-----------------------------------------------------------------|
G#|-----------------------------------------------------------------|
C#|-0-0-0-0-0-0-0-0-0-0-0-0-0-0-0-0-0-0-0-0-0-0-0-0-0-0-0-0-0-0-0-0-|

F#|------------------------------------------------------------------|
C#|------------------------------------------------------------------|
G#|------------------------------------------------------------------|
C#|-0-0-0-0-0-0-0-0-0-0-0-0-0-0-0-0-0-0-0-0-0-0-0-0-12-\-\-\-\-\-\-\-|

1:24
F#|-----------------------------------------------------------------|
C#|-7-7-7-7-7-7-7-7-7-7-7-7-7-7-7-7-6-6-6-6-6-6-6-6-6-7-7-6-6-5-5-5-|
G#|-----------------------------------------------------------------|
C#|-----------------------------------------------------------------|

F#|-------------------------------------------------------------------|
C#|-5-5-5-5-5-5-5-5-5-6-6-5-5-3-3-3-0-0-0-0-0-0-0-0/12------------12\-|
G#|-------------------------------------------------------------------|
C#|-------------------------------------------------------------------|

1:33
F#|-----------------------------------------------------------------|
C#|-----------------------------------------------------------------|
G#|-1-1-1-1-1-1-1-1-1-1-1-1-0-0-----3-3-3-3-3-3-3-3-3-3-3-3-1-1-0-0-|
C#|-----------------------------5-5---------------------------------|

F#|-----------------------------------------------------------------|
C#|-3-0-0-0-0-0-0-0-0-0-3-0-3-5-3-0---------------------------------|
G#|-----------------------------------------------------------------|
C#|---------------------------------3-0-0-0-0-0-0-0-0-0-3-0-3-5-3-0-|

1:44
F#|-----------------------------------------------------------------|
C#|-----------------------------------------------------------------|
G#|-1-1-1-1-1-1-1-1-1-1-1-1-1-1-1-1-3-3-3-3-3-3-3-3-3-3-3-3-3-3-3-3-|
C#|-----------------------------------------------------------------|

F#|--------------------------------------------------------------------------|
C#|--------------------------------------------------------------------------|
G#|-10-10-10-10-10-10-10-10-10---0---1---3---8---------------7---------------|
C#|----------------------------------------------3---3---3-------2---2---2---|

1:54
F#|---------------------------------------------------------------------|
C#|---------------------------------------------------------------------|
G#|-------------5-------5---5---0---1---1-/-5-/-17-------13---12---10---|
C#|-0---3---0-----------------------------------------------------------|

2:00
F#|------------------------------------------------------------------------|
C#|------------------------------------------------------------------------|
G#|-8--------8-/-15-------8-------8---10---10---10---10---10---12---10---8-|
C#|-----10-----------------------------------------------------------------|

2:04
F#|-----------------------------------------------------------------|
C#|-----------------------------------------------------------------|
G#|-5-5-5-5---5-5---5-5-7-7-8-8-7-7-1-1-1-1---1-1---1-1-1---1-1-1---|
C#|-----------------------------------------------------------------|

F#|-----------------------------------------------------------------|
C#|-----------------------------------------------------------------|
G#|-----------------------------------------------------------------|
C#|-3-3-3-3---3-3---3-3-3---3-3-3---5-5-5-5-5-5-5-5-5-5-5-5-5-5-5-5-|

2:14
F#|-------------------------------------|
C#|-------------------------------------|
G#|-1---0------------3------------------|
C#|-----------3-------------5-------5---|

2:20
F#|-----------------------------------------------------------------|
C#|-----------------------------------------------------------------|
G#|-----------------------------------------------------------------|
C#|-0-0-0-0-0-0-0-0-0-0-0-0-0-0-0-0-3-3-3-3-3-3-3-3-3-3-3-3-3-3-3-3-|

F#|-----------------------------------------------------------------|
C#|-----------------------------------------------------------------|
G#|-3-3-3-3-3-3-3-3-3-3-3-3-3-3-3-3-----------------------------8-8-|
C#|---------------------------------5-5-5-5-5-5-5-5-5-5-5-5-5-5-----|

2:29
F#|----------------------------------------------------------------------------|
C#|-------------------------------------------10-12------10-12------10-12------|
G#|-5-5-5-5-5-5-5-5-5-5-5-5-5-5-5-5-8-10---12---------12---------12---------12-|
C#|----------------------------------------------------------------------------|

F#|----------------------------------------------------------------------------|
C#|----------------------------------------------------------------------------|
G#|-13-13-13-13-13-13-13-13-13-13-13-13-8-8-8-8-------------------------3------|
C#|---------------------------------------------5---0---0---3---0---0----------|

2:42
F#|-----------------------------------------------------------------|
C#|-----------------------------------------------------------------|
G#|---------3-----5-------------------------3-----5-----------------|
C#|-3-0-0-0---0-0---0-0-3-0-3-5-3-0-3-0-0-0---0-0---0-0-3-0-3-5-3-0-|

2:48
F#|-------------------------------------------------------------------|
C#|-------------8-8-----------------------5-5---10-10---5-5-5---------|
G#|-1-1-1-8-8---------8-8-8-1-1-1-1-3-3-3---------------------3-3-3-3-|
C#|-------------------------------------------------------------------|

F#|-----------------------------------------------------------------|
C#|-----------------------------------------------------------------|
G#|---------3-----5-------------------------3-----5-----------------|
C#|-3-0-0-0---0-0---0-0-3-0-3-5-3-0-3-0-0-0---0-0---0-0-3-0-3-5-3-0-|

2:58
F#|-----------------------------------------------------------------|
C#|-----------------------------------------------------------------|
G#|-1---1-1---1-1---1-1-1---1-1-1-1-3---3-3---3-3---3-3-3---3-3-3-3-|
C#|-----------------------------------------------------------------|

F#|-----------------------------------------------------------------|
C#|-----------------------------------------------------------------|
G#|-----------------------------------------------------------------|
C#|-5-5-5-5-5-5-5-5-5-5-5-5-5-5-5-5-5-5-5-5-5-5-5-5-5-5-5-5-5-5-5-5-|

3:08
F#|---------------------------------------------------------------------|
C#|-8-8-8-7-7-7-5-5-5-5-----3-3-----------------------------------------|
G#|---------------------1-1-----1-1-3---3---3---3---3---3---3---3-------|
C#|-----------------------------------------------------------------0---|

Rest

3:32
F#|---------------------------------|
C#|---------------------------------|
G#|-------------------------0---1---|
C#|-5---0---0---3---0---0-----------|

3:35
F#|-----------------------------------------------------------------|
C#|-----------------------------------------------------------------|
G#|-5-5-5-5-5-5-5-5-5-5-5-5-5-5-5-5-1-1-1-1-1-1-1-1-1-1-1-1-1-1-1-1-|
C#|-----------------------------------------------------------------|

F#|-----------------------------------------------------------------|
C#|-----------------------------------------------------------------|
G#|-----------------------------------------------------------------|
C#|-3-3-3-3-3-3-3-3-3-3-3-3-3-3-3-3-5-5-5-5-5-5-5-5-5-5-5-5-5-5-5-5-|

F#|-----------------------------------------------------------------|
C#|-----------------------------------------------------------------|
G#|-5-5-5-5-5-5-5-5-5-5-7-7-8-8-7-7-1-1-1-1-1-1-1-1-1-1-1-1-1-1-1-1-|
C#|-----------------------------------------------------------------|

F#|-----------------------------------------------------------------|
C#|-----------------------------------------------------------------|
G#|-----------------------------------------------------8---7---3---|
C#|-3-3-3-3-3-3-3-3-3-3-3-3-3-3-3-3-5-5-5-5-5-5-5-5-5---------------|

3:54
F#|--------------------------------------------------------------------------|
C#|-12-12-12-12---12-12-------10---12---10---8---8-8---8-8---8-8-7-7-8-8-7-7-|
G#|--------------------------------------------------------------------------|
C#|--------------------------------------------------------------------------|

3:59
F#|------------------------------------------------------------------------|
C#|-15-15-15-15---15-15------------15-------17---12------------------------|
G#|---------------------------13----------------------10-------7---8---7---|
C#|------------------------------------------------------------------------|

F#|-----------------------------------------------------------------|
C#|-----------------------------------------------------------------|
G#|-5---5---5---5---5---5---5---5---1---1---1---1---1---1---1---1---|
C#|-----------------------------------------------------------------|

F#|-----------------------------------------------------------------|
C#|-----------------------------------------------------------------|
G#|---------------------------------------------------------0---1---|
C#|-3---3---3---3---3---3---3---3---5---0---0---3---0---0-----------|
Tabbed by Dave Vucko
comments
We did not receive enough feedback on this tab! Please rate:
print report bad tab
1 2 3 4 5
I want to post or [tab]
guest
You may want to rate the tab now too:
select rating
Please do not post tabs as comments. Select "correction" instead!