Oops, an error
Loading. Please wait.

My Life Inside Your Heart Bass Tab

ver2
ver2

Whole song

Interactive

More versions @911Tabs.com
754 views 6 this week
1 commentread comment
1 2 3 4 5
worth learning
x 1
Autoscroll
+/-
esc
set tempo
stop
Contributor
Difficulty
NEW! There's an official Ultimate Guitar app which is ideal
for learning songs when you're away from computer. Get the app
WARNING: You are trying to view
                                    content from Ultimate-Guitar.com
                                    in an unauthorized application,
                                    which is prohibited.

                                    Please use an official Ultimate
                                    Guitar Tabs application for iPhone,
                                    iPad or Android to access legitimate
                                    chords, guitar, bass, and drum tabs
                                    from Ultimate-Guitar.com database.

                                    Type "ultimate guitar tabs" in Apple
                                    App Store's or Android Market's
                                    search to find the application.
Song: My Life Inside Your Heart
Album: The Unraveling
Band: Rise Against
Bassist: Joe Principe

INTRO

G|-9---9-9-9-9-9-9-|-11--111111111111|-12--121212121212|-11--111111111111|
D|-9---9-9-9-9-9-9-|-9---9-9-9-9-9-9-|-10--101010101010|-12--121212121212|
A|-----------------|-----------------|-----------------|-----------------|
E|-----------------|-----------------|-----------------|-----------------|
   1 + 2 + 3 + 4 +   1 + 2 + 3 + 4 +   1 + 2 + 3 + 4 +   1 + 2 + 3 + 4 +

G|-9---9-9-9-9-9-9-|-11--111111111111|-12--121212121212|-11--111111111111|
D|-9---9-9-9-9-9-9-|-9---9-9-9-9-9-9-|-10--101010101010|-12--121212121212|
A|-----------------|-----------------|-----------------|-----------------|
E|-----------------|-----------------|-----------------|-----------------|
   1 + 2 + 3 + 4 +   1 + 2 + 3 + 4 +   1 + 2 + 3 + 4 +   1 + 2 + 3 + 4 +

G|-9---9-9-9-9-9-9-|-11--111111111111|-12--121212121212|-11--111111111111|
D|-9---9-9-9-9-9-9-|-9---9-9-9-9-9-9-|-10--101010101010|-12--121212121212|
A|-----------------|-----------------|-----------------|-----------------|
E|-----------------|-----------------|-----------------|-----------------|
   1 + 2 + 3 + 4 +   1 + 2 + 3 + 4 +   1 + 2 + 3 + 4 +   1 + 2 + 3 + 4 +

G|-9---9-9-9-9-9-9-|-11--111111111111|-12--121212121212|-11--111111111111|
D|-9---9-9-9-9-9-9-|-9---9-9-9-9-9-9-|-10--101010101010|-12--121212121212|
A|-----------------|-----------------|-----------------|-----------------|
E|-----------------|-----------------|-----------------|-----------------|
   1 + 2 + 3 + 4 +   1 + 2 + 3 + 4 +   1 + 2 + 3 + 4 +   1 + 2 + 3 + 4 +

G|-----------------|-----------------||
D|-----------------|-----------------||
A|-----------------|-----------------||
E|-0---------------|---------------0-||
   1 + 2 + 3 + 4 +   1 + 2 + 3 + 4 + 

VERSE

G|-----------------|-----------------|-----------------|-----------------|
D|-----------------|-----------------|-----------------|-----------------|
A|-----------------|---2-2-2-3-3-3---|-----------------|---2-2-2-3-3-----|
E|---0-0-0-0-0-0-0-|-0-------------3-|---3-3-3-3-3-3-3-|-3-----------3-0-|
   1 + 2 + 3 + 4 +   1 + 2 + 3 + 4 +   1 + 2 + 3 + 4 +   1 + 2 + 3 + 4 +

G|-----------------|-----------------|-----------------|-----------------|
D|-----------------|-----------------|-----------------|-----------------|
A|-----------------|---2-2-2-3-3-----|-----------------|---2-2-2-3-3-----|
E|---0-0-0-0-0-0-0-|-0-----------0-3-|---3-3-3-3-3-3-3-|-3-----------3-0-|
   1 + 2 + 3 + 4 +   1 + 2 + 3 + 4 +   1 + 2 + 3 + 4 +   1 + 2 + 3 + 4 +

G|-----------------|-----------------|-----------------|-----------------|
D|-----------------|-----------------|-----------------|-----------------|
A|-----------------|---2-2-2-3-3-----|-----------------|---2-2-2-3-3-----|
E|---0-0-0-0-0-0-0-|-0-----------0-3-|---3-3-3-3-3-3-3-|-3-----------3-0-|
   1 + 2 + 3 + 4 +   1 + 2 + 3 + 4 +   1 + 2 + 3 + 4 +   1 + 2 + 3 + 4 +

G|-----------------|-----------------|-----------------|-----------------|
D|-----------------|-----------------|-----------------|-----------------|
A|-----------------|---2-2-2-3-3-----|-----------------|-----------------|
E|---0-0-0-0-0-0-0-|-0-----------0-3-|---3-3-3-3-3-3-3-|-3-3-3-3-3-3-3-3-|
   1 + 2 + 3 + 4 +   1 + 2 + 3 + 4 +   1 + 2 + 3 + 4 +   1 + 2 + 3 + 4 +

G|-----------------|-----------------|-----------------|-----------------||
D|-----------------|-----------------|-----------------|-----------------||
A|-0-0-0-0-0-0-0-0-|-0-0-0-0-0-0-0-0-|-3-3-3-3-3-3-3-3-|-3-3-3-3-3-3-3-3-||
E|-----------------|-----------------|-----------------|-----------------||
   1 + 2 + 3 + 4 +   1 + 2 + 3 + 4 +   1 + 2 + 3 + 4 +   1 + 2 + 3 + 4 +

CHORUS

G|-----------------|-----------------|-----------------|-----------------|
D|-----------------|-----------------|-----------------|-----------------|
A|-7---------------|-----------------|-3-3-3---3-3-3-5-|---5-5---5-5-5---|
E|-----0-----0-0---|-3-3-3-3---3-3---|-----------------|-----------------|
   1 + 2 + 3 + 4 +   1 + 2 + 3 + 4 +   1 + 2 + 3 + 4 +   1 + 2 + 3 + 4 +

G|-----------------|-----------------|-----------------|-----------------|
D|-----------------|-----------------|-----------------|-----------------|
A|-7---------------|-----------------|-3-3-3---3-3-3---|-------5---5-5---|
E|-----0-----0-0---|-3-3-3-3---3-3---|---------------3-|---3-3-----------|
   1 + 2 + 3 + 4 +   1 + 2 + 3 + 4 +   1 + 2 + 3 + 4 +   1 + 2 + 3 + 4 +

G|-----------------|-----------------|-----------------|-----------------|
D|-----------------|-----------------|-----------------|-----------------|
A|-7---------------|-----------------|-3-3-3---3-3-3-5-|---5-5---5-5-5---|
E|-----0-----0-0---|-3-3-3-3---3-3---|-----------------|-----------------|
   1 + 2 + 3 + 4 +   1 + 2 + 3 + 4 +   1 + 2 + 3 + 4 +   1 + 2 + 3 + 4 +

G|-----------------|-----------------|-----------------|-----------------|
D|-----------------|-----------------|-----------------|-----------------|
A|-7---------------|-----------------|-3-3-3---3-3-3---|-------5---5-5---|
E|-----0-----0-0---|-3-3-3-3---3-3---|---------------3-|---3-3-----------|
   1 + 2 + 3 + 4 +   1 + 2 + 3 + 4 +   1 + 2 + 3 + 4 +   1 + 2 + 3 + 4 +

G|-9---------------|-----------------||
D|-9---------------|-----------------||
A|-----------------|-----------------||
E|-----------------|---------------0-||
   1 + 2 + 3 + 4 +   1 + 2 + 3 + 4 + 

VERSE

G|-----------------|-----------------|-----------------|-----------------|
D|-----------------|-----------------|-----------------|-----------------|
A|-----------------|---2-2-2-3-3-----|-----------------|---2-2-2-3-3-----|
E|---0-0-0-0-0-0-0-|-0-----------0-3-|---3-3-3-3-3-3-3-|-3-----------3-0-|
   1 + 2 + 3 + 4 +   1 + 2 + 3 + 4 +   1 + 2 + 3 + 4 +   1 + 2 + 3 + 4 +

G|-----------------|-----------------|-----------------|-----------------|
D|-----------------|-----------------|-----------------|-----------------|
A|-----------------|---2-2-2-3-3-----|-----------------|---2-2-2-3-3-----|
E|---0-0-0-0-0-0-0-|-0-----------0-3-|---3-3-3-3-3-3-3-|-3-----------3-0-|
   1 + 2 + 3 + 4 +   1 + 2 + 3 + 4 +   1 + 2 + 3 + 4 +   1 + 2 + 3 + 4 +

G|-----------------|-----------------|-----------------|-----------------|
D|-----------------|-----------------|-----------------|-----------------|
A|-----------------|---2-2-2-3-3-----|-----------------|---2-2-2-3-3-----|
E|---0-0-0-0-0-0-0-|-0-----------0-3-|---3-3-3-3-3-3-3-|-3-----------3-0-|
   1 + 2 + 3 + 4 +   1 + 2 + 3 + 4 +   1 + 2 + 3 + 4 +   1 + 2 + 3 + 4 +

G|-----------------|-----------------|-----------------|-----------------|
D|-----------------|-----------------|-----------------|-----------------|
A|-----------------|---2-2-2-3-3-----|-----------------|-----------------|
E|---0-0-0-0-0-0-0-|-0-----------0-3-|---3-3-3-3-3-3-3-|-3-3-3-3-3-3-3-3-|
   1 + 2 + 3 + 4 +   1 + 2 + 3 + 4 +   1 + 2 + 3 + 4 +   1 + 2 + 3 + 4 +

G|-----------------|-----------------|-----------------|-----------------||
D|-----------------|-----------------|-----------------|-----------------||
A|-0-0-0-0-0-0-0-0-|-0-0-0-0-0-0-0-0-|-3-3-3-3-3-3-3-3-|-3-3-3-3-3-3-3-3-||
E|-----------------|-----------------|-----------------|-----------------||
   1 + 2 + 3 + 4 +   1 + 2 + 3 + 4 +   1 + 2 + 3 + 4 +   1 + 2 + 3 + 4 +

CHORUS

G|-----------------|-----------------|-----------------|-----------------|
D|-----------------|-----------------|-----------------|-----------------|
A|-7---------------|-----------------|-3-3-3---3-3-3-5-|---5-5---5-5-5---|
E|-----0-----0-0---|-3-3-3-3---3-3---|-----------------|-----------------|
   1 + 2 + 3 + 4 +   1 + 2 + 3 + 4 +   1 + 2 + 3 + 4 +   1 + 2 + 3 + 4 +

G|-----------------|-----------------|-----------------|-----------------|
D|-----------------|-----------------|-----------------|-----------------|
A|-7---------------|-----------------|-3-3-3---3-3-3---|-------5---5-5---|
E|-----0-----0-0---|-3-3-3-3---3-3---|---------------3-|---3-3-----------|
   1 + 2 + 3 + 4 +   1 + 2 + 3 + 4 +   1 + 2 + 3 + 4 +   1 + 2 + 3 + 4 +

G|-----------------|-----------------|-----------------|-----------------|
D|-----------------|-----------------|-----------------|-----------------|
A|-7---------------|-----------------|-3-3-3---3-3-3-5-|---5-5---5-5-5---|
E|-----0-----0-0---|-3-3-3-3---3-3---|-----------------|-----------------|
   1 + 2 + 3 + 4 +   1 + 2 + 3 + 4 +   1 + 2 + 3 + 4 +   1 + 2 + 3 + 4 +

G|-----------------|-----------------|-----------------|-----------------|
D|-----------------|-----------------|-----------------|-----------------|
A|-7---------------|-----------------|-3-3-3---3-3-3---|-------5---5-5---|
E|-----0-----0-0---|-3-3-3-3---3-3---|---------------3-|---3-3-----------|
   1 + 2 + 3 + 4 +   1 + 2 + 3 + 4 +   1 + 2 + 3 + 4 +   1 + 2 + 3 + 4 +

INTERLUDE

G|-9---9-9-9-9-9-9-|-11--111111111111|-12--121212121212|-11--111111111111|
D|-9---9-9-9-9-9-9-|-9---9-9-9-9-9-9-|-10--101010101010|-12--121212121212|
A|-----------------|-----------------|-----------------|-----------------|
E|-----------------|-----------------|-----------------|-----------------|
   1 + 2 + 3 + 4 +   1 + 2 + 3 + 4 +   1 + 2 + 3 + 4 +   1 + 2 + 3 + 4 +

G|-9---9-9-9-9-9-9-|-11--111111111111|-12--121212121212|-11--111111111111||
D|-9---9-9-9-9-9-9-|-9---9-9-9-9-9-9-|-10--101010101010|-12--121212121212||
A|-----------------|-----------------|-----------------|-----------------||
E|-----------------|-----------------|-----------------|-----------------||
   1 + 2 + 3 + 4 +   1 + 2 + 3 + 4 +   1 + 2 + 3 + 4 +   1 + 2 + 3 + 4 +

BRIDGE

G|-9---9-9-9-9-9-9-|-11--111111111111|-12--121212121212|-11--111111111111|
D|-9---9-9-9-9-9-9-|-9---9-9-9-9-9-9-|-10--101010101010|-12--121212121212|
A|-----------------|-----------------|-----------------|-----------------|
E|-----------------|-----------------|-----------------|-----------------|
   1 + 2 + 3 + 4 +   1 + 2 + 3 + 4 +   1 + 2 + 3 + 4 +   1 + 2 + 3 + 4 +

G|-9---9-9-9-9-9-9-|-11--111111111111|-12--121212121212|-11--111111111111|
D|-9---9-9-9-9-9-9-|-9---9-9-9-9-9-9-|-10--101010101010|-12--121212121212|
A|-----------------|-----------------|-----------------|-----------------|
E|-----------------|-----------------|-----------------|-----------------|
   1 + 2 + 3 + 4 +   1 + 2 + 3 + 4 +   1 + 2 + 3 + 4 +   1 + 2 + 3 + 4 +

G|-----------------|-----------------|-----------------|-----------------|
D|-----------------|-----------------|-----------------|-----------------|
A|-----------------|-2---2-2-2-2-2-2-|-3---3-3-3-3-3-3-|-5---5-5-5-5-5-5-|
E|-0---0-0-0-0-0-0-|-----------------|-----------------|-----------------|
   1 + 2 + 3 + 4 +   1 + 2 + 3 + 4 +   1 + 2 + 3 + 4 +   1 + 2 + 3 + 4 +

G|-----------------|-----------------|-----------------|-----------------|
D|-----------------|-----------------|-----------------|-----------------|
A|-----------------|-2---2-2-2-2-2-2-|-3---3-3-3-3-3-3-|-5---5-5-5-5-5-5-|
E|-0---0-0-0-0-0-0-|-----------------|-----------------|-----------------|
   1 + 2 + 3 + 4 +   1 + 2 + 3 + 4 +   1 + 2 + 3 + 4 +   1 + 2 + 3 + 4 +

G|-----------------|-----------------|-----------------|-----------------|
D|-----------------|-4---4-4-4-4-4-4-|-5---5-5-5-5-5-5-|-7---7-7-7-7-7-7-|
A|-7---7-7-7-7-7-7-|-----------------|-----------------|-----------------|
E|-----------------|-----------------|-----------------|-----------------|
   1 + 2 + 3 + 4 +   1 + 2 + 3 + 4 +   1 + 2 + 3 + 4 +   1 + 2 + 3 + 4 +

G|-----------------|-----------------|-----------------|-----------------|
D|-----------------|-4---4-4-4-4-4-4-|-5---5-5-5-5-5-5-|-7---7-7-7-7-7-7-|
A|-7---7-7-7-7-7-7-|-----------------|-----------------|-----------------|
E|-----------------|-----------------|-----------------|-----------------|
   1 + 2 + 3 + 4 +   1 + 2 + 3 + 4 +   1 + 2 + 3 + 4 +   1 + 2 + 3 + 4 +

G|-----------------||
D|-----------------||
A|-5-5-5-5-5-5-5-5-||
E|-----------------||
   1 + 2 + 3 + 4 + 

CHORUS

G|-----------------|-----------------|-----------------|-----------------|
D|-----------------|-----------------|-----------------|-----------------|
A|-7---------------|-----------------|-3-3-3---3-3-3-5-|---5-5---5-5-5---|
E|-----0-----0-0---|-3-3-3-3---3-3---|-----------------|-----------------|
   1 + 2 + 3 + 4 +   1 + 2 + 3 + 4 +   1 + 2 + 3 + 4 +   1 + 2 + 3 + 4 +

G|-----------------|-----------------|-----------------|-----------------|
D|-----------------|-----------------|-----------------|-----------------|
A|-7---------------|-----------------|-3-3-3---3-3-3---|-------5---5-5---|
E|-----0-----0-0---|-3-3-3-3---3-3---|---------------3-|---3-3-----------|
   1 + 2 + 3 + 4 +   1 + 2 + 3 + 4 +   1 + 2 + 3 + 4 +   1 + 2 + 3 + 4 +

G|-----------------|-----------------|-----------------|-----------------|
D|-----------------|-----------------|-----------------|-----------------|
A|-7---------------|-----------------|-3-3-3---3-3-3-5-|---5-5---5-5-5---|
E|-----0-----0-0---|-3-3-3-3---3-3---|-----------------|-----------------|
   1 + 2 + 3 + 4 +   1 + 2 + 3 + 4 +   1 + 2 + 3 + 4 +   1 + 2 + 3 + 4 +

G|-----------------|-----------------|-----------------|-----------------|
D|-----------------|-----------------|-----------------|-----------------|
A|-7---------------|-----------------|-3-3-3---3-3-3---|-------5---5-5---|
E|-----0-----0-0---|-3-3-3-3---3-3---|---------------3-|---3-3-----------|
   1 + 2 + 3 + 4 +   1 + 2 + 3 + 4 +   1 + 2 + 3 + 4 +   1 + 2 + 3 + 4 +

G|-----------------|-----------------||
D|-----------------|-----------------||
A|-----------------|-----------------||
E|-0---------------|-----------------||
   1 + 2 + 3 + 4 +   1 + 2 + 3 + 4 + 
comments
We did not receive enough feedback on this tab! Please rate:
print report bad tab
1 2 3 4 5
1 comment total.
0 reply
chromaticvision wrote on April 25 2011, 07:24 pm

me playing this at: http://www.youtube.com/watch?v=x8nD0ptAMOI

I want to post or [tab]
guest
You may want to rate the tab now too:
select rating
Please do not post tabs as comments. Select "correction" instead!