Oops, an error
Loading. Please wait.

Prayer Of The Refugee Tab

ver2
475,446 views 693 this week
43 commentsread comments
1 2 3 4 5
excellent!
x 141
Autoscroll
+/-
esc
set tempo
stop
Contributor
WARNING: You are trying to view
                                    content from Ultimate-Guitar.com
                                    in an unauthorized application,
                                    which is prohibited.

                                    Please use an official Ultimate
                                    Guitar Tabs application for iPhone,
                                    iPad or Android to access legitimate
                                    chords, guitar, bass, and drum tabs
                                    from Ultimate-Guitar.com database.

                                    Type "ultimate guitar tabs" in Apple
                                    App Store's or Android Market's
                                    search to find the application.
Artist : Rise Against
Song : Prayer Of The Refugee
Album : The Sufferer & The Witness
Tuning : Drop D
Tabbed By : Aaron Kunde

x = lightly touch strings with fingertips
^ = let ring out
. = palm muted
/ = slide up
\ = slide down

Intro/Verse ( rhythm )
|------------------------------------------------------------------------------------------------|
|-7-66-77-66-77-66-77-66-77-66-77-66-77-66-77-66-77-66-77-66-77-66-------77-66-77-66-77-66-77-66-|
|-8-88-88-88-88-88-88-88-88-88-88-88-88-88-88-88-88-88-88-88-88-88-88-88-88-88-88-88-88-88-88-88-|
|------------------------------------------------------------------88-88-------------------------|
|------------------------------------------------------------------------------------------------|
|------------------------------------------------------------------------------------------------|

( lead )
|---------------------------------------------|
|---------------------------------------------|
|---------------------------------------------|
|-------4-44-46-66-6------------4-44-4--------|
|-1-11-12-22-24-44-46-66-61-11-12-22-24-44-41-|
|-1-11-1------------6-66-61-11-1------4-44-41-|

Chorus ( rhythm )
|-------------------------------------------------------------------------------------------------------------------------------------------|
|-------------------------------------------------------------------------------------------------------------------------------------------|
|-------------------------------------------------------------------------------------------------------------------------------------------|
|-----------------------------------6666666666666666-4444444444444444-----------------------------------6666666666666666-4444444444444444-4-|
|-1111111111111111-4444444444444444-4444444444444444-2222222222222222-1111111111111111-4444444444444444-4444444444444444-2222222222222222-2-|
|-1111111111111111-4444444444444444-----------------------------------1111111111111111-4444444444444444-------------------------------------|
                                                                                         
                                                ^
( lead )
|----------------------------------------------------------------------------------------------------|
|----------------------------------------------------------------------------------------------------|
|-8-6/8-6/8-6/1010-8-6/8-6/8-6/1010-8-6/8-6/8-6/1010-13-13-13-13-11-11-11-11-10-10-10-10-11-11-11-11-|
|-x-x/x-x/x-x/x-x--x-x/x-x/x-x/x-x--x-x/x-x/x-x/x-x---x--x--x--x--x--x--x--x--x--x--x--x--x--x--x--x-|
|-6-4/6-4/6-4/8-8--6-4/6-4/6-4/8-8--6-4/6-4/6-4/8-8--11-11-11-11--9--9--9--9--8--8--8--8--9--9--9--9-|
|----------------------------------------------------------------------------------------------------|

-----------------------------------------------------------------------------------------------------|
-----------------------------------------------------------------------------------------------------|
--8-6/8-6/8-6/1010-8-6/8-6/8-6/1010-8-6/8-6/8-6/1010-13-13-13-13-11-11-11-11-10-10-10-10-11------8---|
--x-x/x-x/x-x/x-x--x-x/x-x/x-x/x-x--x-x/x-x/x-x/x-x---x--x--x--x--x--x--x--x--x--x--x--x--x------x---|
--6-4/6-4/6-4/8-8--6-4/6-4/6-4/8-8--6-4/6-4/6-4/8-8--11-11-11-11--9--9--9--9--8--8--8--8--9------6---|
-----------------------------------------------------------------------------------------------------|
                                                                                         
^      ^
Verse 2 ( rhythm )
|------------------------------------------------------------------------------------------------|
|-7-66-77-66-77-66-77-66-77-66-77-66-77-66-77-66-77-66-77-66-77-66-------77-66-77-66-77-66-77-66-|
|-8-88-88-88-88-88-88-88-88-88-88-88-88-88-88-88-88-88-88-88-88-88-88-88-88-88-88-88-88-88-88-88-|
|------------------------------------------------------------------88-88-------------------------|
|------------------------------------------------------------------------------------------------|
|------------------------------------------------------------------------------------------------|

( lead )
|---------------------------------------------------------------------------|
|---------------------------------------------------------------------------|
|-6/8-----11-13-15\8------4-6-3---------------------------------------------|
|-x/x------x--x--x\x------x-x-x-------4-44-46-66-6------------4-44-4--------|
|-4/6------9-11-13\6------2-4-1-1-11-12-22-24-44-46-66-61-11-12-22-24-44-41-|
|-------------------------------1-11-1------------6-66-61-11-1------4-44-41-|
    ^              ^
Chorus ( rhythm )
|------------------------------------------------------------------------------------------------------------------------------------------|
|------------------------------------------------------------------------------------------------------------------------------------------|
|------------------------------------------------------------------------------------------------------------------------------------------|
|-----------------------------------6666666666666666-4444444444444444-----------------------------------6666666666666666-4444444444444444--|
|-1111111111111111-4444444444444444-4444444444444444-2222222222222222-1111111111111111-4444444444444444-4444444444444444-2222222222222222--|
|-1111111111111111-4444444444444444-----------------------------------1111111111111111-4444444444444444------------------------------------|

( lead )
|----------------------------------------------------------------------------------------------------|
|----------------------------------------------------------------------------------------------------|
|-8-6/8-6/8-6/1010-8-6/8-6/8-6/1010-8-6/8-6/8-6/1010-13-13-13-13-11-11-11-11-10-10-10-10-11-11-11-11-|
|-x-x/x-x/x-x/x-x--x-x/x-x/x-x/x-x--x-x/x-x/x-x/x-x---x--x--x--x--x--x--x--x--x--x--x--x--x--x--x--x-|
|-6-4/6-4/6-4/8-8--6-4/6-4/6-4/8-8--6-4/6-4/6-4/8-8--11-11-11-11--9--9--9--9--8--8--8--8--9--9--9--9-|
|----------------------------------------------------------------------------------------------------|

-----------------------------------------------------------------------------------------------------|
-----------------------------------------------------------------------------------------------------|
--8-6/8-6/8-6/1010-8-6/8-6/8-6/1010-8-6/8-6/8-6/1010-13-13-13-13-11-11-11-11-10-10-10-10-11-11-11-11-|
--x-x/x-x/x-x/x-x--x-x/x-x/x-x/x-x--x-x/x-x/x-x/x-x---x--x--x--x--x--x--x--x--x--x--x--x--x--x--x--x-|
--6-4/6-4/6-4/8-8--6-4/6-4/6-4/8-8--6-4/6-4/6-4/8-8--11-11-11-11--9--9--9--9--8--8--8--8--9--9--9--9-|
-----------------------------------------------------------------------------------------------------|


Interlude ( rhythm )
|--------------------------------------------------------------------------------------------------------------------------------------------------|
|--------------------------------------------------------------------------------------------------------------------------------------------------|
|--------------------------------------------------------------------------------------------------------------------------------------------------|
|--------------------------------------------------------------------------------------------------------------------------------------------------|
|-6-66666666666666-4-4444444444444444-6-6666666666666666-4-4444444444444444-6-6666666666666666-4-4444444444444444-2-222222222222222111111111111111-|
|-6-66666666666666-4-4444444444444444-6-6666666666666666-4-4444444444444444-6-6666666666666666-4-4444444444444444-2-222222222222222111111111111111-|
    ..............   ............ ..    ................   ............ ..   
  ............ ..     ..............................
( lead )
|---------------------------------------------------------------------------------------------------------------------------------------------------|
|---------------------------------------------------------------------------------------------------------------------------------------------------|
|-8----------------6------------------8-----------------11/6------------------8------------------6------------------4----------------3--------------|
|-x----------------x------------------x------------------x/x------------------x------------------x------------------x----------------x--------------|
|-6----------------4------------------6------------------9/4------------------6------------------4------------------2----------------1--------------|
|---------------------------------------------------------------------------------------------------------------------------------------------------|
  ^                ^                  ^                    ^                  ^          
       ^                  ^                ^

Pre Solo ( rhythm )
|--------------|
|--------------|
|--------------|
|-4444444---66-|
|-2222222-4-44-|
|---------4----|

( lead )
|---------------|
|---------------|
|-8888888-11-88-|
|-xxxxxxx--x-xx-|
|-6666666--9-66-|
|---------------|

Solo ( rhythm )
|-------------------------------------------------------------------------------------------------------------------------------------------|
|-------------------------------------------------------------------------------------------------------------------------------------------|
|-------------------------------------------------------------------------------------------------------------------------------------------|
|-----------------------------------6666666666666666-4444444444444444-----------------------------------6666666666666666-4444444444444444-4-|
|-1111111111111111-4444444444444444-4444444444444444-2222222222222222-1111111111111111-4444444444444444-4444444444444444-2222222222222222-2-|
|-1111111111111111-4444444444444444-----------------------------------1111111111111111-4444444444444444-------------------------------------|
                                                                                         
                                                ^
( lead )
|-------------------------------------------------------------------------------------------------------------------------------------------------------|
|-------------------------------------------------------------------------------------------------------------------------------------------------------|
|-8-8-8-8-8-8-8-10-10-10-10-11-11-11-11-8-8-8-8-8-8-8-8-10-10-10-10-11-11-11-11-8-8-8-8-8-8-8-8-10-10-10-10-11-11-11-11-8-8-8-8-8-8-8-8-8-6-6-6-6-6-6-6-|
|-x-x-x-x-x-x-x--x--x--x--x--x--x--x--x-x-x-x-x-x-x-x-x--x--x--x--x--x--x--x--x-x-x-x-x-x-x-x-x--x--x--x--x--x--x--x--x-x-x-x-x-x-x-x-x-x-x-x-x-x-x-x-x-|
|-6-6-6-6-6-6-6--8--8--8--8--9--9--9--9-6-6-6-6-6-6-6-6--8--8--8--8--9--9--9--9-6-6-6-6-6-6-6-6--8--8--8--8--9--9--9--9-6-6-6-6-6-6-6-6-6-4-4-4-4-4-4-4-|
|-------------------------------------------------------------------------------------------------------------------------------------------------------|

|-------------------------------------------------------------------------------|
|-------------------------------------------------------------------------------|
|-15--11--15-16-15-13-15--11--15-16-15-13-13-13--13--13-13-11-15--15--15--15----|
|--x---x---x--x--x--x--x---x---x--x--x--x--x--x---x---x--x--x--x---x---x---x----|
|-13---9--13-14-13-11-13---9--13-14-13-11-11-11--11--11-11--9-13--13--13--13----|
|-------------------------------------------------------------------------------|
                                                                           ^
Fill ( rhythm )
|--------------------|
|-7-66-77-66-77-66---|
|-8-88-88-88-88-88-8-|
|------------------8-|
|--------------------|
|--------------------|

( lead )
|--------------------|
|--------------------|
|--------------------|
|--------------------|
|------------------1-|
|------------------1-|

Chorus ( rhythm )
|------------------------------------------------------------------------------------------------------------------------------------------|
|------------------------------------------------------------------------------------------------------------------------------------------|
|------------------------------------------------------------------------------------------------------------------------------------------|
|-----------------------------------6666666666666666-4444444444444444-----------------------------------6666666666666666-4444444444444444--|
|-1111111111111111-4444444444444444-4444444444444444-2222222222222222-1111111111111111-4444444444444444-4444444444444444-2222222222222222--|
|-1111111111111111-4444444444444444-----------------------------------1111111111111111-4444444444444444------------------------------------|

( lead )
|----------------------------------------------------------------------------------------------------|
|----------------------------------------------------------------------------------------------------|
|-8-6/8-6/8-6/1010-8-6/8-6/8-6/1010-8-6/8-6/8-6/1010-13-13-13-13-11-11-11-11-10-10-10-10-11-11-11-11-|
|-x-x/x-x/x-x/x-x--x-x/x-x/x-x/x-x--x-x/x-x/x-x/x-x---x--x--x--x--x--x--x--x--x--x--x--x--x--x--x--x-|
|-6-4/6-4/6-4/8-8--6-4/6-4/6-4/8-8--6-4/6-4/6-4/8-8--11-11-11-11--9--9--9--9--8--8--8--8--9--9--9--9-|
|----------------------------------------------------------------------------------------------------|

-----------------------------------------------------------------------------------------------------|
-----------------------------------------------------------------------------------------------------|
--8-6/8-6/8-6/1010-8-6/8-6/8-6/1010-8-6/8-6/8-6/1010-13-13-13-13-11-11-11-11-10-10-10-10-11-11-11-11-|
--x-x/x-x/x-x/x-x--x-x/x-x/x-x/x-x--x-x/x-x/x-x/x-x---x--x--x--x--x--x--x--x--x--x--x--x--x--x--x--x-|
--6-4/6-4/6-4/8-8--6-4/6-4/6-4/8-8--6-4/6-4/6-4/8-8--11-11-11-11--9--9--9--9--8--8--8--8--9--9--9--9-|
-----------------------------------------------------------------------------------------------------|

Outro ( rhythm )
|-------------------------------------------------------------------------------------------------------------------------------|
|-------------------------------------------------------------------------------------------------------------------------------|
|-------------------------------------------------------------------------------------------------------------------------------|
|-----------------------------66-666-66-666-44-444-44-444-----------------------------------6666666666666666-4444444444444444---|
|-11-111-11-111-44-444-44-444-44-444-44-444-22-222-22-222-1111111111111111-4444444444444444-4444444444444444-2222222222222222-1-|
|-11-111-11-111-44-444-44-444-----------------------------1111111111111111-4444444444444444-----------------------------------1-|
                                                                                         
                                    ^
( lead )
|---------------------------------------------------------|
|---------------------------------------------------------|
|---------------------------------------------------------|
|-----------------------------66-666-66-666-44-444-44-444-|
|-11-111-11-111-44-444-44-444-44-444-44-444-22-222-22-222-|
|-11-111-11-111-44-444-44-444-----------------------------|

-----------------------------------------------------------------------------------------------------|
-----------------------------------------------------------------------------------------------------|
--8-6/8-6/8-6/1010-8-6/8-6/8-6/1010-8-6/8-6/8-6/1010-13-13-13-13-11-11-11-11-10-10-10-10-11------8---|
--x-x/x-x/x-x/x-x--x-x/x-x/x-x/x-x--x-x/x-x/x-x/x-x---x--x--x--x--x--x--x--x--x--x--x--x--x------x---|
--6-4/6-4/6-4/8-8--6-4/6-4/6-4/8-8--6-4/6-4/6-4/8-8--11-11-11-11--9--9--9--9--8--8--8--8--9------6---|
-----------------------------------------------------------------------------------------------------|
                                                                                         
^      ^
comments
print report bad tab
43 comments total. Showing first comments.
0 reply
justin43091 wrote on August 15 2006, 07:52 pm

DUDE THIS IS PERFECT u rock 100% 5 stars

+1 reply
garrett5 wrote on August 21 2006, 05:12 pm

Nice Tab - 5 stars

+1 reply
shugo449 wrote on September 2 2006, 02:50 pm

really good tab... 5*

I want to post or [tab]
guest
You may want to rate the tab now too:
select rating
Please do not post tabs as comments. Select "correction" instead!