Oops, an error
Loading. Please wait.

Prayer Of The Refugee Tab

ver3
ver3
More versions @911Tabs.com
16,932 views 9 this week
11 commentsread comments
1 2 3 4 5
accurate
x 11
Autoscroll
+/-
esc
set tempo
stop
Contributor
Difficulty
intermediate
WARNING: You are trying to view
                                    content from Ultimate-Guitar.com
                                    in an unauthorized application,
                                    which is prohibited.

                                    Please use an official Ultimate
                                    Guitar Tabs application for iPhone,
                                    iPad or Android to access legitimate
                                    chords, guitar, bass, and drum tabs
                                    from Ultimate-Guitar.com database.

                                    Type "ultimate guitar tabs" in Apple
                                    App Store's or Android Market's
                                    search to find the application.
/=slide
~=let ring
..=palm mute
                  +base in            +drums and vocals in
---2------2-2-------2-2-------2-2-------2-2-------2-2-------2-2------|
---3-x-2--3-3--2-2--3-3--2-2--3-3--2-2--3-3--2-2--3-3--2-2--3-3--2-2-|
---4-x-4--4-4--4-4--4-4--4-4--4-4--4-4--4-4--4-4--4-4--4-4--4-4--4-4-|
-----x-4-------4-4-------4-4-------4-4-------4-4-------4-4-------4-4-|
---------------------------------------------------------------------|
---------------------------------------------------------------------|
*do not let the second stroke on each chord ring. mute the strings with your pick hand
immediately after you strike the chord
**if you want to, you can also add a muted stroke in between the Bm chord and the B5
to achieve a more staccato-type sound

                            (…in a place that we once knew)
                            (…in a life no one could trust)
-2-2-------2-2-------2-2-------2-2---------|-------|
-3-3--2-2--3-3--2-2--3-3--2-2--3-3-2-2-2-2-|-22222-|
-4-4--4-4--4-4--4-2--4-4--4-4--4-4-4-4-4-4-|-44444-| this last part is not
------4-4-------4-4-------4-4------4-4-4-4-|-44444-| included in the end of
---------------------------------------2-2-|-22222-| the second part of
-------------------------------------------|-------| the verse right before
                                           x2       the chorus

second time guitar 2 enters with distortion playing the same thing (except goes to the
notes of the B5 twice instead of once)

as for the second guitar in the second verse, he's playing intervals, different combinations
of C#, Eb, B and one or two other notes... its easy enough to figure out.


bridge                                 x3 *there are one or two more chords
--------------------------------------|------------------------| here after the
--------------------------------------|------------------------| third repeat
--------------------------------------|------------------------| which i can't
--6-----------------4-----------------|------------------------| get but i'm
--6-666666666666666-4-444444444444444-|------------------------| guessing an F
--4-444444444444444-2-222222222222222-|------------------------| and then a Bb
    ...............   ...............


pre-solo                                      x4
-------------------|-----------------------------| the fourth time it just
-------------------|-----------------------------| stays on the Eb (same
-8-888888-11111110-|-8--888888--10--101011111111-| rythem)
-x-xxxxxx-x-x-x-x--|-x--xxxxxx--x---x-x-x-x-x-x--|
-6-666666-9-9-9-8--|-6--666666--8---8-8-9-9-9-9--|
-------------------|-----------------------------|

solo
-------------------------------------------------------------------------|
-/11----/11-12-11-9-11----/11-12-11-9-9--9--9-9-9-9----11-11--11----11~~-|
-----11----------------11---------------------------11-------------------|
-------------------------------------------------------------------------|
-------------------------------------------------------------------------|
-------------------------------------------------------------------------|
i believe the rythem guitar is playing the chorus under the solo but i'm not 100% on that

This tab is not 100% correct, i'm not going to pretend i'm some musical genius, however
do believe that it is very close.  I made this tab just to get another Sufferer and
song up, (caus that cd kicks so much ass) and it is meant to be a basic rendering of the 
 I would love to hear corrections and additions, especially the chorus. When you read
tab listen to the song, and if it doesn't sound right to you, go with how you think it 
tabs on this site are hardley ever correct over your ear, i've found from experience.
p.s. sorry for the grammar, its late.

Please send any corrections/additions and the chorus to reston.88@gmail.com
11 comments total. Showing first comments.
+1 reply
rockdude_2008 wrote on July 3 2006, 11:47 am

lol dude y'd u write "minus chorus" in the title, otherwise it looks like a good tab lol

0 reply
FBpunkRock wrote on July 3 2006, 12:56 pm

yea dude i know, i wrote it in brackets but UG took them out. i know, it looks retarded, its been pissing me off, and i can't edit it. whatever.
anyway, thanks, its the first one i posted, right now im working on The Good Left Undone, but that one's a little harder.

+1 reply
Pandrew947 wrote on July 4 2006, 08:34 am

this song is amazing, and good tab, but your verses dont sound that right to me and the chorus, i think it should be somethin like this

g-88888888-66666666----------44444444
d-88888888-66666666-66666666-44444444
a-66666666-44444444-66666666-22222222
e-------------------44444444---------

I want to post or [tab]
guest
You may want to rate the tab now too:
select rating
Please do not post tabs as comments. Select "correction" instead!