Oops, an error
Loading. Please wait.

Prayer Of The Refugee Tab

ver4
89,191 views 51 this week
9 commentsread comments
1 2 3 4 5
excellent!
x 23
add to favorites launch autoscroll
font size
0
reset
Autoscroll
+/-
esc
set tempo
stop
Contributor
Difficulty
intermediate
WARNING: You are trying to view
                                    content from Ultimate-Guitar.com
                                    in an unauthorized application,
                                    which is prohibited.

                                    Please use an official Ultimate
                                    Guitar Tabs application for iPhone,
                                    iPad or Android to access legitimate
                                    chords, guitar, bass, and drum tabs
                                    from Ultimate-Guitar.com database.

                                    Type "ultimate guitar tabs" in Apple
                                    App Store's or Android Market's
                                    search to find the application.
Rise Against - Prayer of the Refugee
====================================================================================================
Tuning: Eb Ab Db Gb Bb eb
Tabbed: Juho Kilkki juho.kilkk@gmail.com

~   = Let ring
Pm  = Palm mute
/   = Slide up


INTRO AND VERSE
       10x
||--------|--------------------------------------------------------------------------------||
||8--77--8|8--77--55--555--8--77--88--77--88--77--88--77--88--77--88--77--88--77--55-------||
||9--99--9|9--99--44--444--9--99--99--99--99--99--99--99--99--99--99--99--99--99--44-------||
||--------|--------------------------------------------------------------------------------||
||--------|--------------------------------------------------------------------------------||
||--------|--------------------------------------------------------------------------------||
||        |
||        |
||--------|--------------------------------------------------------------------------------||
||--------|--------------------------------------------------------------------------------||
||--------|------------------------5--55--57--77--7----------------5--55--5----------------||
||--------|----------------2--22--25--55--57--77--77--77--72--22--25--55--55--55--52-------||
||--------|----------------2--22--23--33--35--55--57--77--72--22--23--33--35--55--52-------||
||--------|----------------0--00--0----------------5--55--50--00--0--------3--33--30-------||
  1 2 3 4


CHORUS 2X
||------------------------------------------------------------------------------------------------|
||------------------------------------------------------------------------------------------------|
||----------------------------------------------------------------7-7-7-7-7-7-7-7-7-7-7-7-7-7-7-7-|
||2-2-2-2-2-2-2-2-2-2-2-2-2-2-2-2-5-5-5-5-5-5-5-5-5-5-5-5-5-5-5-5-7-7-7-7-7-7-7-7-7-7-7-7-7-7-7-7-|
||2-2-2-2-2-2-2-2-2-2-2-2-2-2-2-2-5-5-5-5-5-5-5-5-5-5-5-5-5-5-5-5-5-5-5-5-5-5-5-5-5-5-5-5-5-5-5-5-|
||0-0-0-0-0-0-0-0-0-0-0-0-0-0-0-0-3-3-3-3-3-3-3-3-3-3-3-3-3-3-3-3---------------------------------|
||
||
||------------------------------------------------------------------------------------------------|
||------------------------------------------------------------------------------------------------|
||9---9-7/9---9-7/9---12--11--11--9---9-7/9---9-7/9---12--11--11--9---9-7/9---9-7/9---12--11--11--|
||------------------------------------------------------------------------------------------------|
||7---7-5/7---7-5/7---10--9---9---7---7-5/7---7-5/7---10--9---9---7---7-5/7---7-5/7---10--9---9---|
||------------------------------------------------------------------------------------------------|
  1   2   3   4

|--------------------------------|--------------------------------------------------------||
|--------------------------------|--------------------------------------------------------||
|5-5-5-5-5-5-5-5-5-5-5-5-5-5-5-5-|5-5-5-5-5-5-5-5-5-5-5-5-5~------------------------------||
|5-5-5-5-5-5-5-5-5-5-5-5-5-5-5-5-|5-5-5-5-5-5-5-5-5-5-5-5-5~------------------------------||
|3-3-3-3-3-3-3-3-3-3-3-3-3-3-3-3-|3-3-3-3-3-3-3-3-3-3-3-3-3~------------------------------||
|--------------------------------|--------------------------------------------------------||
|                                |
|                                |
|--------------------------------|--------------------------------------------------------||
|--------------------------------|--------------------------------------------------------||
|14141414121212121111111112121212|14141414121212121111111112~-----------------------------||
|--------------------------------|--------------------------------------------------------||
|12121212101010109-9-9-9-10101010|12121212101010109-9-9-9-10~-----------------------------||
|--------------------------------|--------------------------------------------------------||
|1st end >>                      |2nd end >>

        ^Those are tens, elevens, twelves and fourteens in the chorus


VERSE
||------------------------------------------------------------------------------------------------|
||8--77--88--77--88--77--88--77--88--77--88--77--88--77--88--77--88--77--88--77--88--77--55--555--|
||9--99--99--99--99--99--99--99--99--99--99--99--99--99--99--99--99--99--99--99--99--99--44--444--|
||------------------------------------------------------------------------------------------------|
||------------------------------------------------------------------------------------------------|
||------------------------------------------------------------------------------------------------|
||
||
||------------------------------------------------------------------------------------------------|
||------------------------------------------------------------------------------------------------|
||9~------------------------------9~--------------12~-----14~-16~-9~------5~------7~------4~--4-7-|
||------------------------------9-----------------------------------------------------------------|
||7~------------------------------7~--------------10~-----12~-14~-7~------3~------5~------2~--2-5-|
||------------------------------------------------------------------------------------------------|
  1 2 3 4

|---------------------------------------------------------------------||
|8--77--88--77--88--77--88--77--88--77--88--77--88--77--55------------||
|9--99--99--99--99--99--99--99--99--99--99--99--99--99--44-------|| |-||
|---------------------------------------------------------------------||
|---------------------------------------------------------------------||
|
|
|----------------------------------------------------------------||
|----------------------------------------------------------------||
|--------5--55--57--77--7----------------5--55--5----------------||
|2--22--25--55--57--77--77--77--72--22--25--55--55--55--52-------||
|2--22--23--33--35--55--57--77--72--22--23--33--35--55--52-------||
|0--00--0----------------5--55--50--00--0--------3--33--30-------||


CHORUS 2X
||------------------------------------------------------------------------------------------------|
||------------------------------------------------------------------------------------------------|
||----------------------------------------------------------------7-7-7-7-7-7-7-7-7-7-7-7-7-7-7-7-|
||2-2-2-2-2-2-2-2-2-2-2-2-2-2-2-2-5-5-5-5-5-5-5-5-5-5-5-5-5-5-5-5-7-7-7-7-7-7-7-7-7-7-7-7-7-7-7-7-|
||2-2-2-2-2-2-2-2-2-2-2-2-2-2-2-2-5-5-5-5-5-5-5-5-5-5-5-5-5-5-5-5-5-5-5-5-5-5-5-5-5-5-5-5-5-5-5-5-|
||0-0-0-0-0-0-0-0-0-0-0-0-0-0-0-0-3-3-3-3-3-3-3-3-3-3-3-3-3-3-3-3---------------------------------|
||
||
||------------------------------------------------------------------------------------------------|
||------------------------------------------------------------------------------------------------|
||9---9-7/9---9-7/9---12--11--11--9---9-7/9---9-7/9---12--11--11--9---9-7/9---9-7/9---12--11--11--|
||------------------------------------------------------------------------------------------------|
||7---7-5/7---7-5/7---10--9---9---7---7-5/7---7-5/7---10--9---9---7---7-5/7---7-5/7---10--9---9---|
||------------------------------------------------------------------------------------------------|
  1   2   3   4

|--------------------------------||
|--------------------------------||
|5-5-5-5-5-5-5-5-5-5-5-5-5-5-5-5-||
|5-5-5-5-5-5-5-5-5-5-5-5-5-5-5-5-||
|3-3-3-3-3-3-3-3-3-3-3-3-3-3-3-3-||
|--------------------------------||
|
|
|--------------------------------||
|--------------------------------||
|14141414121212121111111112121212||
|----------------------------------||   There's missing some stars. For some
|12121212101010109-9-9-9-10101010--||   reason i couldn't get all of them there
|----------------------------------||   but you'll figure out how it should be.


INTERLUDE
Pm  **************  ********  **    **************  ********  **    ********
||------------------------------------------------------------------------------------------------|
||------------------------------------------------------------------------------------------------|
||------------------------------------------------------------------------------------------------|
||7-777777777777775-555555555-555-7-777777777777775-555555555-555-7-777777777777775-555555555-555-|
||7-777777777777775-555555555-555-7-777777777777775-555555555-555-7-777777777777775-555555555-555-|
||5-555555555555553-333333333-333-5-555555555555553-333333333-333-5-555555555555553-333333333-333-|
||
||
||------------------------------------------------------------------------------------------------|
||------------------------------------------------------------------------------------------------|
||9~--------------7~--------------9~--------------7~--------------99999999999999997777777777777777|
||------------------------------------------------------------------------------------------------|
||7~--------------5~--------------7~--------------5~--------------77777777777777775555555555555555|
||------------------------------------------------------------------------------------------------|
  1 2 3 4

Pm **************  **************
|--------------------------------||
|--------------------------------||
|--------------------------------||
|3-333333333333332-22222222222222||
|3-333333333333332-22222222222222||
|1-111111111111110-00000000000000||
|
|
|--------------------------------||
|--------------------------------||
|55555555555555554444444444444444||
|--------------------------------||
|33333333333333332222222222222222||
|--------------------------------||


FILL
||--------------------------------||
||--------------------------------||
||5-5-5-5-5-5-5-5---------7-7-7-7-||
||5-5-5-5-5-5-5-5-5-5-5-5-7-7-7-7-||
||3-3-3-3-3-3-3-3-5-5-5-5-5-5-5-5-||
||----------------3-3-3-3---------||
||
||
||--------------------------------||
||--------------------------------||
||9-9-9-9-9-9-9-9-121212127-7-7-7-||
||--------------------------------||
||7-7-7-7-7-7-7-7-101010105-5-5-5-||
||--------------------------------||
  1   2   3   4
                  ^Tens and twelves


SOLO (Those are elevens, twelves, fourteens, fifteens, sixteens in the solo)
||------------------------------------------------------------------------------------------------|
||------------------------------------------------------------------------------------------------|
||9-9-9-9-9-9-9-9-11111111121212129-9-9-9-9-9-9-9-11111111121212129-9-9-9-9-9-9-9-1111111112121212|
||------------------------------------------------------------------------------------------------|
||7-7-7-7-7-7-7-7-9-9-9-9-101010107-7-7-7-7-7-7-7-9-9-9-9-101010107-7-7-7-7-7-7-7-9-9-9-9-10101010|
||------------------------------------------------------------------------------------------------|
||
||
||------------------------------------------------------------------------------------------------|
||------------------------------------------------------------------------------------------------|
||----------------------------------------------------------------7-7-7-7-7-7-7-7-7-7-7-7-7-7-7-7-|
||2-2-2-2-2-2-2-2-2-2-2-2-2-2-2-2-5-5-5-5-5-5-5-5-5-5-5-5-5-5-5-5-7-7-7-7-7-7-7-7-7-7-7-7-7-7-7-7-|
||2-2-2-2-2-2-2-2-2-2-2-2-2-2-2-2-5-5-5-5-5-5-5-5-5-5-5-5-5-5-5-5-5-5-5-5-5-5-5-5-5-5-5-5-5-5-5-5-|
||0-0-0-0-0-0-0-0-0-0-0-0-0-0-0-0-3-3-3-3-3-3-3-3-3-3-3-3-3-3-3-3---------------------------------|
  1   2   3   4

|------------------------------------------------------------------------------------------------|
|------------------------------------------------------------------------------------------------|
|9-9-9-9-9-9-9-9-7-7-7-7-7-7-7-7-1616161612121212161617171616141416161616121212121616171716161414|
|------------------------------------------------------------------------------------------------|
|7-7-7-7-7-7-7-7-5-5-5-5-5-5-5-5-1414141410101010141415151414121214141414101010101414151514141212|
|------------------------------------------------------------------------------------------------|
|
|
|------------------------------------------------------------------------------------------------|
|------------------------------------------------------------------------------------------------|
|5-5-5-5-5-5-5-5-5-5-5-5-5-5-5-5-----------------------------------------------------------------|
|5-5-5-5-5-5-5-5-5-5-5-5-5-5-5-5-2-2-2-2-2-2-2-2-2-2-2-2-2-2-2-2-5-5-5-5-5-5-5-5-5-5-5-5-5-5-5-5-|
|3-3-3-3-3-3-3-3-3-3-3-3-3-3-3-3-2-2-2-2-2-2-2-2-2-2-2-2-2-2-2-2-5-5-5-5-5-5-5-5-5-5-5-5-5-5-5-5-|
|--------------------------------0-0-0-0-0-0-0-0-0-0-0-0-0-0-0-0-3-3-3-3-3-3-3-3-3-3-3-3-3-3-3-3-|

|----------------------------------------------------------------------------------------||
|----------------------------------------------------------------------------------------||
|1414141414141414141414141414121216------16------16------16~-----------------------------||
|----------------------------------------------------------------------------------------||
|1212121212121212121212121212101014------14------14------14~-----------------------------||
|----------------------------------------------------------------------------------------||
|
|
|----------------------------------------------------------------------------------------||
|----------------------------------------------------------------------------------------||
|7-7-7-7-7-7-7-7-7-7-7-7-7-7-7-7-5-5-5-5-5-5-5-5-5-5-5-5-5~------------------------------||
|7-7-7-7-7-7-7-7-7-7-7-7-7-7-7-7-5-5-5-5-5-5-5-5-5-5-5-5-5~------------------------------||
|5-5-5-5-5-5-5-5-5-5-5-5-5-5-5-5-3-3-3-3-3-3-3-3-3-3-3-3-3~------------------------------||
|----------------------------------------------------------------------------------------||


FILL
||--------------------------------||
||8--77--88--77--88--77--55-------||
||9--99--99--99--99--99--44-------||
||--------------------------------||
||--------------------------------||
||--------------------------------||
||
||
||--------------------------------||
||--------------------------------||
||--------------------------------||
||------------------------2-------||
||------------------------2-------||
||------------------------0-------||
  1 2 3 4


CHORUS 2X
||------------------------------------------------------------------------------------------------|
||------------------------------------------------------------------------------------------------|
||----------------------------------------------------------------7-7-7-7-7-7-7-7-7-7-7-7-7-7-7-7-|
||2-2-2-2-2-2-2-2-2-2-2-2-2-2-2-2-5-5-5-5-5-5-5-5-5-5-5-5-5-5-5-5-7-7-7-7-7-7-7-7-7-7-7-7-7-7-7-7-|
||2-2-2-2-2-2-2-2-2-2-2-2-2-2-2-2-5-5-5-5-5-5-5-5-5-5-5-5-5-5-5-5-5-5-5-5-5-5-5-5-5-5-5-5-5-5-5-5-|
||0-0-0-0-0-0-0-0-0-0-0-0-0-0-0-0-3-3-3-3-3-3-3-3-3-3-3-3-3-3-3-3---------------------------------|
||
||
||------------------------------------------------------------------------------------------------|
||------------------------------------------------------------------------------------------------|
||9---9-7/9---9-7/9---12--11--11--9---9-7/9---9-7/9---12--11--11--9---9-7/9---9-7/9---12--11--11--|
||------------------------------------------------------------------------------------------------|
||7---7-5/7---7-5/7---10--9---9---7---7-5/7---7-5/7---10--9---9---7---7-5/7---7-5/7---10--9---9---|
||------------------------------------------------------------------------------------------------|
  1   2   3   4

|--------------------------------||
|--------------------------------||
|5-5-5-5-5-5-5-5-5-5-5-5-5-5-5-5-||
|5-5-5-5-5-5-5-5-5-5-5-5-5-5-5-5-||
|3-3-3-3-3-3-3-3-3-3-3-3-3-3-3-3-||
|--------------------------------||
|
|
|--------------------------------||
|--------------------------------||
|14141414121212121111111112121212||
|--------------------------------||
|12121212101010109-9-9-9-10101010||
|--------------------------------||


OUTRO
||----------------------------------------------------------------|--------------------------------|
||----------------------------------------------------------------|--------------------------------|
||--------------------------------77-777-777-777-755-555-555-555-5|--------------------------------|
||22-222-222-222-255-555-555-555-577-777-777-777-755-555-555-555-5|2-2-2-2-2-2-2-2-2-2-2-2-2-2-2-2-|
||22-222-222-222-255-555-555-555-555-555-555-555-533-333-333-333-3|2-2-2-2-2-2-2-2-2-2-2-2-2-2-2-2-|
||00-000-000-000-033-333-333-333-3--------------------------------|0-0-0-0-0-0-0-0-0-0-0-0-0-0-0-0-|
||                                                                |
||                                                                |
||----------------------------------------------------------------|--------------------------------|
||----------------------------------------------------------------|--------------------------------|
||--------------------------------77-777-777-777-755-555-555-555-5|9---9-7/9---9-7/9---12--11--11--|
||22-222-222-222-255-555-555-555-577-777-777-777-755-555-555-555-5|--------------------------------|
||22-222-222-222-255-555-555-555-555-555-555-555-533-333-333-333-3|7---7-5/7---7-5/7---10--9---9---|
||00-000-000-000-033-333-333-333-3--------------------------------|--------------------------------|
  1 2 3 4                                                          1   2   3

|------------------------------------------------------------------------------------------------||
|------------------------------------------------------------------------------------------------||
|--------------------------------7-7-7-7-7-7-7-7-7-7-7-7-7-7-7-7-5-5-5-5-5-5-5-5-5-5-5-5-5-5-5-5-||
|5-5-5-5-5-5-5-5-5-5-5-5-5-5-5-5-7-7-7-7-7-7-7-7-7-7-7-7-7-7-7-7-5-5-5-5-5-5-5-5-5-5-5-5-5-5-5-5-||
|5-5-5-5-5-5-5-5-5-5-5-5-5-5-5-5-5-5-5-5-5-5-5-5-5-5-5-5-5-5-5-5-3-3-3-3-3-3-3-3-3-3-3-3-3-3-3-3-||
|3-3-3-3-3-3-3-3-3-3-3-3-3-3-3-3-----------------------------------------------------------------||
|
|
|------------------------------------------------------------------------------------------------||
|------------------------------------------------------------------------------------------------||
|9---9-7/9---9-7/9---12--11--11--9---9-7/9---9-7/9---12--11--11--14141414121212121111111112121212||
|------------------------------------------------------------------------------------------------||
|7---7-5/7---7-5/7---10--9---9---7---7-5/7---7-5/7---10--9---9---12121212101010109-9-9-9-10101010||
|------------------------------------------------------------------------------------------------||


ENDING
||--------||
||--------||
||--------||
||2~------||
||2~------||
||0~------||
||
||
||--------||
||--------||
||9~------||
||--------||
||7~------||
||--------||
  1 2 3 4
comments
print report bad tab
9 comments total. Showing first comments.
+4 reply
Alix_D wrote on June 16 2007, 01:00 am

Correct tuning, perfect.

-2 reply
CrudeSapphire wrote on October 30 2007, 07:03 am

I think they play it in a drop tbh

+2 reply
boycew02 wrote on December 3 2007, 08:08 am

Awesome tab and this IS the correct tuning. All of Rise Against's stuff is either in standard or flat standard.

Great
tab to a great song. Well done!

I want to post or [tab]
guest
You may want to rate the tab now too:
select rating
Please do not post tabs as comments. Select "correction" instead!