Oops, an error
Loading. Please wait.

Re-education Tab

ver1
ver1

Whole song

More versions @911Tabs.com
129,611 views 150 this week
17 commentsread comments
1 2 3 4 5
accurate
x 26
add to favorites launch autoscroll
font size
0
reset
Autoscroll
+/-
esc
set tempo
stop
Contributor
WARNING: You are trying to view
                                    content from Ultimate-Guitar.com
                                    in an unauthorized application,
                                    which is prohibited.

                                    Please use an official Ultimate
                                    Guitar Tabs application for iPhone,
                                    iPad or Android to access legitimate
                                    chords, guitar, bass, and drum tabs
                                    from Ultimate-Guitar.com database.

                                    Type "ultimate guitar tabs" in Apple
                                    App Store's or Android Market's
                                    search to find the application.
Rise Against - Re-Education (Through Labor)
Guitar Tab
Tuning: Eb Ab Db Gb Bb Eb


----------------------------------[Intro]-----------------------------------------



e|-----------------|-----------------|-----------------|-----------------|
B|-----------------|-----------------|-----------------|-----------------|
G|-----------------|-----------------|-----------------|-----------------|
D|-2---------------|-----------------|-----------------|-----------------|
A|-2-2-2-2-2-2-2-2-|-2-2-2-2-2-2-2-2-|-2-2-2-2-2-2-2-2-|-2-2-2-2-2-2-2-2-|
E|-0-0-0-0-0-0-0-0-|-0-0-0-0-0-0-0-0-|-0-0-0-0-0-0-0-0-|-0-0-0-0-0-0-0-0-|
     . . . . . . .   . . . . . . . .   . . . . . . . .   . . . . . . . . 
   1 + 2 + 3 + 4 +   1 + 2 + 3 + 4 +   1 + 2 + 3 + 4 +   1 + 2 + 3 + 4 +




e|-----------------|-----------------|-----------------|-----------------|
B|-----------------|-----------------|-----------------|-----------------|
G|-----------------|-----------------|-----------------|-----------------|
D|-2---------------|-----------------|-----------------|-------2-2-2-2---|
A|-2-2-2-2-2-2-2-2-|-2-2-2-2-2-2-2-2-|-2-2-2-2-2-2-2-2-|-2-2-2-2-2-2-2---|
E|-0-0-0-0-0-0-0-0-|-0-0-0-0-0-0-0-0-|-0-0-0-0-0-0-0-0-|-0-0-0-0-0-0-0---|
 |   . . . . . . .   . . . . . . . .   . . . . . . . .(Slowly release P.M.) 
 | 1 + 2 + 3 + 4 +   1 + 2 + 3 + 4 +   1 + 2 + 3 + 4 +   1 + 2 + 3 + 4 +
 |
e|-----------------|-----------------|-----------------|-----------------|
B|-----------------|-----------------|-----------------|-----------------|
G|-------5-5-------|-------5-5-------|-------5-5-------|-------5-5-------|
D|-2---2-5-5-5-5-7-|-2-2-2-5-5-5-5-7-|-2---2-5-5-5-5-7-|-2-2-2-5-5-5-5---|
A|-2---2-3-3-5-5-7-|-2-2-2-3-3-5-5-7-|-2---2-3-3-5-5-7-|-2-2-2-3-3-5-5---|
E|-0---0-----3-3-5-|-0-0-0-----3-3-5-|-0---0-----3-3-5-|-0-0-0-----3-3---|
 |
 | 1 + 2 + 3 + 4 +   1 + 2 + 3 + 4 +   1 + 2 + 3 + 4 +   1 + 2 + 3 + 4 +
 |
e|-----------------|-----------------|-----------------|-----------------|
B|-----------------|-----------------|-----------------|-----------------|
G|-----------------|-----------------|-----------------|-----------------|
D|-----------------|-----------------|-----------------|-----------------|
A|-----------------|-----------------|-1414------------|-----------------|
E|-----------------|-----------------|-1212<14>\\\\\\\\|\\\\\\\\\\\\\\---|
                                           Start sliding down here playing harmonics every quaver.
   1 + 2 + 3 + 4 +   1 + 2 + 3 + 4 +   1 + 2 + 3 + 4 +   1 + 2 + 3 + 4 +



e|-------------------|-------------------|-------------------|-----------------|
B|-------------------|-------------------|-------------------|-----------------|
G|-------------------|-------------------|-------------------|-----------------|
D|-2---2-5-5-5-5--7--|-2-2-2-5-5-5-5--7--|-2---2-5-5-5-5--7--|-2-2-2-5-5-5-5---|
A|-2---2-3-3-5-5--7--|-2-2-2-3-3-5-5--7--|-2---2-3-3-5-5--7--|-2-2-2-3-3-5-5---|
E|-0---0-----3-3--5--|-0-0-0-----3-3--5--|-0---0-----3-3--5--|-0-0-0-----3-3---|
 |
 | 1 + 2 + 3 + 4  +    1 + 2 + 3 + 4  +    1 + 2 + 3 + 4  +    1 + 2 + 3 + 4 +
 |
e|-------------------|-------------------|-------------------|-----------------|
B|-------------------|-------------------|-------------------|-----------------|
G|-------------------|-------------------|-------------------|-----------------|
D|-------5---7-5p4---|-------5---7-5p4---|-------5---7-5p4---|-------5---------|
A|-7---5----------7p5|-7---5----------7p5|-7---5----------7p5|-7---5-----5-5---|
E|-------------------|-------------------|-------------------|-----------------|
   
   1 + 2 + 3 + 4  +    1 + 2 + 3 + 4  +    1 + 2 + 3 + 4  +    1 + 2 + 3 + 4 +



e|-------------------|-------------------|-------------------|-------------------|
B|-------------------|-------------------|-------------------|-------------------|
G|-------------------|-------------------|-------------------|-------------------|
D|-2---2-5-5-5-5--7--|-2-2-2-5-5-5-5--7--|-2---2-5-5-5-5--7--|-2-2-2-5-5-5-5--7--|
A|-2---2-3-3-5-5--7--|-2-2-2-3-3-5-5--7--|-2---2-3-3-5-5--7--|-2-2-2-3-3-5-5--7--|
E|-0---0-----3-3--5--|-0-0-0-----3-3--5--|-0---0-----3-3--5--|-0-0-0-----3-3--5--|
 |
 | 1 + 2 + 3 + 4  +    1 + 2 + 3 + 4  +    1 + 2 + 3 + 4  +    1 + 2 + 3 + 4  +
 |
e|-------------------|-------------------|-------------------|-------------------|
B|-------------------|-------------------|-------------------|-------------------|
G|-------------------|-------------------|-------------------|-------------------|
D|-------5---7-5p4---|-------5---7-5p4---|-------5---7-5p4---|-------5---7-5p4---|
A|-7---5----------7p5|-7---5----------7p5|-7---5----------7p5|-7---5----------7p5|
E|-------------------|-------------------|-------------------|-------------------|
 |  
 | 1 + 2 + 3 + 4  +    1 + 2 + 3 + 4  +    1 + 2 + 3 + 4  +    1 + 2 + 3 + 4  +
 |
e|-------------------|-------------------|-------------------|-------------------|
B|-------------------|-------------------|-------------------|-------------------|
G|-9-9-9-9-9-7-7--9--|-9-9-9-9-9-7-7--9--|-4---4-4-4-7-4--7--|-4-4-4-4-4-7-4--7--|
D|-X-X-X-X-X-X-X--X--|-X-X-X-X-X-X-X--X--|-X---X-X-X-X-X--X--|-X-X-X-X-X-X-X--X--|
A|-7-7-7-7-7-5-5--7--|-7-7-7-7-7-5-5--7--|-2---2-2-2-5-2--5--|-2-2-2-2-2-5-2--5--|
E|-------------------|-------------------|-------------------|-------------------|
    
   1 + 2 + 3 + 4  +    1 + 2 + 3 + 4  +    1 + 2 + 3 + 4  +    1 + 2 + 3 + 4  +



----------------------------------[Verse]------------------------------



e|-----------------|-----------------|-----------------|-----------------|
B|-----------------|-----------------|-----------------|-----------------|
G|-----------------|-----------------|-----------------|-----------------|
D|-2---------------|-----------------|-2---2-5-5-5-5-7-|-2-2-2-5-5-5-5-7-|
A|-2---------------|-----------------|-2---2-3-3-5-5-7-|-2-2-2-3-3-5-5-7-|
E|-0---------------|-----------------|-0---0-----3-3-5-|-0-0-0-----3-3-5-|
 |
 | 1 + 2 + 3 + 4 +   1 + 2 + 3 + 4 +   1 + 2 + 3 + 4 +   1 + 2 + 3 + 4 +
 |
e|-----------------|-----------------|-----------------|-----------------|
B|-----------------|-----------------|-----------------|-----------------|
G|-----------------|-----------------|-----------------|-----------------|
D|-----------------|-----------------|-----------------|-----------------|
A|-7---------------|-----------------|-----------------|-----------------|
E|-----------------|-----------------|-----------------|-----------------|
 |  
 | 1 + 2 + 3 + 4 +   1 + 2 + 3 + 4 +   1 + 2 + 3 + 4 +   1 + 2 + 3 + 4 +
 |
e|-----------------|-----------------|-----------------|-----------------|
B|-----------------|-----------------|-----------------|-----------------|
G|-4---------------|-----------------|-9-9-9-9-9-7-7-9-|-9-9-9-9-9-7-7-9-|
D|-X---------------|-----------------|-X-X-X-X-X-X-X-X-|-X-X-X-X-X-X-X-X-|
A|-2---------------|-----------------|-7-7-7-7-7-5-5-7-|-7-7-7-7-7-5-5-7-|
E|-----------------|-----------------|-----------------|-----------------|
    
   1 + 2 + 3 + 4 +   1 + 2 + 3 + 4 +   1 + 2 + 3 + 4 +   1 + 2 + 3 + 4 +



e|-----------------|-----------------|-----------------|-----------------|
B|-----------------|-----------------|-----------------|-----------------|
G|-----------------|-----------------|-----------------|-----------------|
D|-2~--------------|-----------------|-2---2-5-5-5-5-7-|-2-2-2-5-5-5-5-7-|
A|-2~--------------|-----------------|-2---2-3-3-5-5-7-|-2-2-2-3-3-5-5-7-|
E|-0~--------------|-----------------|-0---0-----3-3-5-|-0-0-0-----3-3-5-|
 |
 | 1 + 2 + 3 + 4 +   1 + 2 + 3 + 4 +   1 + 2 + 3 + 4 +   1 + 2 + 3 + 4 +
 |
e|-----------------|-----------------|-----------------|-----------------|
B|-----------------|-----------------|-----------------|-----------------|
G|-----------------|-----------------|-9-9-9-9-9-7-7-9-|-9-9-9-9-9-7-7-9-|
D|-----------------|-----------------|-X-X-X-X-X-X-X-X-|-X-X-X-X-X-X-X-X-|
A|-7~--------------|(7)~~~~~~~~~~~~~~|-7-7-7-7-7-5-5-7-|-7-7-7-7-7-5-5-7-|
E|-----------------|-----------------|-----------------|-----------------|
   
   1 + 2 + 3 + 4 +   1 + 2 + 3 + 4 +   1 + 2 + 3 + 4 +   1 + 2 + 3 + 4 +



-------------------------------[Pre-Chorus]-------------------------------------------



e|-----------------|-----------------|-----------------|-----------------|
B|-----------------|-----------------|-----------------|-----------------|
G|-----------------|-----------------|-----------------|-----------------|
D|-7-7---7-7-7---7-|-7-7---7-7-7-7-5-|-7-7---7-7-7---7-|-7-7---7-7-7-7-5-|
A|-7-7---7-7-7---7-|-7-7---7-7-7-7-5-|-7-7---7-7-7---7-|-7-7---7-7-7-7-5-|
E|-5-5---5-5-5---5-|-5-5---5-5-5-5-3-|-5-5---5-5-5---5-|-5-5---5-5-5-5-3-|
 |
 | 1 + 2 + 3 + 4 +   1 + 2 + 3 + 4 +   1 + 2 + 3 + 4 +   1 + 2 + 3 + 4 +
 |
e|-----------------|-----------------|-----------------|-----------------|
B|-----------------|-----------------|-----------------|-----------------|
G|-9-9---9-9-9---9-|-9-9---9-9-9-9-12|-9-9---9-9-9---9-|-9-9---9-9-9-9-12|
D|-X-X---X-X-X---X-|-X-X---X-X-X-X-X-|-X-X---X-X-X---X-|-X-X---X-X-X-X-X-|
A|-7-7---7-7-7---7-|-7-7---7-7-7-7-10|-7-7---7-7-7---7-|-7-7---7-7-7-7-10|
E|-----------------|-----------------|-----------------|-----------------|
   
   1 + 2 + 3 + 4 +   1 + 2 + 3 + 4 +   1 + 2 + 3 + 4 +   1 + 2 + 3 + 4 +



e|-----------------|-----------------|-----------------|-----------------|
B|-----------------|-----------------|-----------------|-----------------|
G|-5-5---5-5-5---5-|-5-5---5-5-5-5-5-|-7-7-7-7-7-7-7-7-|-7---------------|
D|-5-5---5-5-5---5-|-5-5---5-5-5-5-5-|-7-7-7-7-7-7-7-7-|-7---------------|
A|-3-3---3-3-3---3-|-3-3---3-3-3-3-3-|-5-5-5-5-5-5-5-5-|-5---------------|
E|-----------------|-----------------|-----------------|-----------------|
 |
 | 1 + 2 + 3 + 4 +   1 + 2 + 3 + 4 +   1 + 2 + 3 + 4 +   1 + 2 + 3 + 4 +
 |
e|-----------------|-----------------|-----------------|-----------------|
B|-----------------|-----------------|-----------------|-----------------|
G|-5-5---5-5-5---5-|-5-5---5-5-5-5-5-|-7-7-7-7-7-7-7-7-|-7---------------|
D|-5-5---5-5-5---5-|-5-5---5-5-5-5-5-|-7-7-7-7-7-7-7-7-|-7---------------|
A|-3-3---3-3-3---3-|-3-3---3-3-3-3-3-|-5-5-5-5-5-5-5-5-|-5---------------|
E|-----------------|-----------------|-----------------|-----------------|
 
   1 + 2 + 3 + 4 +   1 + 2 + 3 + 4 +   1 + 2 + 3 + 4 +   1 + 2 + 3 + 4 +



----------------------------------[Chorus]--------------------------------



e|-----------------|----------------------|-----------------|----------------------|
B|-----------------|----------------------|-----------------|----------------------|
G|-----------------|----------------------|-7---7---7---7---|-5----5-----5-----5---|
D|-2---2---2---2---|-5----5-----5-----5---|-7---7---7---7---|-5----5-----5-----5---|
A|-2---2---2---2---|-5----5-----5-----5---|-5---5---5---5---|-3----3-----3-----3---|
E|-0---0---0---0---|-3----3-----3-----3---|-----------------|----------------------|
 |
 | 1 + 2 + 3 + 4 +   1 +  2  +  3  +  4 +   1 + 2 + 3 + 4 +   1 +  2  +  3  +  4 +
 |
e|-----------------|----------------------|-----------------|----------------------|
B|-----------------|----------------------|-----------------|----------------------|
G|-9---9---9---9---|-9-11-11-12-12-14-7-9-|-9---9---9---9---|-9-11-11-12-12-14-11--|
D|-X---X---X---X---|-X-X--X--X--X--X--X-X-|-X---X---X---X---|-X-X--X--X--X--X--X---|
A|-7---7---7---7---|-7-9--9--10-10-12-5-7-|-7---7---7---7---|-7-9--9--10-10-12-9---|
E|-----------------|----------------------|-----------------|----------------------|
  
   1 + 2 + 3 + 4 +   1 +  2  +  3  +  4 +   1 + 2 + 3 + 4 +   1 +  2  +  3  +  4 +



e|-----------------|-----------------|-----------------|-----------------|
B|-----------------|-----------------|-----------------|-----------------|
G|-----------------|-7---7---7---7---|-2---2---2---2---|-5---5---5---5---|
D|-2---2---2---2---|-7---7---7---7---|-2---2---2---2---|-5---5---5---5---|
A|-2---2---2---2---|-5---5---5---5---|-0---0---0---0---|-3---3---3---3---|
E|-0---0---0---0---|-----------------|-----------------|-----------------|
 |
 | 1 + 2 + 3 + 4 +   1 + 2 + 3 + 4 +   1 + 2 + 3 + 4 +   1 + 2 + 3 + 4 +
 |
e|-----------------|-----------------|-----------------|-----------------|
B|-----------------|-----------------|-----------------|-----------------|
G|-9---9---9---9---|-9---9---9---9---|-9---9---9---9---|-9---9---9---9---|
D|-X---X---X---X---|-X---X---X---X---|-X---X---X---X---|-X---X---X---X---|
A|-7---7---7---7---|-7---7---7---7---|-7---7---7---7---|-7---7---7---7---|
E|-----------------|-----------------|-----------------|-----------------|
 |
 | 1 + 2 + 3 + 4 +   1 + 2 + 3 + 4 +   1 + 2 + 3 + 4 +   1 + 2 + 3 + 4 +
 |
e|-7-----------7---|---------10------|-7-----------7---|---------10------|
b|-----8-----------|-8-----------8---|-----8-----------|-8-----------8---|
G|---------9-------|-----9-----------|---------9-------|-----9-----------|
D|-----------------|-----------------|-----------------|-----------------|
A|-----------------|-----------------|-----------------|-----------------|
E|-----------------|-----------------|-----------------|-----------------|
  
   1 + 2 + 3 + 4 +   1 + 2 + 3 + 4 +   1 + 2 + 3 + 4 +   1 + 2 + 3 + 4 +



e|-----------------|----------------------|-----------------|----------------------|
B|-----------------|----------------------|-----------------|----------------------|
G|-----------------|----------------------|-7-7-7-7-7-7-7-7-|-5-5--5--5--5--5--5-5-|
D|-2-2-2-2-2-2-2-2-|-5-5--5--5--5--5--5-5-|-7-7-7-7-7-7-7-7-|-5-5--5--5--5--5--5-5-|
A|-2-2-2-2-2-2-2-2-|-5-5--5--5--5--5--5-5-|-5-5-5-5-5-5-5-5-|-3-3--3--3--3--3--3-3-|
E|-0-0-0-0-0-0-0-0-|-3-3--3--3--3--3--3-3-|-----------------|----------------------|
 |
 | 1 + 2 + 3 + 4 +   1 +  2  +  3  +  4 +   1 + 2 + 3 + 4 +   1 +  2  +  3  +  4 +
 |
e|-----------------|----------------------|-----------------|----------------------|
B|-----------------|----------------------|-----------------|----------------------|
G|-9-9-9-9-9-9-9-9-|-9-11-11-12-12-14-7-9-|-9-9-9-9-9-9-9-9-|-9-11-11-12-12-14-11--|
D|-X-X-X-X-X-X-X-X-|-X-X--X--X--X--X--X-X-|-X-X-X-X-X-X-X-X-|-X-X--X--X--X--X--X---|
A|-7-7-7-7-7-7-7-7-|-7-9--9--10-10-12-5-7-|-7-7-7-7-7-7-7-7-|-7-9--9--10-10-12-9---|
E|-----------------|----------------------|-----------------|----------------------|
  
   1 + 2 + 3 + 4 +   1 +  2  +  3  +  4 +   1 + 2 + 3 + 4 +   1 +  2  +  3  +  4 +



e|-----------------|-----------------|-----------------|-----------------|
B|-----------------|-----------------|-----------------|-----------------|
G|-----------------|-7-7-7-7-7-7-7-7-|-2-2-2-2-2-2-2-2-|-5-5-5-5-5-5-5-5-|
D|-2-2-2-2-2-2-2-2-|-7-7-7-7-7-7-7-7-|-2-2-2-2-2-2-2-2-|-5-5-5-5-5-5-5-5-|
A|-2-2-2-2-2-2-2-2-|-5-5-5-5-5-5-5-5-|-0-0-0-0-0-0-0-0-|-3-3-3-3-3-3-3-3-|
E|-0-0-0-0-0-0-0-0-|-----------------|-----------------|-----------------|
 |
 | 1 + 2 + 3 + 4 +   1 + 2 + 3 + 4 +   1 + 2 + 3 + 4 +   1 + 2 + 3 + 4 +
 |
e|-----------------|-----------------|-----------------|-----------------|
B|-----------------|-----------------|-----------------|-----------------|
G|-9-9-9-9-9-9-9-9-|-9-9-9-9-9-9-9-9-|-9-9-9-9-9-9-9-9-|-9-9-9-9-9-9-9-9-|
D|-X-X-X-X-X-X-X-X-|-X-X-X-X-X-X-X-X-|-X-X-X-X-X-X-X-X-|-X-X-X-X-X-X-X-X-|
A|-7-7-7-7-7-7-7-7-|-7-7-7-7-7-7-7-7-|-7-7-7-7-7-7-7-7-|-7-7-7-7-7-7-7-7-|
E|-----------------|-----------------|-----------------|-----------------|
 |
 | 1 + 2 + 3 + 4 +   1 + 2 + 3 + 4 +   1 + 2 + 3 + 4 +   1 + 2 + 3 + 4 +
 |
e|-7-----------7---|---------10------|-7-----------7---|---------10------|
b|-----8-----------|-8-----------8---|-----8-----------|-8-----------8---|
G|---------9-------|-----9-----------|---------9-------|-----9-----------|
D|-----------------|-----------------|-----------------|-----------------|
A|-----------------|-----------------|-----------------|-----------------|
E|-----------------|-----------------|-----------------|-----------------|
  
   1 + 2 + 3 + 4 +   1 + 2 + 3 + 4 +   1 + 2 + 3 + 4 +   1 + 2 + 3 + 4 +




--------------------------------[Interlude]--------------------------



e|-----------------|-----------------|
B|-----------------|-----------------|
G|-----------------|-----------------|
D|-2--(2)\\\-------|-----------------|
A|-2--(2)\\\-------|-----------------|
E|-0--(0)\\\-------|-------------14\\|
 |    
 | 1 + 2 + 3 + 4 +   1 + 2 + 3 + 4 + 
 |
e|-----------------|-----------------|
B|-----------------|-----------------|
G|-------5-5-------|-------5-5-------|
D|-2-2-2-5-5-5-5-7-|-2-2-2-5-5-5-5-7-|
A|-2-2-2-3-3-5-5-7-|-2-2-2-3-3-5-5-7-|
E|-0-0-0-----3-3-5-|-0-0-0-----3-3-5-|
 
   1 + 2 + 3 + 4 +   1 + 2 + 3 + 4 + 




e|-------------------|-------------------|-------------------|-----------------|
B|-------------------|-------------------|-------------------|-----------------|
G|-------------------|-------------------|-------------------|-----------------|
D|-2---2-5-5-5-5--7--|-2-2-2-5-5-5-5--7--|-2---2-5-5-5-5--7--|-----------------|
A|-2---2-3-3-5-5--7--|-2-2-2-3-3-5-5--7--|-2---2-3-3-5-5--7--|-3-2-0---------5-|
E|-0---0-----3-3--5--|-0-0-0-----3-3--5--|-0---0-----3-3--5--|-------3-2-0-2---|
 |
 | 1 + 2 + 3 + 4  +    1 + 2 + 3 + 4  +    1 + 2 + 3 + 4  +    1 + 2 + 3 + 4 +
 |
e|-------------------|-------------------|-------------------|-----------------|
B|-------------------|-------------------|-------------------|-----------------|
G|-------------------|-------------------|-------------------|-9-7-5-4-------7-|
D|-------5---7-5p4---|-------5---7-5p4---|-------5---7-5p4---|---------7-5-4---|
A|-7---5----------7p5|-7---5----------7p5|-7---5----------7p5|-----------------|
E|-------------------|-------------------|-------------------|-----------------|
   
   1 + 2 + 3 + 4  +    1 + 2 + 3 + 4  +    1 + 2 + 3 + 4  +    1 + 2 + 3 + 4 +



----------------------------------[Verse]--------------------------------------



e|-----------------|-----------------|-----------------|-----------------|
B|-----------------|-----------------|-----------------|-----------------|
G|-----------------|-----------------|-----------------|-----------------|
D|-2~--------------|-----------------|-2---2-5-5-5-5-7-|-2-2-2-5-5-5-5-7-|
A|-2~--------------|-----------------|-2---2-3-3-5-5-7-|-2-2-2-3-3-5-5-7-|
E|-0~--------------|-----------------|-0---0-----3-3-5-|-0-0-0-----3-3-5-|
 |
 | 1 + 2 + 3 + 4 +   1 + 2 + 3 + 4 +   1 + 2 + 3 + 4 +   1 + 2 + 3 + 4 +
 |
e|-----------------|-----------------|-----------------|-----------------|
B|-----------------|-----------------|-----------------|-----------------|
G|-9~--------------|(9)~~~~~~~~~~~~~~|-9-9-9-9-9-7-7-9-|-9-9-9-9-9-7-7-9-|
D|-----------------|-----------------|-X-X-X-X-X-X-X-X-|-X-X-X-X-X-X-X-X-|
A|-----------------|-----------------|-7-7-7-7-7-5-5-7-|-7-7-7-7-7-5-5-7-|
E|-----------------|-----------------|-----------------|-----------------|
   
   1 + 2 + 3 + 4 +   1 + 2 + 3 + 4 +   1 + 2 + 3 + 4 +   1 + 2 + 3 + 4 +



e|-----------------|-----------------|-----------------|-----------------|
B|-----------------|-----------------|-----------------|-----------------|
G|-----------------|-----------------|-----------------|-----------------|
D|-----------------|-----------------|-2---2-5-5-5-5-7-|-2-2-2-5-5-5-5-7-|
A|-------3-3-------|-------3-3-------|-2---2-3-3-5-5-7-|-2-2-2-3-3-5-5-7-|
E|-0-0-0-----3-3-5-|-0-0-0-----3-3-5-|-0---0-----3-3-5-|-0-0-0-----3-3-5-|
 | . . . . . . . .   . . . . . . . .
 | 1 + 2 + 3 + 4 +   1 + 2 + 3 + 4 +   1 + 2 + 3 + 4 +   1 + 2 + 3 + 4 +
 |
e|-----------------|-----------------|-----------------|-----------------|
B|-----------------|-----------------|-----------------|-----------------|
G|-9---9---9---9---|-9---9---9---9---|-----------------|-----------------|
D|-x---X---X---X---|-X---X---X---X---|-----------------|-----------------|
A|-7---7---7---7---|-7---7---7---7---|-----------------|-----------------|
E|-----------------|-----------------|-----------------|-----------------|
 |  F  A  D  E  O  U  T  S  L  O  W 
 | 1 + 2 + 3 + 4 +   1 + 2 + 3 + 4 +   1 + 2 + 3 + 4 +   1 + 2 + 3 + 4 +
 |
e|-----------------|-----------------|-----------------|-----------------|
B|-----------------|-----------------|-----------------|-----------------|
G|-----------------|-9-9-9-9-9-9-9-9-|-9-9-9-9-9-7-7-9-|-9-9-9-9-9-7-7-9-|
D|-----------------|-X-X-X-X-X-X-X-X-|-X-X-X-X-X-X-X-X-|-X-X-X-X-X-X-X-X-|
A|-----------------|-7-7-7-7-7-7-7-7-|-7-7-7-7-7-5-5-7-|-7-7-7-7-7-5-5-7-|
E|-----------------|-----------------|-----------------|-----------------|
                     FADE IN FAST
   1 + 2 + 3 + 4 +   1 + 2 + 3 + 4 +   1 + 2 + 3 + 4 +   1 + 2 + 3 + 4 +



-------------------------------[Pre-Chorus]---------------------------------------



e|-------------------|-----------------|-------------------|-----------------|
B|-------------------|-----------------|-------------------|-----------------|
G|-------------------|-----------------|-------------------|-----------------|
D|-7-7---7-7---7---7-|-7-7---7-7-7-7-5-|-7-7---7-7---7---7-|-7-7---7-7-9-10--|
A|-7-7---7-7---7---7-|-7-7---7-7-7-7-5-|-7-7---7-7---7---7-|-7-7---7-7-9-10--|
E|-5-5---5-5---5---5-|-5-5---5-5-5-5-3-|-5-5---5-5---5---5-|-5-5---5-5-7-8---|
 |
 | 1 + 2 + 3   + 4 +   1 + 2 + 3 + 4 +   1 + 2 + 3   + 4 +   1 + 2 + 3 + 4 +
 |
e|-------------------|-----------------|-------------------|-----------------|
B|-------------------|-----------------|-------------------|-----------------|
G|-9-9---9-9---9---9-|-9-9---9-9-9-9-12|-9-9---9-9---9---9-|-9-9---9-9-1112--|
D|-X-X---X-X---X---X-|-X-X---X-X-X-X-X-|-X-X---X-X---X---X-|-X-X---X-X-X-X---|
A|-7-7---7-7---7---7-|-7-7---7-7-7-7-10|-7-7---7-7---7---7-|-7-7---7-7-9-10--|
E|-------------------|-----------------|-------------------|-----------------|
 |   
 | 1 + 2 + 3   + 4 +   1 + 2 + 3 + 4 +   1 + 2 + 3   + 4 +   1 + 2 + 3 + 4 +
 |
e|-------------------|-----------------|-------------------|-----------------|
B|-------------------|-----------------|-------------------|-----------------|
G|-------------------|-----------------|-------------------|-----------------|
D|-------------------|---------5-7-----|-------------------|-----------------|
A|-----5---2h3-2-----|-----5-7-----3-5-|-----5---2h3-2-----|-----5-7---------|
E|-5-7---5-------5-3-|-5-7-------------|-5-7---5-------5-3-|-5-7-----5-7-8---|
   . . . . .   .  . .
   1 + 2 + 3   + 4 +   1 + 2 + 3 + 4 +   1 + 2 + 3   + 4 +   1 + 2 + 3 + 4 +



----------------------------------[Chorus]-----------------------------



e|-----------------|----------------------|-----------------|----------------------|
B|-----------------|----------------------|-----------------|----------------------|
G|-----------------|----------------------|-7---7---7---7---|-5----5-----5-----5---|
D|-2---2---2---2---|-5----5-----5-----5---|-7---7---7---7---|-5----5-----5-----5---|
A|-2---2---2---2---|-5----5-----5-----5---|-5---5---5---5---|-3----3-----3-----3---|
E|-0---0---0---0---|-3----3-----3-----3---|-----------------|----------------------|
 |
 | 1 + 2 + 3 + 4 +   1 +  2  +  3  +  4 +   1 + 2 + 3 + 4 +   1 +  2  +  3  +  4 +
 |
e|-----------------|----------------------|-----------------|----------------------|
B|-----------------|----------------------|-----------------|----------------------|
G|-9---9---9---9---|-9-11-11-12-12-14-7-9-|-9---9---9---9---|-9-11-11-12-12-14-11--|
D|-X---X---X---X---|-X-X--X--X--X--X--X-X-|-X---X---X---X---|-X-X--X--X--X--X--X---|
A|-7---7---7---7---|-7-9--9--10-10-12-5-7-|-7---7---7---7---|-7-9--9--10-10-12-9---|
E|-----------------|----------------------|-----------------|----------------------|
  
   1 + 2 + 3 + 4 +   1 +  2  +  3  +  4 +   1 + 2 + 3 + 4 +   1 +  2  +  3  +  4 +



e|-----------------|-----------------|-----------------|-----------------|
B|-----------------|-----------------|-----------------|-----------------|
G|-----------------|-7---7---7---7---|-2---2---2---2---|-5---5---5---5---|
D|-2---2---2---2---|-7---7---7---7---|-2---2---2---2---|-5---5---5---5---|
A|-2---2---2---2---|-5---5---5---5---|-0---0---0---0---|-3---3---3---3---|
E|-0---0---0---0---|-----------------|-----------------|-----------------|
 |
 | 1 + 2 + 3 + 4 +   1 + 2 + 3 + 4 +   1 + 2 + 3 + 4 +   1 + 2 + 3 + 4 +
 |
e|-----------------|-----------------|-----------------|-----------------|
B|-----------------|-----------------|-----------------|-----------------|
G|-9---9---9---9---|-9---9---9---9---|-9---9---9---9---|-9---9---9---9---|
D|-X---X---X---X---|-X---X---X---X---|-X---X---X---X---|-X---X---X---X---|
A|-7---7---7---7---|-7---7---7---7---|-7---7---7---7---|-7---7---7---7---|
E|-----------------|-----------------|-----------------|-----------------|
 |
 | 1 + 2 + 3 + 4 +   1 + 2 + 3 + 4 +   1 + 2 + 3 + 4 +   1 + 2 + 3 + 4 +
 |
e|-7-----------7---|---------10------|-7-----------7---|---------10------|
b|-----8-----------|-8-----------8---|-----8-----------|-8-----------8---|
G|---------9-------|-----9-----------|---------9-------|-----9-----------|
D|-----------------|-----------------|-----------------|-----------------|
A|-----------------|-----------------|-----------------|-----------------|
E|-----------------|-----------------|-----------------|-----------------|
  
   1 + 2 + 3 + 4 +   1 + 2 + 3 + 4 +   1 + 2 + 3 + 4 +   1 + 2 + 3 + 4 +



e|-----------------|----------------------|-----------------|----------------------|
B|-----------------|----------------------|-----------------|----------------------|
G|-----------------|----------------------|-7-7-7-7-7-7-7-7-|-5-5--5--5--5--5--5-5-|
D|-2-2-2-2-2-2-2-2-|-5-5--5--5--5--5--5-5-|-7-7-7-7-7-7-7-7-|-5-5--5--5--5--5--5-5-|
A|-2-2-2-2-2-2-2-2-|-5-5--5--5--5--5--5-5-|-5-5-5-5-5-5-5-5-|-3-3--3--3--3--3--3-3-|
E|-0-0-0-0-0-0-0-0-|-3-3--3--3--3--3--3-3-|-----------------|----------------------|
 |
 | 1 + 2 + 3 + 4 +   1 +  2  +  3  +  4 +   1 + 2 + 3 + 4 +   1 +  2  +  3  +  4 +
 |
e|-----------------|----------------------|-----------------|----------------------|
B|-----------------|----------------------|-----------------|----------------------|
G|-9-9-9-9-9-9-9-9-|-9-11-11-12-12-14-7-9-|-9-9-9-9-9-9-9-9-|-9-11-11-12-12-14-11--|
D|-X-X-X-X-X-X-X-X-|-X-X--X--X--X--X--X-X-|-X-X-X-X-X-X-X-X-|-X-X--X--X--X--X--X---|
A|-7-7-7-7-7-7-7-7-|-7-9--9--10-10-12-5-7-|-7-7-7-7-7-7-7-7-|-7-9--9--10-10-12-9---|
E|-----------------|----------------------|-----------------|----------------------|
  
   1 + 2 + 3 + 4 +   1 +  2  +  3  +  4 +   1 + 2 + 3 + 4 +   1 +  2  +  3  +  4 +



e|-----------------|------------------------|
B|-----------------|------------------------|
G|-----------------|-7-7--7--7--7--7--7--7--|
D|-2-2-2-2-2-2-2-2-|-7-7--7--7--7--7--7--7--|
A|-2-2-2-2-2-2-2-2-|-5-5--5--5--5--5--5--5--|
E|-0-0-0-0-0-0-0-0-|------------------------|
 |
 | 1 + 2 + 3 + 4 +   1 +  2  +  3  +  4  +  
 |
e|-----------------|------------------------|
B|-----------------|------------------------|
G|-9-9-9-9-9-9-9-9-|-9-11-11-12-12-14-12-11-|
D|-X-X-X-X-X-X-X-X-|-X-X--X--X--X--X--X--X--|
A|-7-7-7-7-7-7-7-7-|-7-9--9--10-10-12-10-9--|
E|-----------------|------------------------|
 | 
 | 1 + 2 + 3 + 4 +   1 +  2  +  3  +  4  +  
 |
e|-7-----------7---|------------10----------|
b|-----8-----------|-8----------------8-----|
G|---------9-------|------9-----------------|
D|-----------------|------------------------|
A|-----------------|------------------------|
E|-----------------|------------------------|



---------------------------------------[Bridge]-------------------------------------


e|-----------------|-----------------|-----------------|-----------------|
B|-----------------|-----------------|-----------------|-----------------|
G|-----------------|-----------------|-----------------|---------5-5-5-5-|
D|-2-2-2-2-2-2-2-2-|-2-2-2-2-2---2-4-|-5-5-5-5-5-5-5-5-|-5-5-5-5-5-5-5-5-|
A|-0-0-0-0-0-0-0-0-|-0-0-0-0-0---0-2-|-3-3-3-3-3-3-3-3-|-3-3-3-3-3-3-3-3-|
E|-----------------|-----------------|-----------------|-----------------|
 | . . . . . . . .   . . . . .   . .   . . . . . . . .   . . . . 
 | 1 + 2 + 3 + 4 +   1 + 2 + 3 + 4 +   1 + 2 + 3 + 4 +   1 + 2 + 3 + 4 +  
 |
e|-----------------|-----------------|-----------------|-----------------|
B|-----------------|-----------------|-----------------|-----------------|
G|-9---------------|-----------------|-----------------|-----------------|
D|-X---------------|-----------------|-----------------|-----------------|
A|-7---------------|-----------------|-----------------|-----------------|
E|-----------------|-----------------|-----------------|-----------------|
 |
 | 1 + 2 + 3 + 4 +   1 + 2 + 3 + 4 +   1 + 2 + 3 + 4 +   1 + 2 + 3 + 4 + 
 |
e|-7-----------7---|---------10------|-7-----------7---|---------10------|
b|-----8-----------|-8-----------8---|-----8-----------|-8-----------8---|
G|---------9-------|-----9-----------|---------9-------|-----9-----------|
D|-----------------|-----------------|-----------------|-----------------|
A|-----------------|-----------------|-----------------|-----------------|
E|-----------------|-----------------|-----------------|-----------------|
  
   1 + 2 + 3 + 4 +   1 + 2 + 3 + 4 +   1 + 2 + 3 + 4 +   1 + 2 + 3 + 4 +



e|-----------------|-----------------|-----------------|-----------------|
B|-----------------|-----------------|-----------------|-----------------|
G|-----------------|---------4-4-4-4-|-----------------|---------\\\\\\\\|
D|-4-4-4-4-4-4-4-4-|-4-4-4-4-4-4-4-4-|-7-7-7-7-7-7-7-7-|-7-7-7-7-\\\\\\\\|
A|-2-2-2-2-2-2-2-2-|-2-2-2-2-2-2-2-2-|-5-5-5-5-5-5-5-5-|-5-5-5-5-\\\\\\\\|
E|-----------------|-----------------|-----------------|-----------------|
 | . . . . . . . .   . . . .           . . . . . . . .   . . . . PICKSCRAPE
 | 1 + 2 + 3 + 4 +   1 + 2 + 3 + 4 +   1 + 2 + 3 + 4 +   1 + 2 + 3 + 4 +  
 |
e|-----------------|-----------------|-------------7---|-------------5-7-|
B|-----------------|-----------------|-7h8-7h8-7h8---8-|-7h8-7h8-7h8-----|
G|-----------------|-----------------|-----------------|-----------------|
D|-----------------|-----------------|-----------------|-----------------|
A|-----------------|-----------------|-----------------|-----------------|
E|-----------------|-----------------|-----------------|-----------------|
 |
 | 1 + 2 + 3 + 4 +   1 + 2 + 3 + 4 +   1 + 2 + 3 + 4 +   1 + 2 + 3 + 4 + 
 |
e|-7-----------7---|---------10------|-7-----------7---|---------10------|
b|-----8-----------|-8-----------8---|-----8-----------|-8-----------8---|
G|---------9-------|-----9-----------|---------9-------|-----9-----------|
D|-----------------|-----------------|-----------------|-----------------|
A|-----------------|-----------------|-----------------|-----------------|
E|-----------------|-----------------|-----------------|-----------------|
  
   1 + 2 + 3 + 4 +   1 + 2 + 3 + 4 +   1 + 2 + 3 + 4 +   1 + 2 + 3 + 4 +



e|-----------------|-----------------|-----------------|-----------------|
B|-----------------|-----------------|-----------------|-----------------|
G|-----------------|-----------------|-----------------|-----------------|
D|-5---5---5-5-5-7-|---7-7---7-7-7-7-|-2---2---2-2-2-4-|---4-4---4-4-4-4-|
A|-3---3---3-3-3-5-|---5-5---5-5-5-5-|-2---2---2-2-2-2-|---2-2---2-2-2-2-|
E|-----------------|-----------------|-0---0---0-0-0---|-----------------|
 |
 | 1 + 2 + 3 + 4 +   1 + 2 + 3 + 4 +   1 + 2 + 3 + 4 +   1 + 2 + 3 + 4 +  
 |
e|-----------------|-----------------|-----------------|-----------------|
B|-----------------|-----------------|-----------------|-----------------|
g|-5---5---5-5-5-7-|---7-7---7-7-7-7-|-9---9---9-119-8-|---8-8---4-4-4-4-|
D|-X---X---X-X-X-X-|---X-X---X-X-X-X-|-X---X---X-X-X-X-|---X-X---X-X-X-X-|
A|-3---3---3-3-3-5-|---5-5---5-5-5-5-|-7---7---7-9-7-6-|---6-6---2-2-2-2-|
E|-----------------|-----------------|-----------------|-----------------|
 
   1 + 2 + 3 + 4 +   1 + 2 + 3 + 4 +   1 + 2 + 3 + 4 +   1 + 2 + 3 + 4 + 



e|-----------------|-----------------|
B|-----------------|-----------------|
G|-----------------|-----------------|
D|-5---5---5-5-5-5-|-7-7-7-7-7-7-7-7-|
A|-3---3---3-3-3-3-|-5-5-5-5-5-5-5-5-|
E|-----------------|-----------------|
 |
 | 1 + 2 + 3 + 4 +   1 + 2 + 3 + 4 +   
 |
e|-----------------|-----------------|
B|-----------------|-----------------|
g|-5---5---5-5-5-5-|-7-7-7-7-7-7-7-7-|
D|-X---X---X-X-X-X-|-X-X-X-X-X-X-X-X-|
A|-3---3---3-3-3-3-|-5-5-5-5-5-5-5-5-|
E|-----------------|-----------------|
 
   1 + 2 + 3 + 4 +   1 + 2 + 3 + 4 + 



--------------------------------[Interlude]-------------------------------



e|-----------------|-----------------|---------------------|-----------------|
B|-----------------|-----------------|---------------------|-----------------|
G|-----------------|-----------------|------------------7//|-9---------------|
D|-2---------------|-----------------|------------------X--|-----------------|
A|-2---------------|-----------------|------------------5//|-7---------------|
E|-0---------------|-----------------|---------------------|-----------------|
 |
 | 1 + 2 + 3 + 4 +   1 + 2 + 3 + 4 +   1 + 2 + 3  +  4  +    1 + 2 + 3 + 4 +  
 |
e|-----------------|-----------------|---------------------|-----------------|
B|-----------------|-----------------|---------------------|-----------------|
g|-9---------------|-------------9\7~|--------(7)/14\12/14-|-------------7/9-|
D|-X---------------|-------------X---|---------------------|-------------X---|
A|-7---------------|-------------7\5~|--------(5)/12\10/12-|-------------5/7-|
E|-----------------|-----------------|---------------------|-----------------|
 |
 | 1 + 2 + 3 + 4 +   1 + 2 + 3 + 4 +   1 + 2 + 3  +  4  +    1 + 2 + 3 + 4 +  
 |
e|-----------------|-----------------|---------------------|---------------10|
B|-----------------|-----------------|---------------------|-----------7h8---|
G|-----------------|-----------------|---------------------|-----------------|
D|-----------------|-----------------|---------------------|-----------------|
A|-----------------|-----------------|---------------------|-----------------|
E|-----------------|-----------------|---------------------|-----------------|
  
   1 + 2 + 3 + 4 +   1 + 2 + 3 + 4 +   1 + 2 + 3  +  4  +    1 + 2 + 3 + 4 +  



e|-----------------|-----------------|-----------------|-----------------|
B|-----------------|-----------------|-----------------|-----------------|
G|-----------------|-----------------|-----------------|-----------------|
D|-----------------|-----------------|-----------------|-----------------|
A|-----------------|-----------------|-----------------|-----------------|
E|-----------------|-----------------|-----------------|-----------------|
 |
 | 1 + 2 + 3 + 4 +   1 + 2 + 3 + 4 +   1 + 2 + 3 + 4 +   1 + 2 + 3 + 4 +  
 |
e|-----------------|-----------------|-----------------|-----------------|
B|-----------------|-----------------|-----------------|-----------------|
G|-----------------|-----------------|-----------------|---9-9-9-9-9-9-7-|
D|-----------------|-----------------|-----------------|---X-X-X-X-X-X-X-|
A|-----------------|-----------------|-----------------|---7-7-7-7-7-7-5-|
E|-----------------|-----------------|-----------------|-----------------|
 |
 | 1 + 2 + 3 + 4 +   1 + 2 + 3 + 4 +   1 + 2 + 3 + 4 +   1 + 2 + 3 + 4 +  
 |
e|-7---------------|-----------------|-----------------|-----------------|
B|-----------------|-----------------|-----------------|-----------------|
G|-----------------|/12----9----<7>--|-----------------|-----------------|
D|-----------------|-----------------|<7>--------------|-----------------|
A|-----------------|-----------------|-----------------|-----------------|
E|-----------------|-----------------|-----------------|-----------------|
 
   1 + 2 + 3 + 4 +   1 + 2 + 3 + 4 +   1 + 2 + 3 + 4 +   1 + 2 + 3 + 4 +  



----------------------------------[Bridge]-------------------------------



e|-----------------|-----------------|-----------------|-----------------|
B|-----------------|-----------------|-----------------|-----------------|
G|-----------------|-----------------|-----------------|-----------------|
D|-----------------|-----------------|-----------------|-----------------|
A|-----------------|-----------------|-----------------|-----------------|
E|-----------------|-----------------|-----------------|-----------------|
 |
 | 1 + 2 + 3 + 4 +   1 + 2 + 3 + 4 +   1 + 2 + 3 + 4 +   1 + 2 + 3 + 4 +  
 |
e|-----------------|-----------------|-----------------|-----------------|
B|-----------------|-----------------|-----------------|-----------------|
G|-9---------------|-----------------|-----------------|-----------------|
D|-X---------------|-----------------|-----------------|-----------------|
A|-7---------------|-----------------|-----------------|-----------------|
E|-----------------|-----------------|-----------------|-----------------|
 |
 | 1 + 2 + 3 + 4 +   1 + 2 + 3 + 4 +   1 + 2 + 3 + 4 +   1 + 2 + 3 + 4 +  
 |
e|-----------------|-----------------|-----------------|-----------------|
B|-----------------|-----------------|-----------------|-----------------|
G|-----------------|-----------------|-----------------|-----------------|
D|-----------------|-----------------|-----------------|-----------------|
A|-----------------|-----------------|-----------------|-----------------|
E|-----------------|-----------------|-----------------|-----------------|
 
   1 + 2 + 3 + 4 +   1 + 2 + 3 + 4 +   1 + 2 + 3 + 4 +   1 + 2 + 3 + 4 +  



e|-----------------|-----------------|-----------------|-----------------|
B|-----------------|-----------------|-----------------|-----------------|
G|-----------------|-----------------|-----------------|-----------------|
D|-----------------|-----------------|-----------------|-----------------|
A|-----------------|-----------------|-----------------|-----------------|
E|-----------------|-----------------|-----------------|-----------------|
 |
 | 1 + 2 + 3 + 4 +   1 + 2 + 3 + 4 +   1 + 2 + 3 + 4 +   1 + 2 + 3 + 4 +  
 |
e|-----------------|-----------------|-----------------|-----------------|
B|-----------------|-----------------|-----------------|-----------------|
G|-----------------|-----------------|-----------------|---------------7/|
D|-----------------|-----------------|-----------------|---------------x-|
A|-----------------|-----------------|-----------------|---------------5/|
E|-----------------|-----------------|-----------------|-----------------|
 
   1 + 2 + 3 + 4 +   1 + 2 + 3 + 4 +   1 + 2 + 3 + 4 +   1 + 2 + 3 + 4 +  



e|-----------------|-----------------|-----------------|-----------------|
B|-----------------|-----------------|-----------------|-----------------|
G|-----------------|-----------------|-----------------|-----------------|
D|-----------------|-----------------|-7-7-7-7-7-7-7-7-|-2-2-2-2-2-2-2-2-|
A|-2-2-2-2-2-2-2-2-|-5-5-5-5-5-5-5-5-|-5-5-5-5-5-5-5-5-|-0-0-0-0-0-0-0-0-|
E|-0-0-0-0-0-0-0-0-|-3-3-3-3-3-3-3-3-|-----------------|-----------------|
 | . . . . . . . .   . . . . . . . .   . . . . . . . .   . . . . . . . .
 | 1 + 2 + 3 + 4 +   1 + 2 + 3 + 4 +   1 + 2 + 3 + 4 +   1 + 2 + 3 + 4 +  
 |
e|-------7-------10|---------7-----10|---------7-----10|-----107----10---|
B|-----------8-----|---8---8---8-----|---8---8---8-----|---8-----8-------|
G|/9---------------|-----9-------9---|-----9-------9---|-----------9---9-|
D|-----------------|-----------------|-----------------|-----------------|
A|/7-------7---7---|-7---------------|-7---------------|-7---------------|
E|-----------------|-----------------|-----------------|-----------------|
 
   1 + 2 + 3 + 4 +   1 + 2 + 3 + 4 +   1 + 2 + 3 + 4 +   1 + 2 + 3 + 4 +  



e|-----------------|-----------------|-----------------|-----------------|
B|-----------------|-----------------|-----------------|-----------------|
G|-----------------|-----------------|-----------------|-5-5-5-5-5~-(5)\\|
D|-9-9-9-9-9-9-9-9-|-7-7-7-7-7-7-7-7-|-2-2-2-2-2-2-2-4-|-5-5-5-5-5~-(5)\\|
A|-7-7-7-7-7-7-7-7-|-5-5-5-5-5-5-5-5-|-0-0-0-0-0-0-0-2-|-3-3-3-3-3~-(3)\\|
E|-----------------|-----------------|-----------------|-----------------|
 | . . . . . . . .   . . . . . . . .   . . . . . . 
 | 1 + 2 + 3 + 4 +   1 + 2 + 3 + 4 +   1 + 2 + 3 + 4 +   1 + 2 + 3 + 4 +  
 |
e|-----------------|-----------------|-----------------|-----------------|
B|-7h8-7h8-7h8-7h8-|-7h8-7h8-7h8-7h8-|-7h8-7h8-7h8-7h8-|-7h8-7h8-7h8-7\3-|
G|-----------------|-----------------|-----------------|-----------------|
D|-----------------|-----------------|-----------------|-----------------|
A|-----------------|-----------------|-----------------|-----------------|
E|-----------------|-----------------|-----------------|-----------------|
 
   1 + 2 + 3 + 4 +   1 + 2 + 3 + 4 +   1 + 2 + 3 + 4 +   1 + 2 + 3 + 4 +  



----------------------------------[Chorus]-------------------------



e|-----------------|----------------------|-----------------|----------------------|
B|-----------------|----------------------|-----------------|----------------------|
G|-----------------|----------------------|-7-7-7-7-7-7-7-7-|-5-5--5--5--5--5--5-5-|
D|-2-2-2-2-2-2-2-2-|-5-5--5--5--5--5--5-5-|-7-7-7-7-7-7-7-7-|-5-5--5--5--5--5--5-5-|
A|-2-2-2-2-2-2-2-2-|-5-5--5--5--5--5--5-5-|-5-5-5-5-5-5-5-5-|-3-3--3--3--3--3--3-3-|
E|-0-0-0-0-0-0-0-0-|-3-3--3--3--3--3--3-3-|-----------------|----------------------|
 |
 | 1 + 2 + 3 + 4 +   1 +  2  +  3  +  4 +   1 + 2 + 3 + 4 +   1 +  2  +  3  +  4 +
 |
e|-----------------|----------------------|-----------------|----------------------|
B|-----------------|----------------------|-----------------|----------------------|
G|-9-9-9-9-9-9-9-9-|-9-11-11-12-12-14-7-9-|-9-9-9-9-9-9-9-9-|-9-11-11-12-12-14-11--|
D|-X-X-X-X-X-X-X-X-|-X-X--X--X--X--X--X-X-|-X-X-X-X-X-X-X-X-|-X-X--X--X--X--X--X---|
A|-7-7-7-7-7-7-7-7-|-7-9--9--10-10-12-5-7-|-7-7-7-7-7-7-7-7-|-7-9--9--10-10-12-9---|
E|-----------------|----------------------|-----------------|----------------------|
  
   1 + 2 + 3 + 4 +   1 +  2  +  3  +  4 +   1 + 2 + 3 + 4 +   1 +  2  +  3  +  4 +



e|-----------------|-----------------|-----------------|-----------------|
B|-----------------|-----------------|-----------------|-----------------|
G|-----------------|-7-7-7-7-7-7-7-7-|-2-2-2-2-2-2-2-2-|-5-5-5-5-5-5-5-5-|
D|-2-2-2-2-2-2-2-2-|-7-7-7-7-7-7-7-7-|-2-2-2-2-2-2-2-2-|-5-5-5-5-5-5-5-5-|
A|-2-2-2-2-2-2-2-2-|-5-5-5-5-5-5-5-5-|-0-0-0-0-0-0-0-0-|-3-3-3-3-3-3-3-3-|
E|-0-0-0-0-0-0-0-0-|-----------------|-----------------|-----------------|
 |
 | 1 + 2 + 3 + 4 +   1 + 2 + 3 + 4 +   1 + 2 + 3 + 4 +   1 + 2 + 3 + 4 +
 |
e|-----------------|-----------------|-----------------|-----------------|
B|-----------------|-----------------|-----------------|-----------------|
G|-9-9-9-9-9-9-9-9-|-9-9-9-9-9-9-9-9-|-9-9-9-9-9-9-9-9-|-9-9-9-9-9-9-9-9-|
D|-X-X-X-X-X-X-X-X-|-X-X-X-X-X-X-X-X-|-X-X-X-X-X-X-X-X-|-X-X-X-X-X-X-X-X-|
A|-7-7-7-7-7-7-7-7-|-7-7-7-7-7-7-7-7-|-7-7-7-7-7-7-7-7-|-7-7-7-7-7-7-7-7-|
E|-----------------|-----------------|-----------------|-----------------|
 |
 | 1 + 2 + 3 + 4 +   1 + 2 + 3 + 4 +   1 + 2 + 3 + 4 +   1 + 2 + 3 + 4 +
 |
e|-7-----------7---|---------10------|-7-----------7---|---------10------|
b|-----8-----------|-8-----------8---|-----8-----------|-8-----------8---|
G|---------9-------|-----9-----------|---------9-------|-----9-----------|
D|-----------------|-----------------|-----------------|-----------------|
A|-----------------|-----------------|-----------------|-----------------|
E|-----------------|-----------------|-----------------|-----------------|
 
   1 + 2 + 3 + 4 +   1 + 2 + 3 + 4 +   1 + 2 + 3 + 4 +   1 + 2 + 3 + 4 +



e|-----------------|----------------------|-----------------|----------------------|
B|-----------------|----------------------|-----------------|----------------------|
G|-----------------|----------------------|-7-7-7-7-7-7-7-7-|-5-5--5--5--5--5--5-5-|
D|-2-2-2-2-2-2-2-2-|-5-5--5--5--5--5--5-5-|-7-7-7-7-7-7-7-7-|-5-5--5--5--5--5--5-5-|
A|-2-2-2-2-2-2-2-2-|-5-5--5--5--5--5--5-5-|-5-5-5-5-5-5-5-5-|-3-3--3--3--3--3--3-3-|
E|-0-0-0-0-0-0-0-0-|-3-3--3--3--3--3--3-3-|-----------------|----------------------|
 |
 | 1 + 2 + 3 + 4 +   1 +  2  +  3  +  4 +   1 + 2 + 3 + 4 +   1 +  2  +  3  +  4 +
 |
e|-----------------|----------------------|-----------------|----------------------|
B|-----------------|----------------------|-----------------|----------------------|
G|-9-9-9-9-9-9-9-9-|-9-11-11-12-12-14-7-9-|-9-9-9-9-9-9-9-9-|-9-11-11-12-12-14-11--|
D|-X-X-X-X-X-X-X-X-|-X-X--X--X--X--X--X-X-|-X-X-X-X-X-X-X-X-|-X-X--X--X--X--X--X---|
A|-7-7-7-7-7-7-7-7-|-7-9--9--10-10-12-5-7-|-7-7-7-7-7-7-7-7-|-7-9--9--10-10-12-9---|
E|-----------------|----------------------|-----------------|----------------------|
  
   1 + 2 + 3 + 4 +   1 +  2  +  3  +  4 +   1 + 2 + 3 + 4 +   1 +  2  +  3  +  4 + 

 

e|-----------------|-----------------|-----------------|--------------------|
B|-----------------|-----------------|-----------------|--------------------|
G|-----------------|-7---7---7---7---|-2---2---2---2---|-5------------------|
D|-2---2---2---2---|-7---7---7---7---|-2---2---2---2---|-5------------------|
A|-2---2---2---2---|-5---5---5---5---|-0---0---0---0---|-3------------------|
E|-0---0---0---0---|-----------------|-----------------|--------------------|
 |
 | 1 + 2 + 3 + 4 +   1 + 2 + 3 + 4 +   1 + 2 + 3 + 4 +   1 + 2 + 3 + 4  +
 |
e|-----------------|-----------------|-----------------|--------------------|
B|-----------------|-----------------|-----------------|--------------------|
G|-9---9---9---9---|-9---9---9---9---|-9---9---9---9---|--------------------|
D|-X---X---X---X---|-X---X---X---X---|-X---X---X---X---|-------5---7-5p4----|
A|-7---7---7---7---|-7---7---7---7---|-7---7---7---7---|-7-7-5----------7p5-|
E|-----------------|-----------------|-----------------|--------------------|
 |
 | 1 + 2 + 3 + 4 +   1 + 2 + 3 + 4 +   1 + 2 + 3 + 4 +   1 + 2 + 3 + 4  +
 |
e|-7-----------7---|---------10------|-7-----------7---|---------10---------|
b|-----8-----------|-8-----------8---|-----8-----------|-8-----------8------|
G|---------9-------|-----9-----------|---------9-------|-----9--------------|
D|-----------------|-----------------|-----------------|--------------------|
A|-----------------|-----------------|-----------------|--------------------|
E|-----------------|-----------------|-----------------|--------------------|
  
   1 + 2 + 3 + 4 +   1 + 2 + 3 + 4 +   1 + 2 + 3 + 4 +   1 + 2 + 3 + 4  +



e|-----------------|
B|-----------------|
G|-----------------|
D|-2---------------|
A|-2---------------|
E|-0---------------|
 
   1 + 2 + 3 + 4 +  
17 comments total. Showing first comments.
0 reply
chromaticvision wrote on September 6 2008, 04:08 pm

someone exported this tab from my guitar pro, it's not quite how i would have made this tab (there are 3 other guitars) so it will be updated as soon as i get control of it.

+1 reply
ninjuice wrote on September 29 2008, 07:56 pm

waaaaaaaaaayyyyyyyyyyyyy too confusing, despite being correct.

0 reply
lespaul1216 wrote on October 5 2008, 10:17 am

this song kicks ass!

I want to post or [tab]
guest
You may want to rate the tab now too:
select rating
Please do not post tabs as comments. Select "correction" instead!