Oops, an error
Loading. Please wait.

Re-Education Tab

ver2
ver2

Whole song

More versions @911Tabs.com
11,323 views 39 this week
2 commentsread comments
1 2 3 4 5
excellent!
x 5
Autoscroll
+/-
esc
set tempo
stop
Contributor
Hey! There's an official Ultimate Guitar app which is ideal
for learning songs when you're away from computer. Get the app
WARNING: You are trying to view
                                    content from Ultimate-Guitar.com
                                    in an unauthorized application,
                                    which is prohibited.

                                    Please use an official Ultimate
                                    Guitar Tabs application for iPhone,
                                    iPad or Android to access legitimate
                                    chords, guitar, bass, and drum tabs
                                    from Ultimate-Guitar.com database.

                                    Type "ultimate guitar tabs" in Apple
                                    App Store's or Android Market's
                                    search to find the application.
-------------------------------------------------------------------------------
     Re-education (through labor) - Rise Against
-------------------------------------------------------------------------------
Tabbed by: Guitarfreak147
Email: Mullvain007@aol.com

Tuning: Half Step Down

| /  slide up
| \  slide down
| h  hammer-on
| p  pull-off
| ~  vibrato
| +  harmonic
| x  Mute note

This is my version of Re-education (through labor)-- Rise Against, and This is for 
Guitar one and the lyrics in case you might not have caught a few. And for singers 
that want a print out copy. I wrote this because I needed to send in a tab that 
was requested. That is what I do, except I don't know many songs, so I just insert 
what I know. All tabs I submit are requested, so UG "Tab Judges" please be 
considerate and publish them because people requested it!

Please Rate and Review!

Lead/1st Guitar
e|--------------------------------------------------------------------------|
B|--------------------------------------------------------------------------|
G|--------------------------------------------------------------------------|  
D|-2------------------------------------------------------------------------|  
A|-2-2-2-2-2-2-2-2-2-2-2-2-2-2-2-2-2-2-2-2-2-2-2-2-2-2-2-2-2-2-2-2----------|
E|-0-0-0-0-0-0-0-0-0-0-0-0-0-0-0-0-0-0-0-0-0-0-0-0-0-0-0-0-0-0-0-0----------|
In other words, all notes together
are a total of 32 strokes.
    
e|-----------------------------------|
B|-----------------------------------| Play this twice
G|------5-5--------------5-5---------|
D|-2--2-5-5-5-5-7--2-2-2-5-5-5-5-7---|
A|-2--2-3-3-5-5-7--2-2-2-3-3-5-5-7---|
E|-0--0-----3-3-5--0-0-0-----3-3-5---|

e|------------------|        e|-----------------|
B|------------------|        B|-----------------|
G|------------------|Play    G|-----------------| Play
D|-2-0-5-7-5-0------|3 Times D|-2-0-5-0-0-------| Once
A|------------------|        A|-----------------|
E|------------------|        E|-----------------|

e|------------------|        
B|------------------|        
G|------------------|Play    
D|-2-0-5-7-5-0-(2)--|4 Times 
A|------------------|Play entire part with Parenthesis on the fourth time        
E|------------------|        

e|----------------------------------------------------------------------------|
B|----------------------------------------------------------------------------|
G|------5-5---------------5-5----------------------5-5--------------5-5-------|
D|-2--2-5-5-5-5-7---2-2-2-5-5-5-5-7-----------2--2-5-5-5-5-7--2-2-2-5-5-5-5-5-|
A|-2--2-3-3-5-5-7---2-2-2-3-3-5-5-7--7~~~~~~--2--2-3-3-5-5-7--2-2-2-3-3-5-5-7-|
E|-0--0-----3-3-5---0-0-0-----3-3-5-----------0--0-----3-3-5--0-0-0-----3-3-7-|

e|-------------------------------------------------------------------------|
B|-------------------------------------------------------------------------|
G|-------------------------------------------------------------------------|
D|-7-7-x-7-7-7-x-7-7-7-x-7-7-7-7-5-7-7-7-x-7-7-7-x-7-7-7-x-7-7-7-7---------|
A|-7-7-x-7-7-7-x-7-7-7-x-7-7-7-7-5-7-7-7-x-7-7-7-x-7-7-7-x-7-7-7-7---------|
E|-5-5-x-5-5-5-x-5-5-5-x-5-5-5-5-3-5-5-5-x-5-5-5-x-5-5-5-x-5-5-5-5---------|

e|-------------------------------------------------------------------------|
B|-------------------------------------------------------------------------|
G|-5-5-x-5-5-5-x-5-5-5-x-5-5-5-5--7-7-7-7-7-7-7-7-7-7-7-7------------------|
D|-5-5-x-5-5-5-x-5-5-5-x-5-5-5-5--7-7-7-7-7-7-7-7-7-7-7-7------------------|
A|-3-3-x-3-3-3-x-3-3-3-x-3-3-3-3--5-5-5-5-5-5-5-5-5-5-5-5------------------|
E|-------------------------------------------------------------------------|

e|-------------------------------------7-----7-----10---7-----7-----10-----|
B|---------------------------------------8-----8------8---8-----8------8---| Play Twice
G|-------------------7-7-7-7---------------9-----9----------9-----9--------|
D|-2-2-2-2--5-5-5-5--7-7-7-7--7-7-7-7--------------------------------------|
A|-2-2-2-2--5-5-5-5--5-5-5-5--7-7-7-7--------------------------------------|
E|-0-0-0-0--3-3-3-3-----------5-5-5-5--------------------------------------|

e|-----------------------------------|
B|-----------------------------------|
G|----5-5---------------5-5----------|
D|-2--5-5-5-5-7---2-2-2-5-5-5-5-7----|
A|-2--3-3-5-5-7---2-2-2-3-3-5-5-7----|
E|-0------3-3-5---0-0-0-----3-3-5----|

e|--------------|         e|---------------------------|
B|--------------| Play    B|--5-3----------------------|
G|--------------| 3 Times G|------5-4-2----------------|
D|-2-0-5-7-5-0--|         D|------------5-4-0-2--------|
A|--------------|         A|---------------------------|
E|--------------|         E|---------------------------|

e|-----------------------------------| e|--------------------|
B|-----------------------------------| B|--------------------|
G|------5-5---------------5-5--------| G|--------------------|
D|-2--2-5-5-5-5-7---2-2-2-5-5-5-5-7--| D|--------------------|
A|-2--2-3-3-5-5-7---2-2-2-3-3-5-5-7--| A|-7-7-7-7-7-7-7-7----|
E|-0--0-----3-3-5---0-0-0-----3-3-5--| E|--------------------|

e|-----------------------------------|
B|-----------------------------------| 
G|------5-5---------------5-5--------| 
D|-2--2-5-5-5-5-7---2-2-2-5-5-5-5-7--| 
A|-2--2-3-3-5-5-7---2-2-2-3-3-5-5-7--| 
E|-0--0-----3-3-5---0-0-0-----3-3-5--|

e|-------------------------------------------------------------------------|
B|-------------------------------------------------------------------------|
G|-------------------------------------------------------------------------|
D|-7-7-x-7-7-7-x-7-7-7-x-7-7-7-7-5-7-7-7-x-7-7-7-x-7-7-7-x-7-7-9-10--------|
A|-7-7-x-7-7-7-x-7-7-7-x-7-7-7-7-5-7-7-7-x-7-7-7-x-7-7-7-x-7-7-9-10--------|
E|-5-5-x-5-5-5-x-5-5-5-x-5-5-5-5-3-5-5-5-x-5-5-5-x-5-5-5-x-5-5-7-8---------|

e|-------------------------------------7-----7-----10---7-----7-----10-----|
B|---------------------------------------8-----8------8---8-----8------8---|
G|-------------------7-7-7-7---------------9-----9----------9-----9--------|
D|-2-2-2-2--5-5-5-5--7-7-7-7--7-7-7-7--------------------------------------|
A|-2-2-2-2--5-5-5-5--5-5-5-5--7-7-7-7--------------------------------------|
E|-0-0-0-0--3-3-3-3-----------5-5-5-5--------------------------------------|

e|-------------------------------------7-----7-----10---7-----7-----10-----|
B|---------------------------------------8-----8------8---8-----8------8---|
G|-------------------7-7-7-7---------------9-----9----------9-----9--------|
D|-2-2-2-2--5-5-5-5--7-7-7-7--7-7-7-7--------------------------------------|
A|-2-2-2-2--5-5-5-5--5-5-5-5--7-7-7-7--------------------------------------|
E|-0-0-0-0--3-3-3-3-----------5-5-5-5--------------------------------------|

e|-7-----7-----10---7-----7-----10-----|
B|---8-----8------8---8-----8------8---|
G|-----9-----9----------9-----9--------| Play Twice
D|-------------------------------------|
A|-------------------------------------|
E|-------------------------------------|

e|------------------------------------------------------------------------------------|
B|------------------------------------------------------------------------------------|
G|-----------------------------------------5-5-5-5-5-5-5-5--7-7-7-7--9-9-9-9-9-9-9-9--|
D|--7-7-7-7-7--9-9-9-9-9-9-9-9--2-2-2-2-2--5-5-5-5-5-5-5-5--7-7-7-7--9-9-9-9-9-9-9-9--|
A|--7-7-7-7-7--9-9-9-9-9-9-9-9--2-2-2-2-2--3-3-3-3-3-3-3-3--5-5-5-5--7-7-7-7-7-7-7-7--|
E|--5-5-5-5-5--7-7-7-7-7-7-7-7--0-0-0-0-0---------------------------------------------|

E--------------------------------------------|
B---------------------7-8-------8------------|
G--9/7-7~~~14/12-14~~~----7-9~~~--7-7--------|
D--0-0-0~~~-0--0--0~~~~----------------7~~~~~|
A--7/5-5~~~12/10-12~~~-----------------------|
E--------------------------------------------|
                                  

E-----------------------------------|
B-----------------------------------|
G--9-9-9-9-9-7-9~~~~~~~~~~~~~-------|
D--0-0-0-0-0-0-0~~~~~~~~~~~~~-------| 
A--7-7-7-7-7-5-7~~~~~~~~~~~~~-------|
E-----------------------------------|

E-------7-----10-----7-----10-----7-----10-----7------|
B---------8------8-----8------8-----8------8-----8----|
G--7\9~~----9------9-----9------9-----9------9-----9--|
D-----------------------------------------------------|
A-----------------------------------------------------|
E-----------------------------------------------------|

E-----------------------------------------------------------------------|
B--7-8-7-8-7-8-7-8---7-8-7-8-7-8-7-8-7-8-7-8-7-8-7-8-7-8-7-8-7-8-7------|
G------------------9-----------------------------------------------7-9--|
D-----------------------------------------------------------------------|
A-----------------------------------------------------------------------|
E-----------------------------------------------------------------------|

e|-------------------------------------7-----7-----10---7-----7-----10-----|
B|---------------------------------------8-----8------8---8-----8------8---|
G|-------------------7-7-7-7---------------9-----9----------9-----9--------| Play this
D|-2-2-2-2--5-5-5-5--7-7-7-7--7-7-7-7--------------------------------------| Twice
A|-2-2-2-2--5-5-5-5--5-5-5-5--7-7-7-7--------------------------------------|
E|-0-0-0-0--3-3-3-3-----------5-5-5-5--------------------------------------|

E--------------------------------------------|
B--------------------------------------------|
G----------7-7-7-7---------------------------|
D--2-2-2-2-7-7-7-7-7-7-7-7---2-0-5-7-5-0--2--|
A--2-2-2-2-5-5-5-5-7-7-7-7----------------2--|
E--0-0-0-0-5-5-5-5-5-5-5-5----------------0--|

Lyrics:

To the sound of a heart beat pounding away.....
To the rhythm of the awful rusted machines.....
We toss and turn but don't sleep,
Each breath we take makes us thieves,
Like causes without rebels,
Just talk but promise nothing else

Chorus --
We crawl on our knees for you,
Under a sky no longer blue,
We sweat all day long for you.....
We sew seeds to see us through,
Cause sometimes dreams just don't come true,
We wait to reap what we are due.....

To the rhythm of a time bomb ticking away.....
And the blare of sirens come in the streets.....
Chased down like dogs we run from,
Your grasp, but till the sun comes up

Chorus --
We crawl on our knees for,
Under a sky no longer blue,
We sweat all day long for you.....
We sew seeds to see us through,
Cause sometimes dreams just don't come true,
Look now, at what they've done to you.....
Oh Woah.....

White needles barried in the red,
The engine roars and then it gives,
But never dies,
Cause we don't live we just survive,
On the scraps, that you throw away.....

I won't crawl on my knees for you,
I won't beleive the lies that hide the truth,
I won't sweat one more drop for you.....

Cause we are, the rust upon your gears,
We are the insects in your ears,
We crawl,
We crawl,
We Crawl,
All over You!

We sew seeds to see us through,
Our days are precious and so few,
We all, reap what we are do.....
I'm sure this sky no longer blue,
We bring a dawn long over due,
We Crawl,
And we Crawl,
And we Crawl,
All over You!


Hope this was helpful! Thanks for viewing!!!
===============================================================================
comments
print report bad tab
2 comments total.
0 reply
Guitarfreak147 wrote on June 19 2009, 05:35 am

This is such a good tab! Ha Ha!

0 reply
pr_gax70 wrote on September 10 2009, 04:34 pm

on the riff during the chords u play 7 twice then pull off to 5 then 0

I want to post or [tab]
guest
You may want to rate the tab now too:
select rating
Please do not post tabs as comments. Select "correction" instead!