Oops, an error
Loading. Please wait.

Re-education Bass Tab

ver3
ver3

Whole song

More versions @911Tabs.com
724 views 3 this week
2 commentsread comments
1 2 3 4 5
excellent!
x 1
add to favorites launch autoscroll
font size
0
reset
Autoscroll
+/-
esc
set tempo
stop
Difficulty
Tuning
intermediate
D A D G B E
WARNING: You are trying to view
                                    content from Ultimate-Guitar.com
                                    in an unauthorized application,
                                    which is prohibited.

                                    Please use an official Ultimate
                                    Guitar Tabs application for iPhone,
                                    iPad or Android to access legitimate
                                    chords, guitar, bass, and drum tabs
                                    from Ultimate-Guitar.com database.

                                    Type "ultimate guitar tabs" in Apple
                                    App Store's or Android Market's
                                    search to find the application.
Intro

G|-----------------|-----------------|-----------------|-----------------|
D|-----------------|-----------------|-----------------|-----------------|
A|-----------------|-----------------|-----------------|-----------------|
D|-1-1-1-1-1-1-1-1-|-1-1-1-1-1-1-1-1-|-1-1-1-1-1-1-1-1-|-1-1-1-1-1-1-1-1-|
    
G|-----------------|-----------------|-----------------|-----------------|
D|-----------------|-----------------|-----------------|-----------------|
A|-----------------|-----------------|-----------------|-----------------|
D|-1-1-1-1-1-1-1-1-|-1-1-1-1-1-1-1-1-|-1-1-1-1-1-1-1-1-|-1-1-1-1-1-1-1-1-|

G|-----------------|-----------------|-----------------|-----------------|
D|-----------------|-----------------|-----------------|-----------------|
A|-------2-2-------|-------2-2-------|-------2-2-------|-------2-2-------|
D|-1---1-----4-4-6-|-1-1-1-----4-4-6-|-1---1-----4-4-6-|-1-1-1-----4-4---|

G|-----------------|-----------------|-----------------|-----------------|
D|-----------------|-----------------|-----------------|-----------------|
A|-------2-2-------|-------2-2-------|-------2-2-------|-------2-2-------|
D|-1---1-----4-4-6-|-1-1-1-----4-4-6-|-1---1-----4-4-6-|-1-1-1-----4-4-6-|
   
Verse

G|-----------------|-----------------|-----------------|-----------------|
D|-----------------|-----------------|-----------------|-----------------|
A|-----------------|-----------------|-------2-2-------|-------2-2-------|
D|-1---------------|-----------------|-1---1-----4-4-6-|-1-1-1-----4-4-6-|

G|-----------------|-----------------|-----------------|-----------------|
D|-----------------|-----------------|-----------------|-----------------|
A|-------2-2-------|-------2-2-------|-------2-2-------|-------2-2-------|
D|-1-1-1-----4-4-6-|-1-1-1-----4-4-6-|-1---1-----4-4-6-|-1-1-1-----4-4-6-|

G|-----------------|-----------------|-----------------|-----------------|
D|-----------------|-----------------|-----------------|-----------------|
A|-----------------|-----------------|-----------------|-----------------|
D|-6-6---6-6-6---6-|-6-6---6-6-6-6-4-|-6-6---6-6-6---6-|-6-6---6-6-6-6-6-|

G|-----------------|-----------------|-----------------|-----------------|
D|-----------------|-----------------|-----------------|-----------------|
A|-2-2---2-2-2---2-|-2-2---2-2-2-2-2-|-4-4-4-4-4-4-4-4-|-4---------------|
D|-----------------|-----------------|-----------------|-----------------|

Chorus

G|-----------------|-----------------|-----------------|-----------------|
D|-----------------|-----------------|-----------------|-----------------|
A|-----------------|-----------------|-4---4---4---4---|---------------4-|
D|-1---1---1---1---|-4-4-4-4-4-4-4-4-|-----------------|-6-6-6-6-6-6-6---|

G|-----------------|-----------------|-----------------|-----------------|
D|-----------------|-----------------|-----------------|-----------------|
A|-6---6---6---6---|-4-4-4-4-4-4-4-4-|---------------2-|-2-2-1---------4-|
D|-----------------|-----------------|-6---6---6---6---|-------4-4-1-4---|

G|-----------------|-----------------|-----------------|-----------------|
D|-----------------|-----------------|-----------------|-----------------|
A|-----------------|-----------------|-4-4-4-4-4-4-4-4-|---------------4-|
D|-1-1-1-1-1-1-1-1-|-4-4-4-4-4-4-4-4-|-----------------|-6-6-6-6-6-6-6---|



G|-----------------|-----------------|-----------------|-----------------|
D|-----------------|-----------------|-----------------|-----------------|
A|-6-6-6-6-6-6-6-6-|-4-4-4-4-4-4-4-4-|-6-6-6-6-6-6-6-6-|-2-2-2-2-2-2-2-2-|
D|-----------------|-----------------|-----------------|-----------------|

Interlude

G|-----------------|-----------------|-----------------|-----------------|
D|-----------------|-----------------|-----------------|-----------------|
A|-----------------|-----------------|-------2-2-------|-------2-2-------|
D|-1---------------|-----------4/16\-|-1---1-----4-4-6-|-1-1-1-----4-4-6-|

G|-----------------|-----------------|
D|-----------------|-----------------|
A|-------2-2-------|-2---------------|
D|-1---1-----4-4-6-|-----------------|

Verse

G|-----------------|-----------------|-----------------|-----------------|
D|-----------------|-----------------|-----------------|-----------------|
A|-------2-2-------|-------2-2-------|-------2-2-------|-------2-2-------|
D|-1-1-1-----4-4-6-|-1-1-1-----4-4-6-|-1---1-----4-4-6-|-1-1-1-----4-4-6-|

G|-----------------|-----------------|-----------------|-----------------|
D|-----------------|-----------------|-----------------|-----------------|
A|-------2-2-------|-------2-2-------|-------2-2-------|-------2-2-------|
D|-1-1-1-----4-4-6-|-1-1-1-----4-4-6-|-1---1-----4-4-6-|-1-1-1-----4-4-6-|

G|-----------------|-----------------|-----------------|-----------------|
D|-----------------|-----------------|-----------------|-----------------|
A|-----------------|-----------------|-----------------|-----------------|
D|-6-6---6-6-6---6-|-6-6---6-6-6-6-4-|-6-6---6-6-6---6-|-6-6---6-6-8-10--|

Chorus

G|-----------------|-----------------|-----------------|-----------------|
D|-----------------|-----------------|-----------------|-----------------|
A|-----------------|-----------------|-4---4---4---4---|---------------4-|
D|-1---1---1---1---|-4-4-4-4-4-4-4-4-|-----------------|-6-6-6-6-6-6-6---|

G|-----------------|-----------------|-----------------|-----------------|
D|-----------------|-----------------|-----------------|-----------------|
A|-6---6---6---6---|-4-4-4-4-4-4-4-4-|---------------2-|-2-2-1---------4-|
D|-----------------|-----------------|-6---6---6---6---|-------4-4-1-4---|

G|-----------------|-----------------|-----------------|-----------------|
D|-----------------|-----------------|-----------------|-----------------|
A|-----------------|-----------------|-4-4-4-4-4-4-4-4-|---------------4-|
D|-1-1-1-1-1-1-1-1-|-4-4-4-4-4-4-4-4-|-----------------|-6-6-6-6-6-6-6---|


G|-----------------|-----------------|
D|-----------------|-----------------|
A|-6-6-6-6-6-6-6-6-|-4-4-4-4-4-4-4-4-|
D|-----------------|-----------------|

Bridge

G|-----------------|-----------------|-----------------|-----------------|
D|-----------------|-----------------|-----------------|-----------------|
A|-----------------|---------------2-|-2-2-2-2-2-2-2-2-|-2-2-2-2-2-2-2-2-|
D|-6-6-6-6-6-6-6-6-|-6-6-6-6-6----6--|-----------------|-----------------|
G|-----------------|-----------------|-----------------|-----------------|
D|-----------------|-----------------|-----------------|-----------------|
A|-2-2-2-2-2-2-2-2-|-2-2-2-2-2-2-2-2-|-4-4-4-4-4-4-4-4-|-4-4-4-4-4-4-4-4-|
D|-----------------|-----------------|-----------------|-----------------|

G|-----------------|-----------------|-----------------|-----------------|
D|-----------------|-----------------|-----------------|-----------------|
A|-2---2---2-2-2-4-|---4-4---4-4-4-4-|---------------2-|---2-2---2-2-2-2-|
D|-----------------|-----------------|-1---1---1-1-1---|-----------------|

G|-----------------|-----------------|
D|-----------------|-----------------|
A|-2-2-2-2-2-2-2-2-|-4-4-4-4-4-4-4-4-|
D|-----------------|-----------------|

Interlude

G|-----------------|-----------------|-----------------|-----------------|
D|-----------------|-----------------|-----------------|-----------------|
A|-----------------|-----------------|-4-4-4-4-4-4-4-4-|-----------------|
D|-1-1-1-1-1-1-1-1-|-4-4-4-4-4-4-4-4-|-----------------|-6-6-6-6-6-6-6-6-|

G|-----------------|-----------------|-----------------|-----------------|
D|-----------------|-----------------|-----------------|-----------------|
A|-6-6-6-6-6-6-6-6-|-4-4-4-4-4-4-4-4-|---------------2-|-2-2-2-2-2-2-2-2-|
D|-----------------|-----------------|-6-6-6-6-6-6-6---|-----------------|

G|-----------------|-----------------|-----------------|-----------------|
D|-----------------|-----------------|-----------------|-----------------|
A|-----------------|-----------------|-4-4-4-4-4-4-4-4-|-----------------|
D|-1-1-1-1-1-1-1-1-|-4-4-4-4-4-4-4-4-|-----------------|-6-6-6-6-6-6-6-6-|

G|-----------------|-----------------|-----------------|-----------------|
D|-----------------|-----------------|-----------------|-----------------|
A|-6-6-6-6-6-6-6-6-|-4-4-4-4-4-4-4-4-|---------------2-|-2-2-2-2-2-2-2-2-|
D|-----------------|-----------------|-6-6-6-6-6-6-6---|-----------------|

G|-----------------|-----------------|-----------------|-----------------|
D|-----------------|-----------------|-----------------|-----------------|
A|-----------------|-----------------|-4-4-4-4-4-4-4-4-|---------------4-|
D|-1-1-1-1-1-1-1-1-|-4-4-4-4-4-4-4-4-|-----------------|-6-6-6-6-6-6-6---|

G|-----------------|-----------------|-----------------|-----------------|
D|-----------------|-----------------|-----------------|-----------------|
A|-6-6-6-6-6-6-6-6-|-4-4-4-4-4-4-4-4-|---------------2-|-2-2-2-2-2\\\----|
D|-----------------|-----------------|-6-6-6-6-6-6-6---|-----------------|

Chorus

G|-----------------|-----------------|-----------------|-----------------|
D|-----------------|-----------------|-----------------|-----------------|
A|-----------------|-----------------|-4-4-4-4-4-4-4-4-|---------------4-|
D|-1-1-1-1-1-1-1-1-|-4-4-4-4-4-4-4-4-|-----------------|-6-6-6-6-6-6-6---|

G|-----------------|-----------------|-----------------|-----------------|
D|-----------------|-----------------|-----------------|-----------------|
A|-6-6-6-6-6-6-6-6-|-4-4-4-4-4-4-4-4-|---------------2-|-2-------4---6---|
D|-----------------|-----------------|-6-6-6-6-6-6-6---|-----4-----------|

G|-----------------|-----------------|-----------------|-----------------|
D|-----------------|-----------------|-----------------|-----------------|
A|-----------------|-----------------|-4-4-4-4-4-4-4-4-|---------------4-|
D|-1-1-1-1-1-1-1-1-|-4-4-4-4-4-4-4-4-|-----------------|-6-6-6-6-6-6-6---|

G|-----------------|-----------------|-----------------|-----------------|
D|-----------------|-----------------|-----------------|-----------------|
A|-6---6---6---6---|-4---4---4---4---|---------------2-|-2---------------|
D|-----------------|-----------------|-6---6---6---6---|-----------------|

G|-----------------||
D|-----------------||
A|-6\\-------------||
D|-----------------||

comments
We did not receive enough feedback on this tab! Please rate:
1 2 3 4 5
2 comments total.
0 reply
Elvenballer wrote on November 3 2010, 12:48 pm

drop D? haha

0 reply
killthisrock wrote on May 4 2013, 08:22 am

This is great for people like me who are too lazy to tune to half step down and it sounds pretty good!

I want to post or [tab]
guest
You may want to rate the tab now too:
select rating
Please do not post tabs as comments. Select "correction" instead!