Oops, an error
Loading. Please wait.

Re-education Tab

ver3
ver3

Whole song

More versions @911Tabs.com
20,360 views 54 this week
1 commentread comment
1 2 3 4 5
excellent!
x 6
add to favorites launch autoscroll
font size
0
reset
Autoscroll
+/-
esc
set tempo
stop
Contributor
WARNING: You are trying to view
                                    content from Ultimate-Guitar.com
                                    in an unauthorized application,
                                    which is prohibited.

                                    Please use an official Ultimate
                                    Guitar Tabs application for iPhone,
                                    iPad or Android to access legitimate
                                    chords, guitar, bass, and drum tabs
                                    from Ultimate-Guitar.com database.

                                    Type "ultimate guitar tabs" in Apple
                                    App Store's or Android Market's
                                    search to find the application.
-Re-Education (Through Labor)
Rise Against
Tuning: Eb Ab Db Gb Bb Eb
Tabbed by mR.bONG789
Based on tab by chromaticvision

~~~ {Intro} ~~~

| RHYTHM GUITAR |
e|-----------------|-----------------|-----------------|-----------------|
B|-----------------|-----------------|-----------------|-----------------|
G|-----------------|-----------------|-----------------|-----------------|
D|-2-2-2-2-2-2-2-2-|-2-2-2-2-2-2-2-2-|-2-2-2-2-2-2-2-2-|-2-2-2-2-2-2-2-2-|
A|-2-2-2-2-2-2-2-2-|-2-2-2-2-2-2-2-2-|-2-2-2-2-2-2-2-2-|-2-2-2-2-2-2-2-2-|
E|-0-0-0-0-0-0-0-0-|-0-0-0-0-0-0-0-0-|-0-0-0-0-0-0-0-0-|-0-0-0-0-0-0-0-0-|
     . . . . . . .   . . . . . . . .   . . . . . . . .   . . . . . . . . 
   1 + 2 + 3 + 4 +   1 + 2 + 3 + 4 +   1 + 2 + 3 + 4 +   1 + 2 + 3 + 4 +

| LEAD GUITAR |
e|-----------------|-----------------|-----------------|-----------------|
B|-----------------|-----------------|-----------------|-----------------|
G|-----------------|-----------------|-----------------|-----------------|
D|-2-2-2-2-2-2-2-2-|-2-2-2-2-2-2-2-2-|-2-2-2-2-2-2-2-2-|-2-2-2-2-2-2-2-2-|
A|-2-2-2-2-2-2-2-2-|-2-2-2-2-2-2-2-2-|-2-2-2-2-2-2-2-2-|-2-2-2-2-2-2-2-2-|
E|-0-0-0-0-0-0-0-0-|-0-0-0-0-0-0-0-0-|-0-0-0-0-0-0-0-0-|-0-0-0-0-0-0-0-0-|
     . . . . . . .   . . . . . . . .   . . . . . . . .   . . . . . . . . 
   1 + 2 + 3 + 4 +   1 + 2 + 3 + 4 +   1 + 2 + 3 + 4 +   1 + 2 + 3 + 4 +


| RHYTHM GUITAR | 
e|-----------------|-----------------|-----------------|-----------------|
B|-----------------|-----------------|-----------------|-----------------|
G|-------5-5-------|-------5-5-------|-------5-5-------|-------5-5-------|
D|-2---2-5-5-5-5-7-|-2-2-2-5-5-5-5-7-|-2---2-5-5-5-5-7-|-2-2-2-5-5-5-5---|
A|-2---2-3-3-5-5-7-|-2-2-2-3-3-5-5-7-|-2---2-3-3-5-5-7-|-2-2-2-3-3-5-5---|
E|-0---0-----3-3-5-|-0-0-0-----3-3-5-|-0---0-----3-3-5-|-0-0-0-----3-3---|
  
   1 + 2 + 3 + 4 +   1 + 2 + 3 + 4 +   1 + 2 + 3 + 4 +   1 + 2 + 3 + 4 +

| LEAD GUITAR | 
e|-----------------|-----------------|-----------------|-----------------|
B|-----------------|-----------------|-----------------|-----------------|
G|-----------------|-----------------|-----------------|-----------------|
D|-2-2-2-2-2-2-2-2-|-2-2-2-2-2-2-2-2-|-----------------|-----------------|
A|-2-2-2-2-2-2-2-2-|-2-2-2-2-2-2-2-2-|-1414------------|-----------------|
E|-0-0-0-0-0-0-0-0-|-0-0-0-0-0-0-0-0-|-1212-14-\\\\\\\\\\\\\\\\\\\\\\\---|
     . . . . . . .   . . . . . . . .    Start sliding down here playing harmonics every quaver.
   1 + 2 + 3 + 4 +   1 + 2 + 3 + 4 +   1 + 2 + 3 + 4 +   1 + 2 + 3 + 4 +

| RHYTHM GUITAR |
e|-------------------|-------------------|-------------------|-----------------|
B|-------------------|-------------------|-------------------|-----------------|
G|-------5-5---------|-------5-5---------|-------5-5---------|-------5-5-------|
D|-2---2-5-5-5-5--7--|-2-2-2-5-5-5-5--7--|-2---2-5-5-5-5--7--|-2-2-2-5-5-5-5---|
A|-2---2-3-3-5-5--7--|-2-2-2-3-3-5-5--7--|-2---2-3-3-5-5--7--|-2-2-2-3-3-5-5---|
E|-0---0-----3-3--5--|-0-0-0-----3-3--5--|-0---0-----3-3--5--|-0-0-0-----3-3---|
  
   1 + 2 + 3 + 4  +    1 + 2 + 3 + 4  +    1 + 2 + 3 + 4  +    1 + 2 + 3 + 4 +
 
| LEAD GUITAR | 
e|-------------------|-------------------|-------------------|-----------------|
B|-------------------|-------------------|-------------------|-----------------|
G|-------------------|-------------------|-------------------|-----------------|
D|-2---0/5--h7-5-0---|-2---0/5--h7-5-0---|-2---0/5--h7-5-0---|-2---0-5---0-0---|
A|-------------------|-------------------|-------------------|-----------------|
E|-------------------|-------------------|-------------------|-----------------|
   
   1 + 2 + 3 + 4  +    1 + 2 + 3 + 4  +    1 + 2 + 3 + 4  +    1 + 2 + 3 + 4 +

| RHYTHM GUITAR | 
e|-------------------|-------------------|-------------------|-------------------|
B|-------------------|-------------------|-------------------|-------------------|
G|-------------------|-------------------|-------------------|-------------------|
D|-2--2-2-2-2-0-0-2--|-2--2-2-2-2-0-0-2--|----------------0--|----------------0--|
A|-------------------|-------------------|-2---2-2-2--0-2----|-2---2-2-2--0-2----|
E|-------------------|-------------------|-------------------|-------------------|
    
   1 + 2 + 3 + 4  +    1 + 2 + 3 + 4  +    1 + 2 + 3 + 4  +    1 + 2 + 3 + 4  +
  
| LEAD GUITAR | 
e|-------------------|-------------------|-------------------|------------------|
B|-------------------|-------------------|-------------------|------------------|
G|-------------------|-------------------|-------------------|------------------|
D|-2---0/5--h7-5-0---|-2---0/5--h7-5-0---|-2---0/5--h7-5-0---|-2---0-5--h7-5-0--|
A|-------------------|-------------------|-------------------|------------------|
E|-------------------|-------------------|-------------------|------------------|
  
   1 + 2 + 3 + 4  +    1 + 2 + 3 + 4  +    1 + 2 + 3 + 4  +    1 + 2 + 3 + 4 +
 

~~~ {Verse} ~~~

| RHYTHM GUITAR |
e|-----------------|-----------------|-----------------|-----------------|
B|-----------------|--to the sound---|-----------------|-----------------|
G|-----------------|--of a heart-----|-------5-5-------|-------5-5-------|
D|-2x--------------|--beat pounding--|-2---2-5-5-5-5-7-|-2-2-2-5-5-5-5-7-|
A|-----------------|--away...--------|-2---2-3-3-5-5-7-|-2-2-2-3-3-5-5-7-|
E|-----------------|-----------------|-0---0-----3-3-5-|-0-0-0-----3-3-5-|
 
   1 + 2 + 3 + 4 +   1 + 2 + 3 + 4 +   1 + 2 + 3 + 4 +   1 + 2 + 3 + 4 +

| LEAD GUITAR |
e|-----------------|-----------------|-----------------|-----------------|
B|-----------------|--to the sound---|-----------------|-----------------|
G|-----------------|--of a heart-----|-9-9-9-9-9-7-7-9-|-9-9-9-9-9-7-7-9-|
D|-----------------|--beat pounding--|-x-x-x-x-x-x-x-x-|-x-x-x-x-x-x-x-x-|
A|-2x--------------|--away...--------|-7-7-7-7-7-5-5-7-|-7-7-7-7-7-5-5-7-|
E|-----------------|-----------------|-----------------|-----------------|
    
   1 + 2 + 3 + 4 +   1 + 2 + 3 + 4 +   1 + 2 + 3 + 4 +   1 + 2 + 3 + 4 +
  
| RHYTHM GUITAR |
e|-----------------|-----------------|-----------------|-----------------|
B|-----------------|-----------------|-----------------|-----------------|
G|-----------------|-----------------|-------5-5-------|-------5-5-------|
D|-----------------|-----------------|-2---2-5-5-5-5-7-|-2-2-2-5-5-5-5-7-|
A|-7~--------------|-----------------|-2---2-3-3-5-5-7-|-2-2-2-3-3-5-5-7-|
E|-----------------|-----------------|-0---0-----3-3-5-|-0-0-0-----3-3-5-|
  
   1 + 2 + 3 + 4 +   1 + 2 + 3 + 4 +   1 + 2 + 3 + 4 +   1 + 2 + 3 + 4 +

| LEAD GUITAR |
e|-----------------|-----------------|-----------------|-----------------|
B|-----------------|-----------------|-----------------|-----------------|
G|-----------------|-----------------|-9-9-9-9-9-7-7-9-|-9-9-9-9-9-7-7-9-|
D|-----------------|-----------------|-x-x-x-x-x-x-x-x-|-x-x-x-x-x-x-x-x-|
A|-7~--------------|(7)~~~~~~~~~~~~~~|-7-7-7-7-7-5-5-7-|-7-7-7-7-7-5-5-7-|
E|-----------------|-----------------|-----------------|-----------------|
   
   1 + 2 + 3 + 4 +   1 + 2 + 3 + 4 +   1 + 2 + 3 + 4 +   1 + 2 + 3 + 4 +


~~~ {Pre-Chorus} ~~~

| RHYTHM GUITAR |
e|-----------------|-----------------|-----------------|-----------------|
B|-----------------|-----------------|-----------------|-----------------|
G|-----------------|-----------------|-----------------|-----------------|
D|-7-7---7-7-7---7-|-7-7---7-7-7-7-5-|-7-7---7-7-7---7-|-7-7---7-7-7-7-5-|
A|-7-7---7-7-7---7-|-7-7---7-7-7-7-5-|-7-7---7-7-7---7-|-7-7---7-7-7-7-5-|
E|-5-5---5-5-5---5-|-5-5---5-5-5-5-3-|-5-5---5-5-5---5-|-5-5---5-5-5-5-3-|
  
   1 + 2 + 3 + 4 +   1 + 2 + 3 + 4 +   1 + 2 + 3 + 4 +   1 + 2 + 3 + 4 +
 
| LEAD GUITAR |
e|-----------------|-----------------|-----------------|-----------------|
B|-----------------|-----------------|-----------------|-----------------|
G|-9-9---9-9-9---9-|-9-9---9-9-9-9-12|-9-9---9-9-9---9-|-9-9---9-9-9-9-12|
D|-x-x---x-x-x---x-|-x-x---x-x-x-x-x-|-x-x---x-x-x---x-|-x-x---x-x-x-x-x-|
A|-7-7---7-7-7---7-|-7-7---7-7-7-7-10|-7-7---7-7-7---7-|-7-7---7-7-7-7-10|
E|-----------------|-----------------|-----------------|-----------------|
   
   1 + 2 + 3 + 4 +   1 + 2 + 3 + 4 +   1 + 2 + 3 + 4 +   1 + 2 + 3 + 4 +


| RHYTHM GUITAR |
e|-----------------|-----------------|-----------------|-----------------|
B|-----------------|-----------------|-----------------|-----------------|
G|-5-5---5-5-5---5-|-5-5---5-5-5-5-5-|-7-7-7-7-7-7-7-7-|-7---------------|
D|-5-5---5-5-5---5-|-5-5---5-5-5-5-5-|-7-7-7-7-7-7-7-7-|-7---------------|
A|-3-3---3-3-3---3-|-3-3---3-3-3-3-3-|-5-5-5-5-5-5-5-5-|-5---------------|
E|-----------------|-----------------|-----------------|-----------------|
  
   1 + 2 + 3 + 4 +   1 + 2 + 3 + 4 +   1 + 2 + 3 + 4 +   1 + 2 + 3 + 4 +

| LEAD GUITAR |
e|-----------------|-----------------|-----------------|-----------------|
B|-----------------|-----------------|-----------------|-----------------|
G|-5-5---5-5-5---5-|-5-5---5-5-5-5-5-|-7-7-7-7-7-7-7-7-|-7---------------|
D|-5-5---5-5-5---5-|-5-5---5-5-5-5-5-|-7-7-7-7-7-7-7-7-|-7---------------|
A|-3-3---3-3-3---3-|-3-3---3-3-3-3-3-|-5-5-5-5-5-5-5-5-|-5---------------|
E|-----------------|-----------------|-----------------|-----------------|
 
   1 + 2 + 3 + 4 +   1 + 2 + 3 + 4 +   1 + 2 + 3 + 4 +   1 + 2 + 3 + 4 +


~~~ {Chorus} ~~~

| RHYTHM GUITAR |
e|-----------------|----------------------|-----------------|----------------------|
B|-----------------|----------------------|-----------------|----------------------|
G|-----------------|----------------------|-7---7---7---7---|----------------------|
D|-2---2---2---2---|-5----5-----5-----5---|-7---7---7---7---|-7----7-----7-----7---|
A|-2---2---2---2---|-5----5-----5-----5---|-5---5---5---5---|-7----7-----7-----7---|
E|-0---0---0---0---|-3----3-----3-----3---|-----------------|-5----5-----5-----5---|
  
   1 + 2 + 3 + 4 +   1 +  2  +  3  +  4 +   1 + 2 + 3 + 4 +   1 +  2  +  3  +  4 +

| LEAD GUITAR | 
e|-----------------|----------------------|-----------------|----------------------|
B|-----------------|----------------------|-----------------|----------------------|
G|-9---9---9---9---|-9-11-11-12-12-14-7-9-|-9---9---9---9---|-9-11-11-12-12-14-11--|
D|-x---x---x---x---|-x-x--x--x--x--x--x-x-|-x---x---x---x---|-x-x--x--x--x--x--x---|
A|-7---7---7---7---|-7-9--9--10-10-12-5-7-|-7---7---7---7---|-7-9--9--10-10-12-9---|
E|-----------------|----------------------|-----------------|----------------------|
  
   1 + 2 + 3 + 4 +   1 +  2  +  3  +  4 +   1 + 2 + 3 + 4 +   1 +  2  +  3  +  4 +


| RHYTHM GUITAR |
e|-----------------|-----------------|-----------------|-----------------|
B|-----------------|-----------------|-----------------|-----------------|
G|-----------------|-7---7---7---7---|-----------------|-5---5---5---5---|
D|-2---2---2---2---|-7---7---7---7---|-7---7---7---7---|-5---5---5---5---|
A|-2---2---2---2---|-5---5---5---5---|-7---7---7---7---|-3---3---3---3---|
E|-0---0---0---0---|-----------------|-5---5---5---5---|-----------------|
  
   1 + 2 + 3 + 4 +   1 + 2 + 3 + 4 +   1 + 2 + 3 + 4 +   1 + 2 + 3 + 4 +

| LEAD GUITAR |
e|-7-----------7---|---------10------|-7-----------7---|---------10------|
b|-----8-----------|-8-----------8---|-----8-----------|-8-----------8---|
G|---------9-------|-----9-----------|---------9-------|-----9-----------|
D|-----------------|-----------------|-----------------|-----------------|
A|-----------------|-----------------|-----------------|-----------------|
E|-----------------|-----------------|-----------------|-----------------|
  
   1 + 2 + 3 + 4 +   1 + 2 + 3 + 4 +   1 + 2 + 3 + 4 +   1 + 2 + 3 + 4 +


| RHYTHM GUITAR |
e|-----------------|----------------------|-----------------|----------------------|
B|-----------------|----------------------|-----------------|----------------------|
G|-----------------|----------------------|-7-7-7-7-7-7-7-7-|----------------------|
D|-2-2-2-2-2-2-2-2-|-5-5--5--5--5--5--5-5-|-7-7-7-7-7-7-7-7-|-7-7--7--7--7--7--7-7-|
A|-2-2-2-2-2-2-2-2-|-5-5--5--5--5--5--5-5-|-5-5-5-5-5-5-5-5-|-7-7--7--7--7--7--7-7-|
E|-0-0-0-0-0-0-0-0-|-3-3--3--3--3--3--3-3-|-----------------|-5-5--5--5--5--5--5-5-|
  
   1 + 2 + 3 + 4 +   1 +  2  +  3  +  4 +   1 + 2 + 3 + 4 +   1 +  2  +  3  +  4 +

| LEAD GUITAR |
e|-----------------|----------------------|-----------------|----------------------|
B|-----------------|----------------------|-----------------|----------------------|
G|-9-9-9-9-9-9-9-9-|-9-11-11-12-12-14-7-9-|-9-9-9-9-9-9-9-9-|-9-11-11-12-12-14-11--|
D|-x-x-x-x-x-x-x-x-|-x-x--x--x--x--x--x-x-|-x-x-x-x-x-x-x-x-|-x-x--x--x--x--x--x---|
A|-7-7-7-7-7-7-7-7-|-7-9--9--10-10-12-5-7-|-7-7-7-7-7-7-7-7-|-7-9--9--10-10-12-9---|
E|-----------------|----------------------|-----------------|----------------------|
  
   1 + 2 + 3 + 4 +   1 +  2  +  3  +  4 +   1 + 2 + 3 + 4 +   1 +  2  +  3  +  4 +

| RHYTHM GUITAR |
e|-----------------|-----------------|-----------------|-----------------|
B|-----------------|-----------------|-----------------|-----------------|
G|-----------------|-7-7-7-7-7-7-7-7-|-----------------|-5-5-5-5-5-5-5-5-|
D|-2-2-2-2-2-2-2-2-|-7-7-7-7-7-7-7-7-|-7-7-7-7-7-7-7-7-|-5-5-5-5-5-5-5-5-|
A|-2-2-2-2-2-2-2-2-|-5-5-5-5-5-5-5-5-|-7-7-7-7-7-7-7-7-|-3-3-3-3-3-3-3-3-|
E|-0-0-0-0-0-0-0-0-|-----------------|-5-5-5-5-5-5-5-5-|-----------------|

   1 + 2 + 3 + 4 +   1 + 2 + 3 + 4 +   1 + 2 + 3 + 4 +   1 + 2 + 3 + 4 +
| LEAD GUITAR |
e|-7-----------7---|---------10------|-7-----------7---|---------10------|
b|-----8-----------|-8-----------8---|-----8-----------|-8-----------8---|
G|---------9-------|-----9-----------|---------9-------|-----9-----------|
D|-----------------|-----------------|-----------------|-----------------|
A|-----------------|-----------------|-----------------|-----------------|
E|-----------------|-----------------|-----------------|-----------------|
  
   1 + 2 + 3 + 4 +   1 + 2 + 3 + 4 +   1 + 2 + 3 + 4 +   1 + 2 + 3 + 4 +


~~~ {Interlude} ~~~


| RHYTHM GUITAR |
e|-----------------|-----------------|
B|-----------------|-----------------|
G|-------5-5-------|-------5-5-------|
D|-2-2-2-5-5-5-5-7-|-2-2-2-5-5-5-5-7-|
A|-2-2-2-3-3-5-5-7-|-2-2-2-3-3-5-5-7-|
E|-0-0-0-----3-3-5-|-0-0-0-----3-3-5-|
 
   1 + 2 + 3 + 4 +   1 + 2 + 3 + 4 + 

| LEAD GUITAR |  
e|-----------------|-----------------|
B|-----------------|-----------------|
G|-----------------|-----------------|
D|-2--(2)\\\-------|-----------------|
A|-2--(2)\\\-------|-----------------|
E|-0--(0)\\\-------|-------------14\\|
      
   1 + 2 + 3 + 4 +   1 + 2 + 3 + 4 + 


| RHYTHM GUITAR |
e|-------------------|-------------------|-------------------|-----------------|
B|-------------------|-------------------|-------------------|-----------------|
G|-------5-5---------|-------5-5---------|-------5-5---------|-----------------|
D|-2---2-5-5-5-5--7--|-2-2-2-5-5-5-5--7--|-2---2-5-5-5-5--7--|-----------------|
A|-2---2-3-3-5-5--7--|-2-2-2-3-3-5-5--7--|-2---2-3-3-5-5--7--|-3-2-0---------5-|
E|-0---0-----3-3--5--|-0-0-0-----3-3--5--|-0---0-----3-3--5--|-------3-2-0-2---|
  
   1 + 2 + 3 + 4  +    1 + 2 + 3 + 4  +    1 + 2 + 3 + 4  +    1 + 2 + 3 + 4 +
 
| LEAD GUITAR |
e|-------------------|-------------------|-------------------|-----------------|
B|-------------------|-------------------|-------------------|-5-3-------------|
G|-------------------|-------------------|-------------------|-----5-4-2-0-----|
D|-2---0/5--h7-5--0--|-2---0/5--h7-5—0---|-2---0/5--h7-5--0--|-------------4-0-|
A|-------------------|-------------------|-------------------|-----------------|
E|-------------------|-------------------|-------------------|-----------------|
  
   1 + 2 + 3 + 4  +    1 + 2 + 3 + 4  +    1 + 2 + 3 + 4  +    1 + 2 + 3 + 4 +


~~~ {Verse} ~~~

| RHYTHM GUITAR |
e|-----------------|-----------------|-----------------|-----------------|
B|-----------------|-----------------|-----------------|-----------------|
G|-----------------|-----------------|-------5-5-------|-------5-5-------|
D|-2~--------------|-----------------|-2---2-5-5-5-5-7-|-2-2-2-5-5-5-5-7-|
A|-----------------|-----------------|-2---2-3-3-5-5-7-|-2-2-2-3-3-5-5-7-|
E|-----------------|-----------------|-0---0-----3-3-5-|-0-0-0-----3-3-5-|
 
   1 + 2 + 3 + 4 +   1 + 2 + 3 + 4 +   1 + 2 + 3 + 4 +   1 + 2 + 3 + 4 +

| LEAD GUITAR |
e|-----------------|-----------------|-----------------|-----------------|
B|-----------------|-----------------|-----------------|-----------------|
G|-2~--------------|(2)~~~~~~~~~~~~~~|-9-9-9-9-9-7-7-9-|-9-9-9-9-9-7-7-9-|
D|-----------------|-----------------|-x-x-x-x-x-x-x-x-|-x-x-x-x-x-x-x-x-|
A|-----------------|-----------------|-7-7-7-7-7-5-5-7-|-7-7-7-7-7-5-5-7-|
E|-----------------|-----------------|-----------------|-----------------|
   
   1 + 2 + 3 + 4 +   1 + 2 + 3 + 4 +   1 + 2 + 3 + 4 +   1 + 2 + 3 + 4 +


| RHYTHM GUITAR |
e|-----------------|------------------------|-----------------|-----------------|
B|-----------------|------------------------|-----------------|-----------------|
G|-----------------|------------------------|-------5-5-------|-------5-5-------|
D|-----------------|------------------------|-2---2-5-5-5-5-7-|-2-2-2-5-5-5-5-7-|
A|-----------------|------------------------|-2---2-3-3-5-5-7-|-2-2-2-3-3-5-5-7-|
E|-----------------|------------------------|-0---0-----3-3-5-|-0-0-0-----3-3-5-|
   
   1 + 2 + 3 + 4 +   1  +  2  +  3  +  4  +  1 + 2 + 3 + 4 +   1 + 2 + 3 + 4 +

| LEAD GUITAR |  
e|-----------------|-12-12-12-12-12-12~~~~~-|-----------------|-----------------|
B|-----------------|------------------------|-----------------|-----------------|
G|-----------------|------------------------|-9-9-9-9-9-7-7-9-|-9-9-9-9-9-7-7-9-|
D|-----------------|------------------------|-x-x-x-x-x-x-x-x-|-x-x-x-x-x-x-x-x-|
A|-7---7---7---7---|------------------------|-7-7-7-7-7-5-5-7-|-7-7-7-7-7-5-5-7-|
E|-----------------|------------------------|-----------------|-----------------|
   
   1 + 2 + 3 + 4 +   1  +  2  +  3  +  4  +   1 + 2 + 3 + 4 +   1 + 2 + 3 + 4 +


~~~ {Pre-Chorus} ~~~

| RHYTHM GUITAR |
e|-------------------|-----------------|-------------------|-----------------|
B|-------------------|-----------------|-------------------|-----------------|
G|-------------------|-----------------|-------------------|-----------------|
D|-7-7---7-7---7---7-|-7-7---7-7-7-7-5-|-7-7---7-7---7---7-|-7-7---7-7-9-10--|
A|-7-7---7-7---7---7-|-7-7---7-7-7-7-5-|-7-7---7-7---7---7-|-7-7---7-7-9-10--|
E|-5-5---5-5---5---5-|-5-5---5-5-5-5-3-|-5-5---5-5---5---5-|-5-5---5-5-7-8---|

   1 + 2 + 3   + 4 +   1 + 2 + 3 + 4 +   1 + 2 + 3   + 4 +   1 + 2 + 3 + 4 +

| LEAD GUITAR |
e|-------------------|-----------------|-------------------|-----------------|
B|-------------------|-----------------|-------------------|-----------------|
G|-9-9---9-9---9---9-|-9-9---9-9-9-9-12|-9-9---9-9---9---9-|-9-9---9-9-1112--|
D|-x-x---x-x---x---x-|-x-x---x-x-x-x-x-|-x-x---x-x---x---x-|-x-x---x-x-x-x---|
A|-7-7---7-7---7---7-|-7-7---7-7-7-7-10|-7-7---7-7---7---7-|-7-7---7-7-9-10--|
E|-------------------|-----------------|-------------------|-----------------|
     
   1 + 2 + 3   + 4 +   1 + 2 + 3 + 4 +   1 + 2 + 3   + 4 +   1 + 2 + 3 + 4 +


~~~ {Chorus} ~~~

| RHYTHM GUITAR |
e|-----------------|----------------------|-----------------|----------------------|
B|-----------------|----------------------|-----------------|----------------------|
G|-----------------|----------------------|-7---7---7---7---|----------------------|
D|-2---2---2---2---|-5----5-----5-----5---|-7---7---7---7---|-7----7-----7-----7---|
A|-2---2---2---2---|-5----5-----5-----5---|-5---5---5---5---|-7----7-----7-----7---|
E|-0---0---0---0---|-3----3-----3-----3---|-----------------|-5----5-----5-----5---|
  
   1 + 2 + 3 + 4 +   1 +  2  +  3  +  4 +   1 + 2 + 3 + 4 +   1 +  2  +  3  +  4 +
 
| LEAD GUITAR |
e|-----------------|----------------------|-----------------|----------------------|
B|-----------------|----------------------|-----------------|----------------------|
G|-9---9---9---9---|-9-11-11-12-12-14-7-9-|-9---9---9---9---|-9-11-11-12-12-14-11--|
D|-x---x---x---x---|-x-x--x--x--x--x--x-x-|-x---x---x---x---|-x-x--x--x--x--x--x---|
A|-7---7---7---7---|-7-9--9--10-10-12-5-7-|-7---7---7---7---|-7-9--9--10-10-12-9---|
E|-----------------|----------------------|-----------------|----------------------|
  
   1 + 2 + 3 + 4 +   1 +  2  +  3  +  4 +   1 + 2 + 3 + 4 +   1 +  2  +  3  +  4 +


| RHYTHM GUITAR |
e|-----------------|-----------------|-----------------|-----------------|
B|-----------------|-----------------|-----------------|-----------------|
G|-----------------|-7---7---7---7---|-----------------|-5---5---5---5---|
D|-2---2---2---2---|-7---7---7---7---|-7---7---7---7---|-5---5---5---5---|
A|-2---2---2---2---|-5---5---5---5---|-7---7---7---7---|-3---3---3---3---|
E|-0---0---0---0---|-----------------|-5---5---5---5---|-----------------|
 
   1 + 2 + 3 + 4 +   1 + 2 + 3 + 4 +   1 + 2 + 3 + 4 +   1 + 2 + 3 + 4 +
 
| LEAD GUITAR |
e|-7-----------7---|---------10------|-7-----------7---|---------10------|
b|-----8-----------|-8-----------8---|-----8-----------|-8-----------8---|
G|---------9-------|-----9-----------|---------9-------|-----9-----------|
D|-----------------|-----------------|-----------------|-----------------|
A|-----------------|-----------------|-----------------|-----------------|
E|-----------------|-----------------|-----------------|-----------------|
  
   1 + 2 + 3 + 4 +   1 + 2 + 3 + 4 +   1 + 2 + 3 + 4 +   1 + 2 + 3 + 4 +


| RHYTHM GUITAR |
e|-----------------|----------------------|-----------------|----------------------|
B|-----------------|----------------------|-----------------|----------------------|
G|-----------------|----------------------|-7-7-7-7-7-7-7-7-|----------------------|
D|-2-2-2-2-2-2-2-2-|-5-5--5--5--5--5--5-5-|-7-7-7-7-7-7-7-7-|-7-7--7--7--7--7--7-7-|
A|-2-2-2-2-2-2-2-2-|-5-5--5--5--5--5--5-5-|-5-5-5-5-5-5-5-5-|-7-7--7--7--7--7--7-7-|
E|-0-0-0-0-0-0-0-0-|-3-3--3--3--3--3--3-3-|-----------------|-5-5--5--5--5--5--5-5-|
 
   1 + 2 + 3 + 4 +   1 +  2  +  3  +  4 +   1 + 2 + 3 + 4 +   1 +  2  +  3  +  4 +

| LEAD GUITAR |
e|-----------------|----------------------|-----------------|----------------------|
B|-----------------|----------------------|-----------------|----------------------|
G|-9-9-9-9-9-9-9-9-|-9-11-11-12-12-14-7-9-|-9-9-9-9-9-9-9-9-|-9-11-11-12-12-14-11--|
D|-x-x-x-x-x-x-x-x-|-x-x--x--x--x--x--x-x-|-x-x-x-x-x-x-x-x-|-x-x--x--x--x--x--x---|
A|-7-7-7-7-7-7-7-7-|-7-9--9--10-10-12-5-7-|-7-7-7-7-7-7-7-7-|-7-9--9--10-10-12-9---|
E|-----------------|----------------------|-----------------|----------------------|
  
   1 + 2 + 3 + 4 +   1 +  2  +  3  +  4 +   1 + 2 + 3 + 4 +   1 +  2  +  3  +  4 +


| RHYTHM GUITAR |
e|-----------------|------------------------|
B|-----------------|------------------------|
G|-----------------|-7-7--7--7--7--7--7--7--|
D|-2-2-2-2-2-2-2-2-|-7-7--7--7--7--7--7--7--|
A|-2-2-2-2-2-2-2-2-|-5-5--5--5--5--5--5--5--|
E|-0-0-0-0-0-0-0-0-|------------------------|
 
   1 + 2 + 3 + 4 +   1 +  2  +  3  +  4  +  

| LEAD GUITAR |
e|-7-----------7---|------------10----------|
b|-----8-----------|-8----------------8-----|
G|---------9-------|------9-----------------|
D|-----------------|------------------------|
A|-----------------|------------------------|
E|-----------------|------------------------|

   1 + 2 + 3 + 4 +   1 +  2  +  3  +  4  +  

~~~ {Bridge} ~~~

| RHYTHM GUITAR |
e|-----------------|-----------------|-----------------|-----------------|
B|-----------------|-----------------|-----------------|-----------------|
G|-----------------|-------------2-4-|-5-5-5-5-5-5-5-5-|-5-5-5-5-5-5-5-5-|
D|-7-7-7-7-7-7-7-7-|-7-7-7-7-7---2-4-|-5-5-5-5-5-5-5-5-|-5-5-5-5-5-5-5-5-|
A|-7-7-7-7-7-7-7-7-|-7-7-7-7-7---0-2-|-3-3-3-3-3-3-3-3-|-3-3-3-3-3-3-3-3-|
E|-5-5-5-5-5-5-5-5-|-5-5-5-5-5-------|-----------------|-----------------|
   . . . . . . . .   . . . . .   . .   . . . . . . . .   . . . . 
   1 + 2 + 3 + 4 +   1 + 2 + 3 + 4 +   1 + 2 + 3 + 4 +   1 + 2 + 3 + 4 +  

| LEAD GUITAR |
e|-7-----------7---|---------10------|-7-----------7---|---------10------|
b|-----8-----------|-8-----------8---|-----8-----------|-8-----------8---|
G|---------9-------|-----9-----------|---------9-------|-----9-----------|
D|-----------------|-----------------|-----------------|-----------------|
A|-----------------|-----------------|-----------------|-----------------|
E|-----------------|-----------------|-----------------|-----------------|
  
   1 + 2 + 3 + 4 +   1 + 2 + 3 + 4 +   1 + 2 + 3 + 4 +   1 + 2 + 3 + 4 +


| RHYTHM GUITAR |
e|-----------------|-----------------|-----------------|-----------------|
B|-----------------|-----------------|-----------------|-----------------|
G|-4-4-4-4-4-4-4-4-|-4-4-4-4-4-4-4-4-|-7-7-7-7-7-7-7-7-|-7-7-7-7-\\\\\\\\|
D|-4-4-4-4-4-4-4-4-|-4-4-4-4-4-4-4-4-|-7-7-7-7-7-7-7-7-|-7-7-7-7-\\\\\\\\|
A|-2-2-2-2-2-2-2-2-|-2-2-2-2-2-2-2-2-|-5-5-5-5-5-5-5-5-|-5-5-5-5-\\\\\\\\|
E|-----------------|-----------------|-----------------|-----------------|
   . . . . . . . .   . . . .           . . . . . . . .   . . . . PICKSIDE
   1 + 2 + 3 + 4 +   1 + 2 + 3 + 4 +   1 + 2 + 3 + 4 +   1 + 2 + 3 + 4 +  

| LEAD GUITAR |
e|-7-----------7---|---------10------|-7-----------7---|---------10------|
B|-----8-----------|-8-----------8---|----8------------|-8-----------8---|
G|---------9-------|-----9-----------|---------9-------|----9------------|
D|-----------------|-----------------|-----------------|-----------------|
A|-----------------|-----------------|-----------------|-----------------|
E|-----------------|-----------------|-----------------|-----------------|

   1 + 2 + 3 + 4 +   1 + 2 + 3 + 4 +   1 + 2 + 3 + 4 +   1 + 2 + 3 + 4 + 

| RHYTHM GUITAR |
e|-----------------|-----------------|-----------------|-----------------|
B|-----------------|-----------------|-----------------|-----------------|
G|-5---5---5-5-5-7-|---7-7---7-7-7-7-|---------------4-|---4-4---4-4-4-4-|
D|-5---5---5-5-5-7-|---7-7---7-7-7-7-|-2---2---2-2-2-4-|---4-4---4-4-4-4-|
A|-3---3---3-3-3-5-|---5-5---5-5-5-5-|-2---2---2-2-2-2-|---2-2---2-2-2-2-|
E|-----------------|-----------------|-0---0---0-0-0---|-----------------|

   1 + 2 + 3 + 4 +   1 + 2 + 3 + 4 +   1 + 2 + 3 + 4 +   1 + 2 + 3 + 4 +  

| LEAD GUITAR |
e|-----------------|-----------------|-----------------|-----------------|
B|-----------------|-----------------|-----------------|-----------------|
g|-5---5---5-5-5-7-|---7-7---7-7-7-7-|-9---9---9-119-8-|---8-8---4-4-4-4-|
D|-x---x---x-x-x-x-|---x-x---x-x-x-x-|-x---x---x-x-x-x-|---x-x---x-x-x-x-|
A|-3---3---3-3-3-5-|---5-5---5-5-5-5-|-7---7---7-9-7-6-|---6-6---2-2-2-2-|
E|-----------------|-----------------|-----------------|-----------------|
 
   1 + 2 + 3 + 4 +   1 + 2 + 3 + 4 +   1 + 2 + 3 + 4 +   1 + 2 + 3 + 4 + 


| RHYTHM GUITAR |
e|-----------------|-----------------|
B|-----------------|-----------------|
G|-5---5---5-5-5-5-|-7-7-7-7-7-7-7-7-|
D|-5---5---5-5-5-5-|-7-7-7-7-7-7-7-7-|
A|-3---3---3-3-3-3-|-5-5-5-5-5-5-5-5-|
E|-----------------|-----------------|

   1 + 2 + 3 + 4 +   1 + 2 + 3 + 4 +   

| LEAD GUITAR |
e|-----------------|-----------------|
B|-----------------|-----------------|
g|-5---5---5-5-5-5-|-7-7-7-7-7-7-7-7-|
D|-x---x---x-x-x-x-|-x-x-x-x-x-x-x-x-|
A|-3---3---3-3-3-3-|-5-5-5-5-5-5-5-5-|
E|-----------------|-----------------|
 
   1 + 2 + 3 + 4 +   1 + 2 + 3 + 4 + 


~~~ {Solo} ~~~

| RHYTHM GUITAR |
e|-----------------|-----------------|---------------------|-----------------|-----------------|
B|-----------------|-----------------|---------------------|-----------------|-----------------|
G|-9---------------|-----------------|------------------7//|-9---------------|-----------------|
D|-9---------------|-----------------|------------------xxx|-x---------------|-----------------|
A|-7---------------|-----------------|------------------5//|-7---------------|-----------------|
E|-----------------|-----------------|---------------------|-----------------|-----------------|

   1 + 2 + 3 + 4 +   1 + 2 + 3 + 4 +   1 + 2 + 3  +  4  +    1 + 2 + 3 + 4 +   1 + 2 + 3 + 4 +  

| LEAD GUITAR |
e|-----------------|-----------------|---------------------|---------------10|-7---------------|
B|-----------------|-----------------|---------------------|------------7h8--|-----------------|
g|-9---------------|-------------9\7~|--------(7)/14\12/14-|-----------------|-----------------|
D|-x---------------|-------------x---|---------------------|-----------------|-----------------|
A|-7---------------|-------------7\5~|--------(5)/12\10/12-|-----------------|-----------------|
E|-----------------|-----------------|---------------------|-----------------|-----------------|

   1 + 2 + 3 + 4 +   1 + 2 + 3 + 4 +   1 + 2 + 3  +  4  +    1 + 2 + 3 + 4 +   1 + 2 + 3 + 4 +  

| RHYTHM GUITAR |
e|-----------------|-----------------|-----------------|
B|-----------------|-----------------|-----------------|
G|-----------------|-----------------|-----------------|
D|-----------------|-----------------|-----------------|
A|-----------------|-----------------|-----------------|
E|-----------------|-----------------|-----------------|

   1 + 2 + 3 + 4 +   1 + 2 + 3 + 4 +   1 + 2 + 3 + 4 +  

| LEAD GUITAR |
e|-------------9---|-5---------------|-----------------|
B|/8---------------|-----------------|---5-5-5-5-5-5-3-|
G|-------9---------|-----------------|-----------------|
D|-----------------|-----------------|-----------------|
A|-----------------|-----------------|-----------------|
E|-----------------|-----------------|-----------------|
 
   1 + 2 + 3 + 4 +   1 + 2 + 3 + 4 +   1 + 2 + 3 + 4 +  
 

~~~ {Bridge} ~~~

| RHYTHM GUITAR |
e|--I wont crawl---|-on my knees for-|-I wont believe--|-that hide the---|
B|---------------- |-you-------------|-the lies -------|-the truth-------|
G|-----------------|-----------------|-----------------|-----------------|
D|-----------------|-----------------|-----------------|-----------------|
A|-----------------|-----------------|-----------------|-----------------|
E|-----------------|-----------------|-----------------|-----------------|

   1 + 2 + 3 + 4 +   1 + 2 + 3 + 4 +   1 + 2 + 3 + 4 +   1 + 2 + 3 + 4 +  

| LEAD GUITAR |
e|-----------------|-----------------|-----------------|-----------------|
B|-5---------------|-----------------|-----------------|-----------------|
G|-----------------|-----------------|-----------------|-----------------|
D|-----------------|-----------------|-----------------|-----------------|
A|-----------------|-----------------|-----------------|-----------------|
E|-----------------|-----------------|-----------------|-----------------|

   1 + 2 + 3 + 4 +   1 + 2 + 3 + 4 +   1 + 2 + 3 + 4 +   1 + 2 + 3 + 4 +  
 
| RHYTHM GUITAR |
e|-I wont sweat----|-one more drop --|-----------------|-----------------|
B|-----------------|-for you...------|-----------------|-----------------|
G|-----------------|-----------------|-----------------|-----------------|
D|-----------------|-----------------|-----------------|-----------------|
A|-----------------|-----------------|-----------------|-----------------|
E|-----------------|-----------------|-----------------|-----------------|

   1 + 2 + 3 + 4 +   1 + 2 + 3 + 4 +   1 + 2 + 3 + 4 +   1 + 2 + 3 + 4 +  

| LEAD GUITAR |
e|-----------------|-----------------|-----------------|-----------------|
B|-----------------|-----------------|-----------------|-----------------|
G|-----------------|-----------------|-----------------|---------------7/|
D|-----------------|-----------------|-----------------|---------------x-|
A|-----------------|-----------------|-----------------|---------------5/|
E|-----------------|-----------------|-----------------|-----------------|
 
   1 + 2 + 3 + 4 +   1 + 2 + 3 + 4 +   1 + 2 + 3 + 4 +   1 + 2 + 3 + 4 +  


| RHYTHM GUITAR |
e|-----------------|-----------------|-----------------|-----------------|
B|-----------------|-----------------|-----------------|-----------------|
G|-----------------|-----------------|-7-7-7-7-7-7-7-7-|-----------------|
D|-2-2-2-2-2-2-2-2-|-5-5-5-5-5-5-5-5-|-7-7-7-7-7-7-7-7-|-7-7-7-7-7-7-7-7-|
A|-2-2-2-2-2-2-2-2-|-5-5-5-5-5-5-5-5-|-5-5-5-5-5-5-5-5-|-7-7-7-7-7-7-7-7-|
E|-0-0-0-0-0-0-0-0-|-3-3-3-3-3-3-3-3-|-----------------|-5-5-5-5-5-5-5-5-|
   . . . . . . . .   . . . . . . . .   . . . . . . . .   . . . . . . . .
   1 + 2 + 3 + 4 +   1 + 2 + 3 + 4 +   1 + 2 + 3 + 4 +   1 + 2 + 3 + 4 +  

| LEAD GUITAR |
e|-------7-------10|---------7-----10|---------7-----10|-----107----10---|
B|-----------8-----|---8---8---8-----|---8---8---8-----|---8-----8-------|
G|/9---------------|-----9-------9---|-----9-------9---|-----------9---9-|
D|-----------------|-----------------|-----------------|-----------------|
A|/7-------7---7---|-7---------------|-7---------------|-7---------------|
E|-----------------|-----------------|-----------------|-----------------|
 
   1 + 2 + 3 + 4 +   1 + 2 + 3 + 4 +   1 + 2 + 3 + 4 +   1 + 2 + 3 + 4 +  


| RHYTHM GUITAR |
e|-----------------|-----------------|-----------------|-----------------|-----------------|
B|-----------------|-----------------|-----------------|-----------------|-----------------|
G|-9-9-9-9-9-9-9-9-|-7-7-7-7-7-7-7-7-|-2-2-2-2-2-2-2-4-|-5-5-5-5-5~-(5)\\|-----------------|
D|-9-9-9-9-9-9-9-9-|-7-7-7-7-7-7-7-7-|-2-2-2-2-2-2-2-4-|-5-5-5-5-5~-(5)\\|-----------------|
A|-7-7-7-7-7-7-7-7-|-5-5-5-5-5-5-5-5-|-0-0-0-0-0-0-0-2-|-3-3-3-3-3~-(3)\\|-----------------|
E|-----------------|-----------------|-----------------|-----------------|-----------------|
   . . . . . . . .   . . . . . . . .   . . . . . . 
   1 + 2 + 3 + 4 +   1 + 2 + 3 + 4 +   1 + 2 + 3 + 4 +   1 + 2 + 3 + 4 +  

| LEAD GUITAR |
e|-----------------|-----------------|-----------------|-----------------|-----------------|
B|-7h8-7h8-7h8-7h8-|-7~~-7h8-7h8-7h8-|-7h8-7h8-7h8-7h8-|-7h8-7h8-7h8-7---|-----------------|
G|-----------------|-----------------|-----------------|---------------7-|-9---------------|
D|-----------------|-----------------|-----------------|-----------------|-----------------|
A|-----------------|-----------------|-----------------|-----------------|-----------------|
E|-----------------|-----------------|-----------------|-----------------|-----------------|
 
   1 + 2 + 3 + 4 +   1 + 2 + 3 + 4 +   1 + 2 + 3 + 4 +   1 + 2 + 3 + 4 +   1 + 2 + 3 + 4 +  


~~~ {Chorus} ~~~

| RHYTHM GUITAR |
e|-----------------|----------------------|-----------------|----------------------|
B|-----------------|----------------------|-----------------|----------------------|
G|-----------------|----------------------|-7-7-7-7-7-7-7-7-|----------------------|
D|-2-2-2-2-2-2-2-2-|-5-5--5--5--5--5--5-5-|-7-7-7-7-7-7-7-7-|-7-7--7—-7--7--7--7-7-|
A|-2-2-2-2-2-2-2-2-|-5-5--5--5--5--5--5-5-|-5-5-5-5-5-5-5-5-|-7-7--7--7--7--7--7-7-|
E|-0-0-0-0-0-0-0-0-|-3-3--3--3--3--3--3-3-|-----------------|-5-5--5--5--5--5--5-5-|

   1 + 2 + 3 + 4 +   1 +  2  +  3  +  4 +   1 + 2 + 3 + 4 +   1 +  2  +  3  +  4 +

| LEAD GUITAR |
e|-----------------|----------------------|-----------------|----------------------|
B|-----------------|----------------------|-----------------|----------------------|
G|-9-9-9-9-9-9-9-9-|-9-11-11-12-12-14-7-9-|-9-9-9-9-9-9-9-9-|-9-11-11-12-12-14-11--|
D|-x-x-x-x-x-x-x-x-|-x-x--x--x--x--x--x-x-|-x-x-x-x-x-x-x-x-|-x-x--x--x--x--x--x---|
A|-7-7-7-7-7-7-7-7-|-7-9--9--10-10-12-5-7-|-7-7-7-7-7-7-7-7-|-7-9--9--10-10-12-9---|
E|-----------------|----------------------|-----------------|----------------------|
  
   1 + 2 + 3 + 4 +   1 +  2  +  3  +  4 +   1 + 2 + 3 + 4 +   1 +  2  +  3  +  4 +


| RHYTHM GUITAR |
e|-----------------|-----------------|-----------------|-----------------|
B|-----------------|-----------------|-----------------|-----------------|
G|-----------------|-7-7-7-7-7-7-7-7-|-----------------|-5-5-5-5-5-5-5-5-|
D|-2-2-2-2-2-2-2-2-|-7-7-7-7-7-7-7-7-|-7-7-7-7-7-7-7-7-|-5-5-5-5-5-5-5-5-|
A|-2-2-2-2-2-2-2-2-|-5-5-5-5-5-5-5-5-|-7-7-7-7-7-7-7-7-|-3-3-3-3-3-3-3-3-|
E|-0-0-0-0-0-0-0-0-|-----------------|-5-5-5-5-5-5-5-5-|-----------------|

   1 + 2 + 3 + 4 +   1 + 2 + 3 + 4 +   1 + 2 + 3 + 4 +   1 + 2 + 3 + 4 +

| LEAD GUITAR |
e|-7-----------7---|---------10------|-7-----------7---|---------10------|
b|-----8-----------|-8-----------8---|-----8-----------|-8-----------8---|
G|---------9-------|-----9-----------|---------9-------|-----9-----------|
D|-----------------|-----------------|-----------------|-----------------|
A|-----------------|-----------------|-----------------|-----------------|
E|-----------------|-----------------|-----------------|-----------------|
 
   1 + 2 + 3 + 4 +   1 + 2 + 3 + 4 +   1 + 2 + 3 + 4 +   1 + 2 + 3 + 4 +

[FILL IN]

| RHYTHM GUITAR |
e|-----------------|----------------------|-----------------|----------------------|
B|-----------------|----------------------|-----------------|----------------------|
G|-----------------|----------------------|-7-7-7-7-7-7-7-7-|----------------------|
D|-2-2-2-2-2-2-2-2-|-5-5--5--5--5--5--5-5-|-7-7-7-7-7-7-7-7-|-7-7--7—-7--7--7--7-7-|
A|-2-2-2-2-2-2-2-2-|-5-5--5--5--5--5--5-5-|-5-5-5-5-5-5-5-5-|-7-7--7--7--7--7--7-7-|
E|-0-0-0-0-0-0-0-0-|-3-3--3--3--3--3--3-3-|-----------------|-5-5--5--5--5--5--5-5-|

   1 + 2 + 3 + 4 +   1 +  2  +  3  +  4 +   1 + 2 + 3 + 4 +   1 +  2  +  3  +  4 +

| LEAD GUITAR |
e|-----------------|----------------------|-----------------|----------------------|
B|-----------------|----------------------|-----------------|----------------------|
G|-9-9-9-9-9-9-9-9-|-9-11-11-12-12-14-7-9-|-9-9-9-9-9-9-9-9-|-9-11-11-12-12-14-11--|
D|-x-x-x-x-x-x-x-x-|-x-x--x--x--x--x--x-x-|-x-x-x-x-x-x-x-x-|-x-x--x--x--x--x--x---|
A|-7-7-7-7-7-7-7-7-|-7-9--9--10-10-12-5-7-|-7-7-7-7-7-7-7-7-|-7-9--9--10-10-12-9---|
E|-----------------|----------------------|-----------------|----------------------|
  
   1 + 2 + 3 + 4 +   1 +  2  +  3  +  4 +   1 + 2 + 3 + 4 +   1 +  2  +  3  +  4 + 

 
| RHYTHM GUITAR |
e|-----------------|-----------------|-----------------|-----------------|-----------------|
B|-----------------|-----------------|-----------------|-----------------|-----------------|
G|-----------------|-7---7---7---7---|-2---2---2---2---|-5---------------|-----------------|
D|-2---2---2---2---|-7---7---7---7---|-2---2---2---2---|-5---------------|-2~~~------------|
A|-2---2---2---2---|-5---5---5---5---|-0---0---0---0---|-3---------------|-2~~~------------|
E|-0---0---0---0---|-----------------|-----------------|-----------------|-0~~~------------|

   1 + 2 + 3 + 4 +   1 + 2 + 3 + 4 +   1 + 2 + 3 + 4 +   1 + 2 + 3 + 4  +  1 + 2 + 3 + 4 +


| LEAD GUITAR |
e|-7-----------7---|---------10------|-7-----------7---|-----------------|-----------------|
b|-----8-----------|-8-----------8---|-----8-----------|-----------------|-----------------|
G|---------9-------|-----9-----------|---------9-------|-----------------|-----------------|
D|-----------------|-----------------|-----------------|-2---0/5---7-5-0-|-2~~~------------|
A|-----------------|-----------------|-----------------|-----------------|-----------------|
E|-----------------|-----------------|-----------------|-----------------|-----------------|
  
   1 + 2 + 3 + 4 +   1 + 2 + 3 + 4 +   1 + 2 + 3 + 4 +   1 + 2 + 3 + 4  +  1 + 2 + 3 + 4  +
1 comment total.
+1 reply
UnavailableUser wrote on July 8 2010, 11:11 am

I... I love you...

I want to post or [tab]
guest
You may want to rate the tab now too:
select rating
Please do not post tabs as comments. Select "correction" instead!