Oops, an error
Loading. Please wait.

Ready To Fall Bass Tab

ver4
ver4

Whole song

More versions @911Tabs.com
3,733 views 6 this week
1 commentread comment
1 2 3 4 5
excellent!
x 5
Autoscroll
+/-
esc
set tempo
stop
Contributor
WARNING: You are trying to view
                                    content from Ultimate-Guitar.com
                                    in an unauthorized application,
                                    which is prohibited.

                                    Please use an official Ultimate
                                    Guitar Tabs application for iPhone,
                                    iPad or Android to access legitimate
                                    chords, guitar, bass, and drum tabs
                                    from Ultimate-Guitar.com database.

                                    Type "ultimate guitar tabs" in Apple
                                    App Store's or Android Market's
                                    search to find the application.
SONG: Ready to Fall 
ALBUM: The Sufferer and the Witness
ARTIST: Rise Against

INTRO

Gb|----------------------------------|---------------------------------|
Db|----------------------------------|---------------------------------|
Ab|----------------------------------|---------------------------------|
Eb|----------------------------------|---------------------------------|
    1 + + + 2 + + + 3 + + + 4 + + +    1 + + + 2 + + + 3 + + + 4 + + + 

Gb|----------------------------------|---------------------------------|
Db|----------------------------------|---------------------------------|
Ab|----------------------------------|---------------------------------|
Eb|----------------------------------|---------------------------------|
    1 + + + 2 + + + 3 + + + 4 + + +    1 + + + 2 + + + 3 + + + 4 + + + 

Gb|----------------------------------|---------------------------------|
Db|----------------------------------|---------------------------------|
Ab|-5---5---5---5--------------------|-1---1---1---1---1---1---1---1---|
Eb|-----------------3---3---3---3----|---------------------------------|
    1 + + + 2 + + + 3 + + + 4 + + +    1 + + + 2 + + + 3 + + + 4 + + + 

Gb|----------------------------------|---------------------------------|
Db|----------------------------------|---------------------------------|
Ab|-5---5---5---5--------------------|-1---1---1---1---1---1---1---1---|
Eb|-----------------3---3---3---3----|---------------------------------|
    1 + + + 2 + + + 3 + + + 4 + + +    1 + + + 2 + + + 3 + + + 4 + + + 

Gb|----------------------------------|---------------------------------|
Db|----------------------------------|---------------------------------|
Ab|-5---5---5---5--------------------|-1---1---1---1---1---1---1---1---|
Eb|-----------------3---3---3---3----|---------------------------------|
    1 + + + 2 + + + 3 + + + 4 + + +    1 + + + 2 + + + 3 + + + 4 + + + 

Gb|----------------------------------|---------------------------------|
Db|----------------------------------|---------------------------------|
Ab|-3---3---3---3---3---3---3---3----|-3---3---3---3---3---3---3---3---|
Eb|----------------------------------|---------------------------------|
    1 + + + 2 + + + 3 + + + 4 + + +    1 + + + 2 + + + 3 + + + 4 + + + 

VERSE

Gb|----------------------------------|---------------------------------|
Db|----------------------------------|---------------------------------|
Ab|-5---5---5-5-5-5---5-5---5-5-5-5--|---------------------------------|
Eb|----------------------------------|-1---1---1-1-1-1---1-1---1-1-1-1-|
    1 + + + 2 + + + 3 + + + 4 + + +    1 + + + 2 + + + 3 + + + 4 + + + 

Gb|----------------------------------|---------------------------------|
Db|----------------------------------|---------------------------------|
Ab|-1---1---1-1-1-----------------1--|---1-1---1-1-1-3---3-3---3-3-3-3-|
Eb|---------------3---3-3---3-3-3----|---------------------------------|
    1 + + + 2 + + + 3 + + + 4 + + +    1 + + + 2 + + + 3 + + + 4 + + + 

Gb|----------------------------------|---------------------------------|
Db|----------------------------------|---------------------------------|
Ab|-5---5---5-5-5-5---5-5---5-5-5-5--|---------------------------------|
Eb|----------------------------------|-1---1---1-1-1-1---1-1---1-1-1-1-|
    1 + + + 2 + + + 3 + + + 4 + + +    1 + + + 2 + + + 3 + + + 4 + + + 

Gb|----------------------------------|---------------------------------|
Db|----------------------------------|---------------------------------|
Ab|-1---1---1-1-1-----------------1--|---1-1---1-1-1-3---3-3---3-3-3-3-|
Eb|---------------3---3-3---3-3-3----|---------------------------------|
    1 + + + 2 + + + 3 + + + 4 + + +    1 + + + 2 + + + 3 + + + 4 + + + 

Gb|----------------------------------|---------------------------------|
Db|----------------------------------|---------------------------------|
Ab|-5---5---5-5-5-5---5-5---5-5-5-5--|---------------------------------|
Eb|----------------------------------|-1---1---1-1-1-1---1-1-1-1-1-1-1-|
    1 + + + 2 + + + 3 + + + 4 + + +    1 + + + 2 + + + 3 + + + 4 + + + 

Gb|----------------------------------|---------------------------------|
Db|----------------------------------|---------------------------------|
Ab|-1---1---1-1-1-----------------1--|---1-1---1-1-1-3---3-3---3-3-3-3-|
Eb|---------------3---3-3---3-3-3----|---------------------------------|
    1 + + + 2 + + + 3 + + + 4 + + +    1 + + + 2 + + + 3 + + + 4 + + + 

Gb|----------------------------------|---------------------------------|
Db|----------------------------------|---------------------------------|
Ab|-5---5---5-5-5-5---5-5---5-5-5-5--|---------------------------------|
Eb|----------------------------------|-1---1---1-1-1-1---1-1---1-1-1-1-|
    1 + + + 2 + + + 3 + + + 4 + + +    1 + + + 2 + + + 3 + + + 4 + + + 

Gb|----------------------------------|---------------------------------|
Db|----------------------------------|---------------------------------|
Ab|-1---1---1-1-1-----------------1--|---1-1---1-1-1-3---3-3---3-3-3-3-|
Eb|---------------3---3-3---3-3-3----|---------------------------------|
    1 + + + 2 + + + 3 + + + 4 + + +    1 + + + 2 + + + 3 + + + 4 + + + 

PRE-CHORUS

Gb|----------------------------------|---------------------------------|
Db|----------------------------------|---------------------------------|
Ab|-1---1-1-1-1-1---1---1-1-1-1-1----|---------------------------------|
Eb|----------------------------------|-3---3-3-3-3-3---3---3-3-3-3-3---|
    1 + + + 2 + + + 3 + + + 4 + + +    1 + + + 2 + + + 3 + + + 4 + + + 

Gb|----------------------------------|---------------------------------|
Db|----------------------------------|---------------------------------|
Ab|-1---1-1-1-1-1---1---1-1-1-1-1----|-3---3-3-3-3-3---3---3-3-3-3-----|
Eb|----------------------------------|---------------------------------|
    1 + + + 2 + + + 3 + + + 4 + + +    1 + + + 2 + + + 3 + + + 4 + + + 

Gb|----------------------------------|---------------------------------|
Db|----------------------------------|---------------------------------|
Ab|-1---1-1-1-1-1---1---1-1-1-1-1----|---------------------------------|
Eb|----------------------------------|-3---3-3-3-3-3---3---3-3-3-3-3---|
    1 + + + 2 + + + 3 + + + 4 + + +    1 + + + 2 + + + 3 + + + 4 + + + 

Gb|----------------------------------|---------------------------------|
Db|----------------------------------|---------------------------------|
Ab|-1---1-1-1-1-1---1---1-1-1-1-1----|-3---3---3---3///15—15--8---7----|
Eb|----------------------------------|---------------------------------|
    1 + + + 2 + + + 3 + + + 4 + + +    1 + + + 2 + + + 3 + + + 4 + + + 


CHORUS

Gb|----------------------------------|---------------------------------|
Db|----------------------------------|---------------------------------|
Ab|-5---5---5---5--------------------|-1---1---1---1---1---1---1---1---|
Eb|-----------------3---3---3---3----|---------------------------------|
    1 + + + 2 + + + 3 + + + 4 + + +    1 + + + 2 + + + 3 + + + 4 + + + 

Gb|----------------------------------|---------------------------------|
Db|----------------------------------|---------------------------------|
Ab|-5---5---5---5--------------------|-1---0-----------1---0---1---3---|
Eb|-----------------3---3---3---3----|---------3---1-------------------|
    1 + + + 2 + + + 3 + + + 4 + + +    1 + + + 2 + + + 3 + + + 4 + + + 

Gb|----------------------------------|---------------------------------|
Db|----------------------------------|---------------------------------|
Ab|-5---5---5---5--------------------|-1---1---1---1---1---1---1---1---|
Eb|-----------------3---3---3---3----|---------------------------------|
    1 + + + 2 + + + 3 + + + 4 + + +    1 + + + 2 + + + 3 + + + 4 + + + 

Gb|----------------------------------|---------------------------------|
Db|----------------------------------|---------------------------------|
Ab|-5---5---5---5--------------------|-1---1---1---1---1---1---1---1---|
Eb|-----------------3---3---3---3----|---------------------------------|
    1 + + + 2 + + + 3 + + + 4 + + +    1 + + + 2 + + + 3 + + + 4 + + + 

Gb|----------------------------------|---------------------------------|
Db|----------------------------------|---------------------------------|
Ab|-3---3---3---3---3---3---3---3----|-3---3---3---3---3---3---3---3---|
Eb|----------------------------------|---------------------------------|
    1 + + + 2 + + + 3 + + + 4 + + +    1 + + + 2 + + + 3 + + + 4 + + + 

VERSE

Gb|----------------------------------|---------------------------------|
Db|----------------------------------|---------------------------------|
Ab|-5---5---5-5-5-5---5-5---5-5-5-5--|---------------------------------|
Eb|----------------------------------|-1---1---1-1-1-1---1-1---1-1-1-1-|
    1 + + + 2 + + + 3 + + + 4 + + +    1 + + + 2 + + + 3 + + + 4 + + + 

Gb|----------------------------------|---------------------------------|
Db|----------------------------------|---------------------------------|
Ab|-1---1---1-1-1-----------------1--|---1-1---1-1-1-3---3-3---3-3-3-3-|
Eb|---------------3---3-3---3-3-3----|---------------------------------|
    1 + + + 2 + + + 3 + + + 4 + + +    1 + + + 2 + + + 3 + + + 4 + + + 

Gb|----------------------------------|---------------------------------|
Db|----------------------------------|---------------------------------|
Ab|-5---5---5-5-5-5---5-5---5-5-5-5--|---------------------------------|
Eb|----------------------------------|-1---1---1-1-1-1---1-1---1-1-1-1-|
    1 + + + 2 + + + 3 + + + 4 + + +    1 + + + 2 + + + 3 + + + 4 + + + 

Gb|----------------------------------|---------------------------------|
Db|----------------------------------|---------------------------------|
Ab|-1---1---1-1-1-----------------1--|---1-1---1-1-1-3---3-3---3-3-3-3-|
Eb|---------------3---3-3---3-3-3----|---------------------------------|
    1 + + + 2 + + + 3 + + + 4 + + +    1 + + + 2 + + + 3 + + + 4 + + + 

Gb|----------------------------------|---------------------------------|
Db|----------------------------------|---------------------------------|
Ab|-5---5---5-5-5-5---5-5---5-5-5-5--|---------------------------------|
Eb|----------------------------------|-1---1---1-1-1-1---1-1-1-1-1-1-1-|
    1 + + + 2 + + + 3 + + + 4 + + +    1 + + + 2 + + + 3 + + + 4 + + + 

Gb|----------------------------------|---------------------------------|
Db|----------------------------------|---------------------------------|
Ab|-1---1---1-1-1-----------------1--|---1-1---1-1-1-3---3-3---3-3-3-3-|
Eb|---------------3---3-3---3-3-3----|---------------------------------|
    1 + + + 2 + + + 3 + + + 4 + + +    1 + + + 2 + + + 3 + + + 4 + + + 

Gb|----------------------------------|---------------------------------|
Db|----------------------------------|---------------------------------|
Ab|-5---5---5-5-5-5---5-5---5-5-5-5--|---------------------------------|
Eb|----------------------------------|-1---1---1-1-1-1---1-1---1-1-1-1-|
    1 + + + 2 + + + 3 + + + 4 + + +    1 + + + 2 + + + 3 + + + 4 + + + 

Gb|----------------------------------|---------------------------------|
Db|----------------------------------|---------------------------------|
Ab|-1---1---1-1-1-----------------1--|---1-1---1-1-1-3---3-3---3-3-3-3-|
Eb|---------------3---3-3---3-3-3----|---------------------------------|
    1 + + + 2 + + + 3 + + + 4 + + +    1 + + + 2 + + + 3 + + + 4 + + + 

PRE-CHORUS

Gb|----------------------------------|---------------------------------|
Db|----------------------------------|---------------------------------|
Ab|-1---1-1-1-1-1---1---1-1-1-1-1----|---------------------------------|
Eb|----------------------------------|-3---3-3-3-3-3---3---3-3-3-3-3---|
    1 + + + 2 + + + 3 + + + 4 + + +    1 + + + 2 + + + 3 + + + 4 + + + 

Gb|----------------------------------|---------------------------------|
Db|----------------------------------|---------------------------------|
Ab|-1---1-1-1-1-1---1---1-1-1-1-1----|-3---3-3-3-3-3---3---3-3-3-3-----|
Eb|----------------------------------|---------------------------------|
    1 + + + 2 + + + 3 + + + 4 + + +    1 + + + 2 + + + 3 + + + 4 + + + 

Gb|----------------------------------|---------------------------------|
Db|----------------------------------|---------------------------------|
Ab|-1---1-1-1-1-1---1---1-1-1-1-1----|---------------------------------|
Eb|----------------------------------|-3---3-3-3-3-3---3---3-3-3-3-3---|
    1 + + + 2 + + + 3 + + + 4 + + +    1 + + + 2 + + + 3 + + + 4 + + + 

Gb|----------------------------------|---------------------------------|
Db|----------------------------------|---------------------------------|
Ab|-1---1-1-1-1-1---1---1-1-1-1-1----|-3---3---3---3///15—15--8---7----|
Eb|----------------------------------|---------------------------------|
    1 + + + 2 + + + 3 + + + 4 + + +    1 + + + 2 + + + 3 + + + 4 + + + 


CHORUS

Gb|----------------------------------|---------------------------------|
Db|----------------------------------|---------------------------------|
Ab|-5---5---5---5--------------------|-1---1---1---1---1---1---1---1---|
Eb|-----------------3---3---3---3----|---------------------------------|
    1 + + + 2 + + + 3 + + + 4 + + +    1 + + + 2 + + + 3 + + + 4 + + + 

Gb|----------------------------------|---------------------------------|
Db|----------------------------------|---------------------------------|
Ab|-5---5---5---5--------------------|-1---0-----------1---0---1---3---|
Eb|-----------------3---3---3---3----|---------3---1-------------------|
    1 + + + 2 + + + 3 + + + 4 + + +    1 + + + 2 + + + 3 + + + 4 + + + 

Gb|----------------------------------|---------------------------------|
Db|----------------------------------|---------------------------------|
Ab|-5---5---5---5--------------------|-1---1---1---1---1---1---1---1---|
Eb|-----------------3---3---3---3----|---------------------------------|
    1 + + + 2 + + + 3 + + + 4 + + +    1 + + + 2 + + + 3 + + + 4 + + + 

Gb|----------------------------------|---------------------------------|
Db|----------------------------------|---------------------------------|
Ab|-5---5---5---5--------------------|-1---1---1---1---1---1---1---1---|
Eb|-----------------3---3---3---3----|---------------------------------|
    1 + + + 2 + + + 3 + + + 4 + + +    1 + + + 2 + + + 3 + + + 4 + + + 

BRIDGE

Gb|----------------------------------|---------------------------------|
Db|----------------------------------|-5---3---2---3-------5---3---2---|
Ab|-3---3---3---3---3---3---3---3----|---------------------------------|
Eb|----------------------------------|---------------------------------|
    1 + + + 2 + + + 3 + + + 4 + + +    1 + + + 2 + + + 3 + + + 4 + + + 

Gb|----------------------------------|---------------------------------|
Db|-3--------------------------------|-----0-------2-------3---2---0---|
Ab|-----------------1---1---1---1----|-1-------1-------1---------------|
Eb|----------------------------------|---------------------------------|
    1 + + + 2 + + + 3 + + + 4 + + +    1 + + + 2 + + + 3 + + + 4 + + + 

Gb|----------------------------------|---------------------------------|
Db|----------------------------------|-5---3---2---3-------5---3---2---|
Ab|-3---3---3---3---3---3---3---3----|---------------------------------|
Eb|----------------------------------|---------------------------------|
    1 + + + 2 + + + 3 + + + 4 + + +    1 + + + 2 + + + 3 + + + 4 + + + 

Gb|----------------------------------|---------------------------------|
Db|-3--------------------------------|-----0-------2-------3---2---0---|
Ab|-----------------1---1---1---1----|-1-------1-------1---------------|
Eb|----------------------------------|---------------------------------|
    1 + + + 2 + + + 3 + + + 4 + + +    1 + + + 2 + + + 3 + + + 4 + + + 

Gb|----------------------------------|---------------------------------|
Db|----------------------------------|-5---3---2---3-------5---3---2---|
Ab|-3---3---3---3---3---3---3---3----|---------------------------------|
Eb|----------------------------------|---------------------------------|
    1 + + + 2 + + + 3 + + + 4 + + +    1 + + + 2 + + + 3 + + + 4 + + + 

Gb|----------------------------------|---------------------------------|
Db|-8---8---8---8---8---8---8---8----|-10--8---7---8-------8-----------|
Ab|----------------------------------|-------------------------10--8---|
Eb|----------------------------------|---------------------------------|
    1 + + + 2 + + + 3 + + + 4 + + +    1 + + + 2 + + + 3 + + + 4 + + + 

Gb|----------------------------------|---------------------------------|
Db|----------------------------------|-5---3---2---3-------5---3---2---|
Ab|-3---3---3---3---3---3---3---3----|---------------------------------|
Eb|----------------------------------|---------------------------------|
    1 + + + 2 + + + 3 + + + 4 + + +    1 + + + 2 + + + 3 + + + 4 + + + 

Gb|----------------------------------|---------------------------------|
Db|-3--------------------------------|-0-------------------------------|
Ab|-----------------1---1---1---1----|-----1---------------------------|
Eb|----------------------------------|---------------------------------|
    1 + + + 2 + + + 3 + + + 4 + + +    1 + + + 2 + + + 3 + + + 4 + + + 

INTERLUDE

Gb|----------------------------------|---------------------------------|
Db|----------------------------------|---------------------------------|
Ab|----------------------------------|---------------------------------|
Eb|----------------------------------|---------------------------------|
    1 + + + 2 + + + 3 + + + 4 + + +    1 + + + 2 + + + 3 + + + 4 + + + 

Gb|----------------------------------|---------------------------------|
Db|----------------------------------|---------------------------------|
Ab|----------------------------------|---------------------------------|
Eb|----------------------------------|---------------------------------|
    1 + + + 2 + + + 3 + + + 4 + + +    1 + + + 2 + + + 3 + + + 4 + + + 

Gb|----------------------------------|---------------------------------|
Db|----------------------------------|---------------------------------|
Ab|----------------------------------|---------------------------------|
Eb|----------------------------------|---------------------------------|
    1 + + + 2 + + + 3 + + + 4 + + +    1 + + + 2 + + + 3 + + + 4 + + + 

Gb|----------------------------------|---------------------------------|
Db|----------------------------------|---------------------------------|
Ab|----------------------------------|---------------------------------|
Eb|----------------------------------|---------------------------------|
    1 + + + 2 + + + 3 + + + 4 + + +    1 + + + 2 + + + 3 + + + 4 + + + 

CHORUS

Gb|----------------------------------|---------------------------------|
Db|----------------------------------|---------------------------------|
Ab|-5---5---5---5--------------------|-1---1---1---1---1---1---1---1---|
Eb|-----------------3---3---3---3----|---------------------------------|
    1 + + + 2 + + + 3 + + + 4 + + +    1 + + + 2 + + + 3 + + + 4 + + + 

Gb|----------------------------------|---------------------------------|
Db|----------------------------------|---------------------------------|
Ab|-5---5---5---5--------------------|-1---0-----------1---0---1---3---|
Eb|-----------------3---3---3---3----|---------3---1-------------------|
    1 + + + 2 + + + 3 + + + 4 + + +    1 + + + 2 + + + 3 + + + 4 + + + 

Gb|----------------------------------|---------------------------------|
Db|----------------------------------|---------------------------------|
Ab|-5---5---5---5--------------------|-1---1---1---1---1---1---1---1---|
Eb|-----------------3---3---3---3----|---------------------------------|
    1 + + + 2 + + + 3 + + + 4 + + +    1 + + + 2 + + + 3 + + + 4 + + + 

Gb|----------------------------------|---------------------------------|
Db|----------------------------------|-----------------3---2-----------|
Ab|-5---5---5---5--------------------|-1---1---1---1-----------3---1---|
Eb|-----------------3---3---3---3----|---------------------------------|
    1 + + + 2 + + + 3 + + + 4 + + +    1 + + + 2 + + + 3 + + + 4 + + + 

Gb|----------------------------------|---------------------------------|
Db|----------------------------------|---------------------------------|
Ab|-5---5---5---5--------------------|-1---1---1---1---1---1---1---1---|
Eb|-----------------3---3---3---3----|---------------------------------|
    1 + + + 2 + + + 3 + + + 4 + + +    1 + + + 2 + + + 3 + + + 4 + + + 

Gb|----------------------------------|---------------------------------|
Db|----------------------------------|---------------------------------|
Ab|-5---5---5---5--------------------|-1---0-----------1---0---1---3---|
Eb|-----------------3---3---3---3----|---------3---1-------------------|
    1 + + + 2 + + + 3 + + + 4 + + +    1 + + + 2 + + + 3 + + + 4 + + + 

Gb|----------------------------------|---------------------------------|
Db|----------------------------------|---------------------------------|
Ab|-5---5---5---5--------------------|-1---1---1---1---1---1---1---1---|
Eb|-----------------3---3---3---3----|---------------------------------|
    1 + + + 2 + + + 3 + + + 4 + + +    1 + + + 2 + + + 3 + + + 4 + + + 

Gb|----------------------------------|---------------------------------|
Db|----------------------------------|-8-------------------------------|
Ab|-5---5---5---5--------------------|---------8-------7-------8-------|
Eb|-----------------3---3---3---3----|---------------------------------|
    1 + + + 2 + + + 3 + + + 4 + + +    1 + + + 2 + + + 3 + + + 4 + + + 


Gb|----------------------------------||
Db|----------------------------------||
Ab|-5--------------------------------||
Eb|----------------------------------||
    1 + + + 2 + + + 3 + + + 4 + + +    

comments
print report bad tab
1 comment total.
0 reply
GrunnyRiku wrote on December 25 2011, 05:15 pm

C'est parfait!!! (It's perfect!!!) I honestly don't see anyway there can be another version after this...

I want to post or [tab]
guest
You may want to rate the tab now too:
select rating
Please do not post tabs as comments. Select "correction" instead!