Oops, an error
Loading. Please wait.

Roadside Tab

ver2
ver2

Whole song

Interactive

More versions @911Tabs.com
24,643 views 20 this week
4 commentsread comments
1 2 3 4 5
excellent!
x 8
add to favorites launch autoscroll
font size
0
reset
Autoscroll
+/-
esc
set tempo
stop
Contributor
Difficulty
Tuning
intermediate
D A D G B E
WARNING: You are trying to view
                                    content from Ultimate-Guitar.com
                                    in an unauthorized application,
                                    which is prohibited.

                                    Please use an official Ultimate
                                    Guitar Tabs application for iPhone,
                                    iPad or Android to access legitimate
                                    chords, guitar, bass, and drum tabs
                                    from Ultimate-Guitar.com database.

                                    Type "ultimate guitar tabs" in Apple
                                    App Store's or Android Market's
                                    search to find the application.
-----------------------------------------------------------------------------
                             ROADSIDE- Rise Against
-----------------------------------------------------------------------------
Tabbed by:dharmamonster72
Email:dharmamonster72@yahoo.com

Tuning: Db Ab Db Gb Bb eb


INTRO
e|--------------------------------------------------------------------------|
B|----5----3------5----3-------3----1---------------------------------------|
G|------------------------------------------------0------2------------------|
D|--0---0----------------------------------3--------------------------------|
A|--X-----------3----3-------1----1----1-------1-----1-h-3------------------|
D|--0-----------------------------------------------------------------------|
     (Let lower D ring)                                     x2 repeat


  Verse
e|--5----3----0----1--------5---------5-------------------------8-----------|
B|--6----5----3----3-----------6-------------6/--8------8----------8--------|
G|--7----5----3----3------7--------7------7----------5-----5----------------|
D|--0----0----0----0--------------------------------------------------------|
A|--------------------------------------------------------------------------|
D|--------------------------------------------------------------------------|

e|-----------------------------0-------1---------1--------------------------|
B|-----------3------------3--------------3---------3------------------------|
G|-----2-------2----------3-------3---------3-------------------------------|
D|-2------2------2--------3-------------------------------------------------|
A|--------------------------------------------------------------------------|
D|--------------------------------------------------------------------------|
                                                            x2 repeat

PRE-CHORUS
e|-1-p-0----------------------------0----1----0----0--||----------------------|
B|------------1-----1------1--------------------------||-----8----10----------|
G|----------------------------------------------------||o---7---7-----7-------|
D|----------------------------------------------------||o--0-------------0----|
A|----------1-----1-----1-------3-----3----3----3-----||----------------------|
D|----------------------------------------------------||----------------------|
                      repeat x4

e|----------------------8--------------||-----------------------10-10-10-10---|
B|---10-p-8---------8------8-------8---||-------------------------------------|
G|-----------7-----------------7------o||-7-7-7-7-7-7-7-7-7-7-7-7--7--7--7----|
D|--------------0---------------------o||-0-0-0-0-0-0-0-0-0-0-0-0--0--0--0----|
A|-------------------------------------||-------------------------------------|
D--------------------------------------||-------------------------------------|
                  x3 only                    (volume swell @ 8va)
                                                 4th time

CHORUS
e|-------------------------------------------5--------------------------------|
B|-10------10-8--6--5----------5-5-5-6---------8-6-8----------8--8~-----------|
G|-7-------7--7--5--5----------5-5-5-5-------------7----------7--7~-----------|
D|-0-0-0-0-0--0--0--0--0-0-0-0-0-0-0-0-0-0-0-------0--0-0-0-0-----------------|
A|----------------------------------------------------------------------------|
D-----------------------------------------------------------------------------|
   > pm--- >  >  >  > pm------ > > > > pm---       > pm-----------------------| >  >

Bridge

e|--------------------------------------------------------------------------|
B|----5----3------5----3-------3----1---------------------------------------|
G|------------------------------------------------0------2------------------|
D|--0---0----------------------------------3--------------------------------|
A|--X-----------3----3-------1----1----1-------1-----1-h-3--3-3-3-3---------|
D|--0-----------------------------------------------------------------------|
     (Let lower D ring)  (w/ cello accomp.)                   x2 repeat

Note: the last verse is straight chords played once each: Bbm(+ dim5) C Dsus2
                  Bbm(add dim5)   C        Dsus2
                      -------------------------
                      0           0         0
                      x           5         x
                      3           5         7
                      3           5         7
                      1           3         5
                      x           x         x

There is more guitar lines, but this is the basic song. Rise against typically plays
either an Eb or Dropped Db tuning. The prechorus is actually not played as strict as is
here, but if you use this as a basic platform to finger pick through it will sound 
Hope this works for you and inspires some new songs and helps some of us out of old ruts!!


| /  slide up
| \  slide down
| h  hammer-on
| p  pull-off
| ~  vibrato
| +  harmonic
| x  Mute note
============================================================================
comments
print report bad tab
4 comments total. Showing first comments.
0 reply
ssjEasterBunny wrote on August 12 2008, 05:01 pm

Very detailed tab, and the notes are spaced well enough to be read clearly.

Unfortunately, the main chords in the verse sound off, as well as in the chorus. Of course those ARE the slow parts, so anyone interested in this song for its more signature riffs should find this tab very helpful.

3/5 for lack of accuracy in some key parts, but otherwise good.

0 reply
hawkeye1016 wrote on November 17 2009, 08:54 am

better than the other tabs that are out there

0 reply
dharmamonster72 wrote on May 8 2011, 04:42 pm

If you pan the sound to the right speaker it will isolate the guitar lines enough in the 1st verse to make out the high end, and that is what I captured here. If anyone has had good eyes-on an live performance and can tell what is really going on here actual factual, please help the rest of us out. I can tell you that Tim McIlrath does not seem to play anything lower than the fifth fret, but I can't make out the rest. The chorus, however, sounds right to me and matches live footage pretty close.

I want to post or [tab]
guest
You may want to rate the tab now too:
select rating
Please do not post tabs as comments. Select "correction" instead!