Oops, an error
Loading. Please wait.

Savior Tab

ver3
ver3

Intro

Whole song

Interactive

More versions @911Tabs.com
32,014 views 9 this week
3 commentsread comments
1 2 3 4 5
accurate
x 4
Autoscroll
+/-
esc
set tempo
stop
Difficulty
Tuning
intermediate
D# G# C# F# A# D#
Hey! There's an official Ultimate Guitar app which is ideal
for learning songs when you're away from computer. Get the app
WARNING: You are trying to view
                                    content from Ultimate-Guitar.com
                                    in an unauthorized application,
                                    which is prohibited.

                                    Please use an official Ultimate
                                    Guitar Tabs application for iPhone,
                                    iPad or Android to access legitimate
                                    chords, guitar, bass, and drum tabs
                                    from Ultimate-Guitar.com database.

                                    Type "ultimate guitar tabs" in Apple
                                    App Store's or Android Market's
                                    search to find the application.
rythm part: (repeated 2x)

|---------------|----------------|---------------|----------------|
|---------------|----------------|---------------|----------------|
|---------------|----------------|---------------|----------------|
|-4--4--4-4-4-4-|--4-4---4-4-4-4-|-7--7--7-7-7-7-|--7-7---7-7-7-7-|
|-4--4--4-4-4-4-|--4-4---4-4-4-4-|-7--7--7-7-7-7-|--7-7---7-7-7-7-|
|-2--2--2-2-2-2-|--2-2---2-2-2-2-|-5--5--5-5-5-5-|--5-5---5-5-5-5-|


|---------------|----------------|---------------|----------------|
|---------------|----------------|---------------|----------------|
|-7--7--7-7-7-7-|--7-7---7-7-7-7-|---------------|----------------|
|-7--7--7-7-7-7-|--7-7---7-7-7-7-|-7--7--7-7-7-6-|--6-6-6-6-6-6-6-|
|-5--5--5-5-5-5-|--5-5---5-5-5-5-|-7--7--7-7-7-7-|--7-7-7-7-7-7-7-|
|---------------|----------------|-5--5--5-5-5-4-|--4-4-4-4-4-4-4-|


VERSE 1 |
________|

rythm part:

   let ring...............................8 measures
|-----------|---------|---------|-----|
|-----------|---------|---------|-----|
|-----------|---------|---------|-----|
|--4--------|---------|---------|-----|
|--4--------|---------|---------|-----|
|--2--------|---------|---------|-----|


|----------------|-----------------|----------------|-----------------|
|----------------|-----------------|----------------|-----------------|
|----------------|-----------------|----------------|-----------------|
|-4--------------|-----------------|-7--------------|-----------------|
|-4--4-4-4-4-4-4-|-4-4-4-4-4-4-4-x-|-7--7-7-7-7-7-7-|-7-7-7-7-7-7-7-x-|
|-2--2-2-2-2-2-2-|-2-2-2-2-2-2-2-x-|-5--5-5-5-5-5-5-|-5-5-5-5-5-5-5-x-|
      . . . . . .   . . . . . . . .      . . . . . .   . . . . . . . .


|----------------|-----------------|----------------|-----------------|
|----------------|-----------------|----------------|-----------------|
|-7--------------|-----------------|----------------|-----------------|
|-7--7-7-7-7-7-7-|-7-7-7-7-7-7-7-x-|-7--------------|-6---------------|
|-5--5-5-5-5-5-5-|-5-5-5-5-5-5-5-x-|-7--7-7-7-7-7-x-|-7--7-7-7-7-7-x--|
|----------------|-----------------|-5--5-5-5-5-5-x-|-4--4-4-4-4-4-x--|
     . . . . . .   . . . . . . . .      . . . . . .      . . . . . .

rythm part:

|---------------|----------------|---------------|---------------|
|---------------|----------------|---------------|---------------|
|----7--7-7-7-7-|--7-7---7-7-7-7-|-9--9--9-9-9-9-|--9-9--9-9-9-9-|
|----7--7-7-7-7-|--7-7---7-7-7-7-|-9--9--9-9-9-9-|--9-9--9-9-9-9-|
|----5--5-5-5-5-|--5-5---5-5-5-5-|-7--7--7-7-7-7-|--7-7--7-7-7-7-|
|---------------|----------------|---------------|---------------|


|---------------|----------------|---------------|---------------|
|---------------|----------------|---------------|---------------|
|----7--7-7-7-7-|--7-7---7-7-7-7-|-9-------------|---------------|
|----7--7-7-7-7-|--7-7---7-7-7-7-|-9-------------|-2-------------|
|----5--5-5-5-5-|--5-5---5-5-5-5-|-7-------------|-2-------------|
|---------------|----------------|---------------|-0-------------|




___________________________________________________________________________
       |
CHORUS |
_______|


|---------------|----------------|---------------|----------------|
|---------------|----------------|---------------|----------------|
|---------------|----------------|---------------|----------------|
|-4--4--4-4-4-4-|--4-4---4-4-4-4-|-7--7--7-7-7-7-|--7-7---7-7-7-7-|
|-4--4--4-4-4-4-|--4-4---4-4-4-4-|-7--7--7-7-7-7-|--7-7---7-7-7-7-|
|-2--2--2-2-2-2-|--2-2---2-2-2-2-|-5--5--5-5-5-5-|--5-5---5-5-5-5-|


|---------------|----------------|---------------|----------------|
|---------------|----------------|---------------|----------------|
|-7--7--7-7-7-7-|--7-7---7-7-7-7-|---------------|----------------|
|-7--7--7-7-7-7-|--7-7---7-7-7-7-|-7--7--7-7-7-6-|--6-6-6-6-6-6-6-|
|-5--5--5-5-5-5-|--5-5---5-5-5-5-|-7--7--7-7-7-7-|--7-7-7-7-7-7-7-|
|---------------|----------------|-5--5--5-5-5-4-|--4-4-4-4-4-4-4-|


|---------------|----------------|---------------|----------------|
|---------------|----------------|---------------|----------------|
|---------------|----------------|---------------|----------------|
|-4--4--4-4-4-4-|--4-4---4-4-4-4-|-7--7--7-7-7-7-|--7-7---7-7-7-7-|
|-4--4--4-4-4-4-|--4-4---4-4-4-4-|-7--7--7-7-7-7-|--7-7---7-7-7-7-|
|-2--2--2-2-2-2-|--2-2---2-2-2-2-|-5--5--5-5-5-5-|--5-5---5-5-5-5-|


|---------------|----------------|---------------|----------------|
|---------------|----------------|---------------|----------------|
|-7--7--7-7-7-7-|--7-7---7-7-7-7-|---------------|----------------|
|-7--7--7-7-7-7-|--7-7---7-7-7-7-|-7-----------6-|----------------|
|-5--5--5-5-5-5-|--5-5---5-5-5-5-|-7-----------7-|----------------|
|---------------|----------------|-5-----------4-|----------------|

rythm part:

|---------------|----------------|---------------|----------------|
|---------------|----------------|---------------|----------------|
|---------------|----------------|---------------|----------------|
|-4--4--4-4-4-4-|--4-4---4-4-4-4-|-7--7--7-7-7-7-|--7-7---7-7-7-7-|
|-4--4--4-4-4-4-|--4-4---4-4-4-4-|-7--7--7-7-7-7-|--7-7---7-7-7-7-|
|-2--2--2-2-2-2-|--2-2---2-2-2-2-|-5--5--5-5-5-5-|--5-5---5-5-5-5-|


|---------------|----------------|---------------|----------------|
|---------------|----------------|---------------|----------------|
|-7--7--7-7-7-7-|--7-7---7-7-7-7-|---------------|----------------|
|-7--7--7-7-7-7-|--7-7---7-7-7-7-|-7--7--7-7-7-6-|--6-6-6-6-6-6-6-|
|-5--5--5-5-5-5-|--5-5---5-5-5-5-|-7--7--7-7-7-7-|--7-7-7-7-7-7-7-|
|---------------|----------------|-5--5--5-5-5-4-|--4-4-4-4-4-4-4-|



________________________________________________________________________________
        |
VERSE 2 |
________|


rythm part:

   let ring...............................8 measures
|-----------|---------|---------|-----|
|-----------|---------|---------|-----|
|-----------|---------|---------|-----|
|--4--------|---------|---------|-----|
|--4--------|---------|---------|-----|
|--2--------|---------|---------|-----|


|---------------|-------------|-------------|-------------|
|---------------|-------------|-------------|-------------|
|---------------|-------------|-------------|-----------7-|
|--4----------4-|-----------7-|-----------7-|-----------7-|
|--4--4--4--4-4-|---4--4--4-7-|---7--7--7-7-|---7--7--7-5-|
|--2--2--2--2-2-|---2--2--2-5-|---5--5--5-5-|---5--5--5---|
      .  .  .       .  .  .       .  .  .       .  .  .


|-------------|-------------|-------------|-------------|
|-------------|-------------|-------------|-------------|
|-----------7-|-------------|-------------|-------------|
|---7--7--7-7-|---7--7--7-7-|-------------|-------------|
|---5--5--5-5-|---5--5--5-7-|---7--7--7-7-|---7--7------|
|-------------|-----------5-|---5--5--5-4-|---4--4------|
    .  .  .       .  .  .       .  .  .       .  .

rythm part:

|---------------|----------------|---------------|---------------|
|---------------|----------------|---------------|---------------|
|----7--7-7-7-7-|--7-7---7-7-7-7-|-9--9--9-9-9-9-|--9-9--9-9-9-9-|
|----7--7-7-7-7-|--7-7---7-7-7-7-|-9--9--9-9-9-9-|--9-9--9-9-9-9-|
|----5--5-5-5-5-|--5-5---5-5-5-5-|-7--7--7-7-7-7-|--7-7--7-7-7-7-|
|---------------|----------------|---------------|---------------|


|---------------|----------------|---------------|---------------|
|---------------|----------------|---------------|---------------|
|----7--7-7-7-7-|--7-7---7-7-7-7-|-9-------------|---------------|
|----7--7-7-7-7-|--7-7---7-7-7-7-|-9-------------|-2-------------|
|----5--5-5-5-5-|--5-5---5-5-5-5-|-7-------------|-2-------------|
|---------------|----------------|---------------|-0-------------|




___________________________________________________________________________
       |
CHORUS |
_______|


|---------------|----------------|---------------|----------------|
|---------------|----------------|---------------|----------------|
|---------------|----------------|---------------|----------------|
|-4--4--4-4-4-4-|--4-4---4-4-4-4-|-7--7--7-7-7-7-|--7-7---7-7-7-7-|
|-4--4--4-4-4-4-|--4-4---4-4-4-4-|-7--7--7-7-7-7-|--7-7---7-7-7-7-|
|-2--2--2-2-2-2-|--2-2---2-2-2-2-|-5--5--5-5-5-5-|--5-5---5-5-5-5-|


|---------------|----------------|---------------|----------------|
|---------------|----------------|---------------|----------------|
|-7--7--7-7-7-7-|--7-7---7-7-7-7-|---------------|----------------|
|-7--7--7-7-7-7-|--7-7---7-7-7-7-|-7--7--7-7-7-6-|--6-6-6-6-6-6-6-|
|-5--5--5-5-5-5-|--5-5---5-5-5-5-|-7--7--7-7-7-7-|--7-7-7-7-7-7-7-|
|---------------|----------------|-5--5--5-5-5-4-|--4-4-4-4-4-4-4-|


|---------------|----------------|---------------|----------------|
|---------------|----------------|---------------|----------------|
|---------------|----------------|---------------|----------------|
|-4--4--4-4-4-4-|--4-4---4-4-4-4-|-7--7--7-7-7-7-|--7-7---7-7-7-7-|
|-4--4--4-4-4-4-|--4-4---4-4-4-4-|-7--7--7-7-7-7-|--7-7---7-7-7-7-|
|-2--2--2-2-2-2-|--2-2---2-2-2-2-|-5--5--5-5-5-5-|--5-5---5-5-5-5-|


|---------------|----------------|---------------|----------------|
|---------------|----------------|---------------|----------------|
|-7--7--7-7-7-7-|--7-7---7-7-7-7-|---------------|----------------|
|-7--7--7-7-7-7-|--7-7---7-7-7-7-|-7-----------6-|----------------|
|-5--5--5-5-5-5-|--5-5---5-5-5-5-|-7-----------7-|----------------|
|---------------|----------------|-5-----------4-|----------------|
                                                         ^ bridge 1 starts 

rythm part:

|-----|----------------|----------------|----------------|----------------|
|-----|----------------|----------------|----------------|----------------|
|-----|----------------|--------5-5-----|----------------|--------5-5-5---|
|---4-|----4---4---4---|-4---4--5-5---4-|----4---4---4---|-4---4--5-5-5-4-|
|---4-|----4---4---4---|-4---4--3-3---4-|----4---4---4---|-4---4--3-3-3-4-|
|---2-|----2---2---2---|-2---2--------2-|----2---2---2---|-2---2--------2-|


|-----|----------------|----------------|----------------|--------------|
|-----|----------------|----------------|----------------|--------------|
|-----|----------------|--------5-5-----|----------------|-5--5--5------|
|---4-|----4---4---4---|-4---4--5-5---4-|----4---4---4---|-5--5--5------|
|---4-|----4---4---4---|-4---4--3-3---4-|----4---4---4---|-3--3--3------|
|---2-|----2---2---2---|-2---2--------2-|----2---2---2---|--------------|
                                                                 let ring....

|----------------|----------------|----------------|----------------|
|----------------|----------------|----------------|----------------|
|----------------|----------------|----------------|--------------7-|
|--4-4---4-4-4-4-|--4-4---4-4-4-2-|--2-2---2-2-2-2-|--2-2---2-2-2-7-|
|--4-4---4-4-4-4-|--4-4---4-4-4-2-|--2-2---2-2-2-2-|--2-2---2-2-2-5-|
|--2-2---2-2-2-2-|--2-2---2-2-2-0-|--0-0---0-0-0-0-|--0-0---0-0-0---|


|----------------|----------------|----------------|----------------|
|----------------|----------------|----------------|----------------|
|--7-7---7-7-7-7-|--7-7---7-7-7-9-|--9-9---9-9-9-9-|--9-9---x-x-x---|
|--7-7---7-7-7-7-|--7-7---7-7-7-9-|--9-9---9-9-9-9-|--9-9---x-x-x-4-|
|--5-5---5-5-5-5-|--5-5---5-5-5-7-|--7-7---7-7-7-7-|--7-7---x-x-x-4-|
|----------------|----------------|----------------|--------------2-|


|----------------|----------------|----------------|----------------|
|----------------|----------------|----------------|----------------|
|----------------|----------------|----------------|--------------7-|
|--4-4---4-4-4-4-|--4-4---4-4-4-2-|--2-2---2-2-2-2-|--2-2---2-2-2-7-|
|--4-4---4-4-4-4-|--4-4---4-4-4-2-|--2-2---2-2-2-2-|--2-2---2-2-2-5-|
|--2-2---2-2-2-2-|--2-2---2-2-2-0-|--0-0---0-0-0-0-|--0-0---0-0-0---|


|----------------|----------------|----------------|----------------|
|----------------|----------------|----------------|----------------|
|--7-7---7-7-7-7-|--7-7---7-7-7-x-|-7--------------|-9--------------|
|--7-7---7-7-7-7-|--7-7---7-7-7-x-|-7-------9------|-9------11------|
|--5-5---5-5-5-5-|--5-5---5-5-5-x-|-5-------9------|-7------11------|
|----------------|----------------|---------7------|---------9------|




BRIDGE 3 |
_________|


rythm guitar:

  let ring.............then pause.
|------------------|
|------------------|
|-11---------------|
|-11---------------|
|--9---------------|
|------------------|

__________________________________________________________________________________
       |
CHORUS |
_______|


|---------------|----------------|---------------|----------------|
|---------------|----------------|---------------|----------------|
|---------------|----------------|---------------|----------------|
|-4--4--4-4-4-4-|--4-4---4-4-4-4-|-7--7--7-7-7-7-|--7-7---7-7-7-7-|
|-4--4--4-4-4-4-|--4-4---4-4-4-4-|-7--7--7-7-7-7-|--7-7---7-7-7-7-|
|-2--2--2-2-2-2-|--2-2---2-2-2-2-|-5--5--5-5-5-5-|--5-5---5-5-5-5-|


|---------------|----------------|---------------|----------------|
|---------------|----------------|---------------|----------------|
|-7--7--7-7-7-7-|--7-7---7-7-7-7-|---------------|----------------|
|-7--7--7-7-7-7-|--7-7---7-7-7-7-|-7--7--7-7-7-6-|--6-6-6-6-6-6-6-|
|-5--5--5-5-5-5-|--5-5---5-5-5-5-|-7--7--7-7-7-7-|--7-7-7-7-7-7-7-|
|---------------|----------------|-5--5--5-5-5-4-|--4-4-4-4-4-4-4-|


|---------------|----------------|---------------|----------------|
|---------------|----------------|---------------|----------------|
|---------------|----------------|---------------|----------------|
|-4--4--4-4-4-4-|--4-4---4-4-4-4-|-7--7--7-7-7-7-|--7-7---7-7-7-7-|
|-4--4--4-4-4-4-|--4-4---4-4-4-4-|-7--7--7-7-7-7-|--7-7---7-7-7-7-|
|-2--2--2-2-2-2-|--2-2---2-2-2-2-|-5--5--5-5-5-5-|--5-5---5-5-5-5-|


|---------------|----------------|---------------|----------------|
|---------------|----------------|---------------|----------------|
|-7--7--7-7-7-7-|--7-7---7-7-7-7-|---------------|----------------|
|-7--7--7-7-7-7-|--7-7---7-7-7-7-|-7--7--7-7-7-6-|--6-6-6-6-6-6-6-|
|-5--5--5-5-5-5-|--5-5---5-5-5-5-|-7--7--7-7-7-7-|--7-7-7-7-7-7-7-|
|---------------|----------------|-5--5--5-5-5-4-|--4-4-4-4-4-4-4-|

shenanigan
thx!!!!! i got most from him but i change a little in the third chours and only 
put the rythm part.
comments
print report bad tab
3 comments total.
0 reply
jonjonmini wrote on March 28 2010, 05:18 pm

This is great, i play in a band and im the rythm guitarist so this rally helps, Rock the world

0 reply
FloggingMolly87 wrote on April 17 2010, 10:35 am

what happened to the lead guitar part?

0 reply
philotheking wrote on August 11 2010, 02:10 pm

He only post the rythm guitar, cuz u cant play both ;) when ur looking for it u can use the other tab... v2 i think

I want to post or [tab]
guest
You may want to rate the tab now too:
select rating
Please do not post tabs as comments. Select "correction" instead!