Oops, an error
Loading. Please wait.

Siren Song Of The Counter Culture Tab

18,771 views 18 this week
9 commentsread comments
1 2 3 4 5
accurate
x 10
add to favorites launch autoscroll
font size
0
reset
Autoscroll
+/-
esc
set tempo
stop
Difficulty
intermediate
WARNING: You are trying to view
                                    content from Ultimate-Guitar.com
                                    in an unauthorized application,
                                    which is prohibited.

                                    Please use an official Ultimate
                                    Guitar Tabs application for iPhone,
                                    iPad or Android to access legitimate
                                    chords, guitar, bass, and drum tabs
                                    from Ultimate-Guitar.com database.

                                    Type "ultimate guitar tabs" in Apple
                                    App Store's or Android Market's
                                    search to find the application.
STATE OF THE UNION



Tuning:  D-A-D-G-B-E

Intro:
e|-------------------------------------------------------------------------|
B|-------------------------------------------------------------------------|
G|-------------------------------------------------------------------------|
D|-1111222233334444--------------------------------------------------------|
A|-1111222233334444--------------------------------------------------------|
E|-1111222233334444--------------------------------------------------------|

pre-verse:
e|-------------------------------------------------------------------------|
B|-------------------------------------------------------------------------|
G|---888------------888------------888-------------------------------------|
D|-1-888-4h66664--1-888-4h66666--1-888-4h66664--1-4-6-7-6-4-1~~1-----------|
A|-1-666-4h66664--1-666-4h66666--1-666-4h66664--1-4-6-7-6-4-1~~1-----------|
E|-1-----4h66664--1-----4h66666--1-----4h66664--1-4-6-7-6-4-1~~1-----------|
pm:                                             . . . . . . 

verse pt1:
e|-----------------------------------------------------------------|
B|-----------------------------------------------------------------|
G|-3-----3-------6666-4-3-----3-------44444-3----------------------|
D|-3-1---3-1---1-6666-4-3-1---3-1---1-44444-3-1--------------------|
A|-1-1---1-1---1-4444-2-1-1---1-1---1-22222-1-1--------------------|
E|---1-----1---1----------1-----1---1---------1--------------------|

verse pt2 (guitar 1):
e|-------------------------------------------------------------------------|
B|-------------------------------------------------------------------------|
G|-3-------6666-4-3-----3---4444444444446666-------------------------------|
D|-3-1---1-6666-4-3-1---3-1-4444444444446666-------------------------------|
A|-1-1---1-4444-2-1-1---1-1-2222222222224444-------------------------------|
E|---1---1----------1-----1------------------------------------------------|

verse pt2 (guitar 2):
e|-------------------------------------------------------------------------|
B|-------------------------------------------------------------------------|
G|-8-----------------------------------------------------------------------|
D|-x-----------------------------------------------------------------------|
A|-6-----------------------------------------------------------------------|
E|-------------------------------------------------------------------------|

chorus:
e|-------------------------------------------------------------------------|
B|-------------------------------------------------------------------------|
G|---888-----------888------------888--------------------------------------|
D|-1-888-4h66664-1-888-4h66666--1-888-4h66664--1-4-6-7-6-4-1---------------|
A|-1-666-4h66664-1-666-4h66666--1-666-4h66664--1-4-6-7-6-4-1---------------|
E|-1-----4h66664-1-----4h66666--1-----4h66664--1-4-6-7-6-4-1---------------|
pm:                                             . . . . . . 

pre-bridge:
e|-------------------------------------------------------------------------|
B|-------------------------------------------------------------------------|
G|-------------------------------------------------------------------------|
D|-1-4-6-7-6-4-1-4-6-7-6-4-------------------------------------------------|
A|-1-4-6-7-6-4-1-4-6-7-6-4-------------------------------------------------|
E|-1-4-6-7-6-4-1-4-6-7-6-4-------------------------------------------------|
pm:. . . . . . . . . . . .

bridge pt1: 
e|---------------------------------------------------------------|
B|---------------------------------------------------------------|
G|-----8---------------------------------------------------------|
D|-----8-70060040------------------------------------------------|
A|-----6-70060040-x3---------------------------------------------|
E|-4-1---70060040------------------------------------------------|
pm:       .. .. .    

bridge pt2:
e|---------------------------------------------------------------|
B|---------------------------------------------------------------|
G|---------------------------------------------------------------|
D|-1-4-6-7-6-4---------------------------------------------------|
A|-1-4-6-7-6-4---------------------------------------------------|
E|-1-4-6-7-6-4---------------------------------------------------|
pm:. . . . . . 

End On:
e|--------|
B|--------|
G|--------|
D|-1~-----|
A|-1~-----|
E|-1~-----|

ORDER:
Intro x4
pre-verse x2
verse pt1 x1
verese pt2 x1
chorus x2
verse pt1 x1
verse pt2 x1
chorus x2
pre-bridge x1
bridge pt1 x1
bridge pt2 x1
bridge pt1 x1
bridge pt2 x1
bridge pt1 x1
bridge pt2 x3
End On

| /  slide up
| \  slide down
| h  hammer-on
| p  pull-off
| ~  vibrato
| +  harmonic


THE FIRST DROP

Intro 4x

e |---------------------------------------------------------------------||
H |---------------------------------------------------------------------||
G |-2222-5555-----------------------------------------------------------||
D |-2222-5555-5555-3333-------------------------------------------------||
A |-0000-3333-5555-3333-------------------------------------------------||
E |-----------3333-1111-------------------------------------------------||

Leadpart
e |-----------------------------------------|----------|----------------||
H |-----------------------------------------|----------|----------------||
G |-9-9-9-9-9-14-14-14-14-14-10-10-10-10-10-|-10-12-10-|-17-------------||
D |-----------------------------------------|----------|----------------||
A |-7-7-7-7-7-12-12-12-12-12-8--8--8--8--8--|-8--10-8--|-15-------------||
E |-----------------------------------------|----------|----------------||          
Verse part 1 
e |-----------------------------|-----------|---------------------------||
H |-----------------------------|-----------|---------------------------||
G |-222222---222222555222222----|-101010555-|---------------------------||
D |-222222333222222555222222333-|-101010555-|-3333355555----------------||
A |-000000333000000333000000333-|-8-8-8-333-|-3333355555----------------||
E |-------555---------------555-|-----------|-1111133333----------------||
pm  xxxxxxxxxxxxxxxxxxxxxxxxxxx   xxxxxxxxx   xxxxxxxxxx

Verse part 2 2x
e |-----------------------------|-----------|---------------------------||
H |-----------------------------|-----------|---------------------------||
G |-222222---222222555222222----|-101010555-|---------------------------||
D |-222222333222222555222222333-|-101010555-|-3333355555----------------||
A |-000000333000000333000000333-|-8-8-8-333-|-3333355555----------------||
E |-------555---------------555-|-----------|-1111133333----------------||
                                               xxxx xxxx  
Chorus 4x
e |---------------------------------------------------------------------||
H |---------------------------------------------------------------------||
G |-2222-5555-----------------------------------------------------------||
D |-2222-5555-5555-3333-------------------------------------------------||
A |-0000-3333-5555-3333-------------------------------------------------||
E |-----------3333-1111-------------------------------------------------||

Verse part 1 2x
e |-----------------------------|-----------|---------------------------||
H |-----------------------------|-----------|---------------------------||
G |-222222---222222555222222----|-101010555-|---------------------------||
D |-222222333222222555222222333-|-101010555-|-3333355555----------------||
A |-000000333000000333000000333-|-8-8-8-333-|-3333355555----------------||
E |-------555---------------555-|-----------|-1111133333----------------||
pm  xxxxxxxxxxxxxxxxxxxxxxxxxxx   xxxxxxxxx   xxxxxxxxxx

Verse part 2 2x
e |-----------------------------|-----------|---------------------------||
H |-----------------------------|-----------|---------------------------||
G |-222222---222222555222222----|-101010555-|---------------------------||
D |-222222333222222555222222333-|-101010555-|-3333355555----------------||
A |-000000333000000333000000333-|-8-8-8-333-|-3333355555----------------||
E |-------555---------------555-|-----------|-1111133333----------------||
                                               xxxx xxxx  
Chorus 4x
e |---------------------------------------------------------------------||
H |---------------------------------------------------------------------||
G |-2222-5555-----------------------------------------------------------||
D |-2222-5555-5555-3333-------------------------------------------------||
A |-0000-3333-5555-3333-------------------------------------------------||
E |-----------3333-1111-------------------------------------------------||

Break 2x
(I´m not 100% sure) Help... :o)
e |---------------------------------------------------|-----------------||
H |---------------------------------------------------|-----------------||
G |-------------5555------------------------33335555--|-------------5555||
D |-777777773333555577777777333355557777777733335555--|-5555555533335555||
A |-777777773333333377777777333355557777777711113333--|-5555555533333333||
E |-555555551111----555555551111333355555555----------|-333333331111----||
PM  xxxxxxxxxxxxxxxxxxxxxxxxxxxxxxxxxxxxxxxxxxxxxxxx

Bridge 2. Guitar 1x
|--------------------------|--------------------------|-----------------||
|--------------------------|--------------------------|-----------------||
|--------------------------|--------------------------|-------------5555||
|--------------------------|--------------------------|-5555555533335555||
|-0-3-0-7-0-3-5-8-10-8-----|-0-3-0-7-0-3-5-3-3-2-2-2--|-5555555533333333||
|----------------------8-8-|--------------------------|-333333331111----||

Chorus 4x
e |---------------------------------------------------------------------||
H |---------------------------------------------------------------------||
G |-2222-5555-----------------------------------------------------------||
D |-2222-5555-5555-3333-------------------------------------------------||
A |-0000-3333-5555-3333-------------------------------------------------||
E |-----------3333-1111-------------------------------------------------||

Ends on
e |---||
H |---||
G |-2-||
D |-2-||
A |-0-||
E |---||


LIFE LESS FRIGHTENING

Tune half step down!


x   = pm

Intro
2. Guitar ?x (listen the Song)
e|------------------|
B|-6565656565656565-|
G|-5555555555555555-|
D|------------------|
A|------------------|
E|------------------|

1. Guitar
e|-----------------|
B|-----------------|
G|-99997910910-12--|
D|-----------------|
A|-7777578-7-8-10--|
E|-----------------|

2. Guitar
e|------------------|
B|------------------|
G|------------------|
D|-7777777733335555-|
A|-7777777733335555-|
E|-5555555511113333-|

1. Guitar
e|--------------------------------------------|
B|--------------------------------------------|
G|-9-10-12-5-77---9-10-12-5-73--7-10-12-5-77--|
D|--------------------------------------------|
A|-7-8--10-3-55---7-8--10-3-51--7-8--10-3-55--|
E|--------------------------------------------|

e|------------------|-----|
B|------------------|-----|
G|-99999791091012---|-----|
D|------------------|-7---|
A|-77777578-7-810---|-7---|
E|------------------|-5---|

Verse
Only Bass     

e|----------------------|
B|----------------------|
G|------------9-10-12---|
D|--Pickslide-----------|
A|------------7-8--10---|
E|----------------------|
                              

e|----------------------------------|
B|----------------------------------|
G|---------55544-----------55547777-|
D|-77757775-----55577757775---------|
A|----------------------------------|
E|----------------------------------|
  xxxxxxxxxxxxxxxxxxxxxxxxxxxxxxxxx 

            
e|--------------------------------------------|
B|--------------------------------------------|
G|---------55544-----999999991010101012121212-|
D|-77757775-----5555-999999991010101012121212-|
A|-------------------77777777-8-8-8-810101010-|
E|--------------------------------------------|
  xxxxxxxxxxxxxxxxxx 

"I dont ask for much truth be told i settel for"
Chorus
e|----------------------------------|
B|----------------------------------|
G|-----------------55555555---------|
D|-77777777333333335555555555555555-|
A|-77777777333333333333333355555555-|
E|-5555555511111111--------33333333-|

"a life less frightening" (2x)
e|------------------------------------|
B|------------------------------------|
G|-----------------55555555-9-7-10-9--|
D|-777777773333333333333333-----------|
A|-777777773333333333333333-7-5-8--7--|
E|-5555555511111111-------------------|

Bridge Part1 (Is there a God...)
e|--------------------------------------------------------|
B|--------------------------------------------------------|
G|--------------------------------------------------------|
D|-777777779-9-9-9-10-10-10-10777777779-9-9-9-10-10-10-10-|
A|-77777777-------------------77777777--------------------|
E|-555555557-7-7-7-8--8--8--8-555555557-7-7-7-8--8--8--8--|

e|-------------------------------------------------------------------------|
B|-------------------------------------------------------------------------|
G|-10-10-10-10-10-10-10-10-9-9-9-9-9-9-9-9-7-7-7-7-7-7-7-7-7-7-7-7-7-7-7-7-|
D|-------------------------------------------------------------------------|
A|-8--8--8--8--8--8--8--8--7-7-7-7-7-7-7-7-5-5-5-5-5-5-5-5-5-5-5-5-5-5-5-5-|
E|-------------------------------------------------------------------------|

Bridge Part2 (So blow a Kiss...)
e|--------------------------------------------|
B|--------------------------------------------|
G|--------------------------------------------|
D|-7--109-77--10-9-10-12--10-9-10-12--10-9-10-|
A|--------------------------------------------|
E|-5--8-7-55--8--7-8--10--8--7-8--10--8--7-8--|

e|-------------------------------------------------------------------|
B|-------------------------------------------------------------------|
G|--------------------------------------10-10-10-10-10-10-10-10-10---|
D|-7---10-9-7-7---10-9-10-12---10-9--10-10-10-10-10-10-10-10-10-10---|
A|--------------------------------------8--8--8--8--8--8--8--8--8----|
E|-5---8--7-5-5---8--7-8--10---8--7--8--8--8--8--8--8--8--8--8--8----|

Last Chorus
e|------------------------------------|-----|
B|------------------------------------|-----|
G|---------9-7-10-7-55555555-9-7-10-9-|-7---|
D|-77777777---------55555555----------|-7---|
A|-777777777-5-8--7-33333333-7-5-8--7-|-5---|

End on
e|---|
B|---|
G|---|
D|-7-|
A|-7-|
E|-5-|


PAPER WINGS

Tune down 1/2 step.

|-----------------------------------------------------------------------------------------------------------------|
|-----------------------------------------------------------------------------------------------------------------|
|-9-9--9--9-9-9-9-9--9--9-9-9---------------8-8--8--8-8-8-6-6--6--6-6-6-6-6--6--6-6-6-----------------------------|
|-9-9--9--9-9-9-9-9--9--9-9-9-9-9--9--9-9-9-6-6--6--6-6-6-6-6--6--6-6-6-6-6--6--6-6-6-7-7--7--7-7-7-7-7--7--7-7-7-|
|-7-7--7--7-7-7-7-7--7--7-7-7-6-6--6--6-6-6---------------4-4--4--4-4-4-4-4--4--4-4-4-7-7--7--7-7-7-7-7--7--7-7-7-|
|-------------------------------------------------------------------------------------5-5--5--5-5-5-5-5--5--5-5-5-|

Verse
|---------------------------------|---------------------------|
|---------------------------------|---------------------------|
|-6--6--(9)-(9)-(9)---------------|---------------------------|
|-6--6--------------2--2--2-2-2-2-|-9--9--9-11--7--7--7-7-7-7-|
|-4--4--(7)-(7)-(7)-2--2--2-2-2-2-|-9--9--9-11--7--7--7-7-7-7-|
|-------------------0--0--0-0-0-0-|-7--7--7-9---5--5--5-5-5-5-|
(7)= played on second guitar

Pre-Chorus
|----------------------------------------------|-----------------|------|
|----------------------------------------------|-----------------|------|
|----------------------------------------------|-----------------|------|
|-9--9-9-9-9-9-9-9-9-9-9-9-9-6--7--7-7-7-7-7-7-|-7-7-7-7-7-7-7-7-|-9----|
|-9--9-9-9-9-9-9-9-9-9-9-9-9-6--7--7-7-7-7-7-7-|-7-7-7-7-7-7-7-7-|-9----|
|-7--7-7-7-7-7-7-7-7-7-7-7-7-4--5--5-5-5-5-5-5-|-5-5-5-5-5-5-5-5-|-7----|


Solo 
|-0--0-0-2b-p0---0---0-0-0-2b-p0---0---0-0-0-2b-p0---0--0-0-0---------|
|--------------4-----------------4-----------------4----------4-4-4-4-|
|---------------------------------------------------------------------|
|---------------------------------------------------------------------|
|---------------------------------------------------------------------|
|---------------------------------------------------------------------|

|7-------0h2h4-0h2h4-0h2h4-0h2h4-0h2h4-0h2h4-5--5-5-4-4-4-7--7-7-7-7-7-7-7-|
|0---0---------------------------------------5--5-5-5-5-5-5--5-5-5-5-5-5-5-|
|--------------------------------------------------------------------------|
|--------------------------------------------------------------------------|
|--------------------------------------------------------------------------|
|--------------------------------------------------------------------------|

|-0--0-0-2b-p0---------0-2b-p0---0--0-0-0-0-0-0----------------0---|
|--------------4-4---4---------4----0-0-0-0-0-0-4--4-4-4-4-4-4-0---|
|-----------------------------------------------4--4-4-4-4-4-4-----|
|------------------------------------------------------------------|
|------------------------------------------------------------------|
|------------------------------------------------------------------|

|-7-0-0-5-0-0-4-0-7-0-0-5-0-0-4-0-4-5-4-7--7-7-7-7-7-7-7-4-5-4-0----|
|---------------------------------------5--5-5-5-5-5-5-5-------0----|
|-------------------------------------------------------------------|
|-------------------------------------------------------------------|
|-------------------------------------------------------------------|
|-------------------------------------------------------------------|


BLOOD TO BLEED

STANDARD TUNING

(Bass Intro)

Verse(x2)
-----------------------------------------------------------------|
-----------------------------------------------------------------|
-6-6666666-444-6-666666666-222-6-666666666666-444---------666666-|
-6-6666666-444-6-666666666-222-6-666666666666-444-222-444-666666-|
-4-4444444-222-4-444444444-000-4-444444444444-222-222-444-444444-|
--------------------------------------------------000-222--------|
 pm******* ***   ********* ***   ************ ***

Chorus (Guitar 1)
----------------------------------------|
----------------------------------------|
-99999-8-99999-8-111111-13-13-13-999-888|
-xxxxx-x-xxxxx-x-x-x-x--x--x--x--xxx-xxx|
-77777-6-77777-6-9-9-9--11-11-11-777-666|
----------------------------------------|
                   
------------------------------------|
------------------------------------|
-99999-8-99999-8-888-11-11-11-999999|
-xxxxx-x-xxxxx-x-xxx-x--x--x--xxxxxx|
-77777-6-77777-6-666-9--9--9--777777|
------------------------------------|
----------------------------------------|
----------------------------------------|
-99999-8-99999-8-111111-13-13-13-999-888|
-xxxxx-x-xxxxx-x-x-x-x--x--x--x--xxx-xxx|
-77777-6-77777-6-9-9-9--11-11-11-777-666|
----------------------------------------|

------------------------------------|
------------------------------------|
-99999-8-99999-8-999-13-13-13-11-11-|
-xxxxx-x-xxxxx-x-xxx-x--x--x--x--x--|
-77777-6-77777-6-777-11-11-11-9--9--|
------------------------------------|

Chorus (Guitar 2)
----------------------------|
----------------------------|
-222222-222222-444444-666666|
-222222-222222-444444-666666|
-000000-222222-222222-444444|
--------000000--------------|

-----------------------------|
-----------------------------|
-222222-222222-444444-666-444|
-222222-222222-444444-666-444|
-000000-222222-222222-444-222|
--------000000---------------|

----------------------------|
----------------------------|
-222222-222222-444444-666666|
-222222-222222-444444-666666|
-000000-222222-222222-444444|
--------000000--------------|

------------------------------------------------|
------------------------------------------------|
-222222-222222-444444-222222222222-444444444444-|
-222222-222222-444444-222222222222-444444444444-|
-000000-222222-222222-000000000000-222222222222-|
--------000000----------------------------------|
Verse (x2)

Chorus (x2)

Solo:
-444444-----0-2-0---7777----9----------------------------|
--------2-4-------4------10---9--------------------------|
--------------------------------/6-/8-/9-/11-9999-11-9-8-|
---------------------------------------------------------|
---------------------------------------------------------|
---------------------------------------------------------|


-44444-5-777777-12-12-12-12-9-12-11-7-9999-7-5-444444-5-4-0~---------------|
----------------------------------------------------------------4444-5-4-2-|
---------------------------------------------------------------------------|
---------------------------------------------------------------------------|
---------------------------------------------------------------------------|
---------------------------------------------------------------------------|

2nd Guitar (behind the solo) (x2)
---------------------------------------------------------------------------|
---------------------------------------------------------------------------|
-666666666666-222222222222--------------444444444444-----------------------|
-666666666666-222222222222-222222222222-444444444444-----------------------|
-444444444444-000000000000-222222222222-222222222222-----------------------|
---------------------------000000000000------------------------------------|
         Lead plays this during bridge in  backround
part 1
---------------------------------|
-2-2-2-2-2-2-2-2-0-2-4-----------|
---------------------------------|  x3 then ...
---------------------------------|
---------------------------------|
---------------------------------|
part 2
---------------------------------|
-------4-4-4-2-2-2--0-2-4-0------|
-1-1-1---------------------------| then go back into part 1
---------------------------------|
---------------------------------|
---------------------------------|


Bridge (x3)
----------------------------------------------------|----------------------|
----------------------------------------------------|----------------------|
-666666666666-222222222222--------------------------|6---------------------|
-666666666666-222222222222-222222222222-666666666666|6---------------------|
-444444444444-000000000000-222222222222-666666666666|4---------------------|
---------------------------000000000000-444444444444|----------------------|

(Bass Part)

Chorus (x2)

On chorus the last time, do the 4th endings like so; 4 times
e|-------------------------------------------------------------------------|
B|-------------------------------------------------------------------------|
G|-999999-13-13-13--11-11-11-99-8------------------------------------------|
D|-xxxxxx-x--x--x---x--x--x--xx-x------------------------------------------|
A|-777777-11-11-11--9--9--9--77-6------------------------------------------|
E|-------------------------------------------------------------------------|

End on:
---
---
-6-
-6-
-4-
---



TO THEM THESE STREETS BELONG

STANDARD TUNING

~Intro~
e|-------------------------------------------------------------|
b|-------------------------------------------------------------|
g|---------6-----8-------4------6------------------------------|
d|--4------6-----8-------4------6------4-----------------------|x2
A|--4------4-----6-------2------4------4-----------------------|
E|--2----------------------------------2-----------------------|

~Verse~
e|-------------------------------------------------------------|
b|----4---4---4------------------------------------------------|
g|--3-3-3-3-3-3---4-4-4-4---6-6--------------------------------|
d|--3-1-3-1-3-1---4-4-4-4-4-6-6--------------------------------|x4
A|--1---1---1-----2-2-2-2-4-4-4--------------------------------|
E|------------------------2------------------------------------|

~Chorus~
e|----------------------------|-------------------------------------|
b|----------------------------|-------------------------------------|
g|--8-8-8-8-8--------8--6-----|4-4-4-4-4-4-4-4-6-6-6-6-6-6-6-6------|
d|--8-8-8-8-8--pause-8--6--x1-|4-4-4-4-4-4-4-4-6-6-6-6-6-6-6-6--x2--|
A|--6-6-6-6-6--pause-6--4-----|2-2-2-2-2-2-2-2-4-4-4-4-4-4-4-4------|
E|----------------------------|-------------------------------------|

e|-------------------------------------------------------------|
b|-------------------------------------------------------------|
g|--8-8-8-8-6-6-6-6-4-4-4-4-4-4-4-4-4-4-4-4-4-4-4-4--6-6-6-6-6-|
d|--8-8-8-8-6-6-6-6-4-4-4-4-4-4-4-4-4-4-4-4-4-4-4-4--6-6-6-6-6-|
A|--6-6-6-6-4-4-4-4-2-2-2-2-2-2-2-2-2-2-2-2-2-2-2-2--4-4-4-4-4-|
E|-------------------------------------------------------------|

e|-------------------------------------------------------------|
b|-------------------------------------------------------------|
g|--6-6-6--8-8-8-8-8-8-8-8-8-8-8-8-8-8-8-8---------------------|
d|--6-6-6--8-8-8-8-8-8-8-8-8-8-8-8-8-8-8-8---------------------|
A|--4-4-4--6-6-6-6-6-6-6-6-6-6-6-6-6-6-6-6---------------------|
E|-------------------------------------------------------------|


~Verse~
e|-------------------------------------------------------------|
b|----4---4----------------------------------------------------|
g|--3-3-3-3-3-3---4-4-4-4---6-6--------------------------------|
d|--3-1-3-1-3-1---4-4-4-4-4-6-6--------------------------------|x4
A|--1---1---1-----2-2-2-2-4-4-4--------------------------------|
E|------------------------2------------------------------------|

~Chorus~
e|----------------------------|-------------------------------------|
b|----------------------------|-------------------------------------|
g|--8-8-8-8-8--------8--6-----|4-4-4-4-4-4-4-4-6-6-6-6-6-6-6-6------|
d|--8-8-8-8-8--pause-8--6--x1-|4-4-4-4-4-4-4-4-6-6-6-6-6-6-6-6--x2--|
A|--6-6-6-6-6--pause-6--4-----|2-2-2-2-2-2-2-2-4-4-4-4-4-4-4-4------|
E|----------------------------|-------------------------------------|

e|-------------------------------------------------------------|
b|-------------------------------------------------------------|
g|--8-8-8-8-6-6-6-6-4-4-4-4-4-4-4-4-4-4-4-4-4-4-4-4--6-6-6-6-6-|
d|--8-8-8-8-6-6-6-6-4-4-4-4-4-4-4-4-4-4-4-4-4-4-4-4--6-6-6-6-6-|
A|--6-6-6-6-4-4-4-4-2-2-2-2-2-2-2-2-2-2-2-2-2-2-2-2--4-4-4-4-4-|
E|-------------------------------------------------------------|

e|-------------------------------------------------------------|
b|-------------------------------------------------------------|
g|--6-6-6--8-8-8-8-8-8-8-8-8-8-8-8-8-8-8-8---------------------|
d|--6-6-6--8-8-8-8-8-8-8-8-8-8-8-8-8-8-8-8---------------------|
A|--4-4-4--6-6-6-6-6-6-6-6-6-6-6-6-6-6-6-6---------------------|
E|-------------------------------------------------------------|

~Outro 1~
e|-------------------------------------------------------------|
b|-------------------------------------------------------------|
g|---------6-----8-------4------6------------------------------|
d|--4------6-----8-------4------6------4-----------------------|x2
A|--4------4-----6-------2------4------4-----------------------|
E|--2----------------------------------2-----------------------|

~Outro 2~ (Play All Though Twice)
e|-------------------------------------------------------------|
b|-------------------------------------------------------------|
g|-------------------6-6-6-6-6-6-6-6--8-8-8-8-8-8-8-8-8-8-8-8--|
d|--4-4-4-4-4-4-4-4--6-6-6-6-6-6-6-6--8-8-8-8-8-8-8-8-8-8-8-8--|
A|--4-4-4-4-4-4-4-4--4-4-4-4-4-4-4-4--6-6-6-6-6-6-6-6-6-6-6-6--|
E|--2-2-2-2-2-2-2-2--------------------------------------------|

e|-------------------------------------------------------------|
b|-------------------------------------------------------------|
g|--8-8-8-8--4-4-4-4-4-4-4-4--6-6-6-6-6-6-6-6------------------|
d|--8-8-8-8--4-4-4-4-4-4-4-4--6-6-6-6-6-6-6-6--4-4-4-4-4-4-4-4-|
A|--6-6-6-6--2-2-2-2-2-2-2-2--4-4-4-4-4-4-4-4--4-4-4-4-4-4-4-4-|
E|---------------------------------------------2-2-2-2-2-2-2-2-|

e|-------------------------------------------------------------|
b|-------------------------------------------------------------|
g|-------------------------------------------------------------|
d|--4-4-4-4-4-4-4-4--------------------------------------------|
A|--4-4-4-4-4-4-4-4--------------------------------------------|
E|--2-2-2-2-2-2-2-2--------------------------------------------|



TIP THE SCALES

STANDARD TUNING

INTRO PART ONE
e|------------------------------------|
B|------------------------------------|
G|------------------------------------|
D|-------------9---7------------------|
A|---7---7-------------10---9---10----|
E|-0---0---0-0---0---0----0---0----0--|

INTRO PART TWO - LEAD (ALSO CHORUS)
e|------------------------------|---------------------------------------|
B|------------------------------|---------------------------------------|
G|-9--9-9-9-16--14--12--11--12--|-7--7-7-12--12--11--11-11-11-11-11-11--|
D|------------------------------|---------------------------------------|
A|-7--7-7-7-14--12--10--9---10--|-5--5-5-10--10--9---9--9--9--9--9--9---|
E|------------------------------|---------------------------------------|

INTRO PART TWO - RHYTHM (ALSO CHORUS)
e|--------------------------------------------------------------|
B|--------------------------------------------------------------|
G|----------5--4--4-4-4-4-4-4-7-5--5-5-5-5-2--7--7-7-7-7-7-7-7--|
D|-2--2-2-2-5--4--4-4-4-4-4-4-7-5--5-5-5-5-2--7--7-7-7-7-7-7-7--|
A|-2--2-2-2-3--2--2-2-2-2-2-2-5-3--3-3-3-3-0--5--5-5-5-5-5-5-5--|
E|-0--0-0-0-----------------------------------5--5-5-5-5-5-5-5--|

PRE-VERSE
|-----------------------|
|-----------------------|
|-11--11--11--11--11-11-|
|-----------------------|
|-----------------------|
|-----------------------|

CHORUS (SAME AS INTRO PART TWO)

VERSE - LEAD
|-------------------------------------------------------------------|
|-------------------------------------------------5/8--7---7h8------|
|---------------------------------------------------------------7---|
|-2---12-14--12--10--9--10--9---9-10--9--7--5--7--------------------|
|-2-----------------------------------------------------------------|
|-0-----------------------------------------------------------------|

VERSE - RHYTHM
|--------------------------------------------------------|
|--------------------------------------------------------|
|--------------------------------4-----------------------|
|-2--2-2-2-2-2-2-2-2-2-2-2-2-2-2-4--4-4-4-5--4--2--5--2--|
|-2--2-2-2-2-2-2-2-2-2-2-2-2-2-2-2--2-2-2-3--2--0--5--0--|
|-0--0-0-0-0-0-0-0-0-0-0-0-0-0-0-------------------3-----|
     
BRIDGE
|-7------------------------------------------------|-----------------|----|
|-8--8--8-7--8--8--8-7--8--8--8-10--10-10--10--10--|-----------------|----|
|-9--9--9-9--9--9--9-9--9--9--9-9---9--9---9---9---|-7-7-7-7-7-7-7-7-|----|
|--------------------------------------------------|-7-7-7-7-7-7-7-7-|-2--|
|--------------------------------------------------|-5-5-5-5-5-5-5-5-|-2--|
|--------------------------------------------------|-----------------|-0--|

OUTRO PART ONE
|-----------------------------------|-------------------------|
|-----------------------------------|-------------------------|
|-----------------------------------|-------------------------|
|-------------9---7-----------------|-7--7--5--5--4--4--4h5p4-|
|---7---7-------------10---9---10---|-5--5--5--5--5--5--------|
|-0---0---0-0---0---0----0---0----0-|-------------------------|


OUTRO PART TWO
|-------------------------------------------------------------------------|
|-------------------------------------------------------------------------|
|--------9-9-9-9-11-11-11-11-12-12-12--------9-9-9-9-11-11-11-11-12-12-12-|
|-2--2-2------------------------------2--2-2-5-5-5-5-7--7--7--7--9--9--9--|
|-2--2-2-7-7-7-7-9--9--9--9--10-10-10-2--2-2-7-7-7-7-9--9--9--9--10-10-10-|
|-0--0-0------------------------------0--0-0------------------------------|

|---------------------------------------------------------|-----|
|---------------------------------------------------------|-----|
|-5--5-5-5-5-4--5--5-5-5-5-4--7--7-7----------------------|-----|
|-5--5-5-5-5----5--5-5-5-5----7--7-7-5--5--4--4-4-4-4-4-4-|-2---|
|-3--3-3-3-3----3--3-3-3-3----5--5-5-5--5--5--5-5-5-5-5-5-|-2---|
|---------------------------------------------------------|-0---|


ANYWHERE BUT HERE

STANDARD TUNING

Intro:
         3 times
E|------------------------------|---------------------------|
B|--8-8-8--6-6-8----------------|--------9--8---------------|
G|--8-8-8--8-8-8---8-8-8--7-7-8-|-------------10-8-10-------|
D|-----------------6-6-6--6-6-6-|--8~-----------------------|
A|------------------------------|---------------------------|
E|------------------------------|---------------------------|
                              

  Verse:
                     4 times
E|----------------------------------------------------------|
B|----------------------------------------------------------|
G|-8--8--8--8--8--8--8--8-----------------------------------|
D|-8--8--8--8--8--8--8--8-------6--6--6--6--6--6--6--6------|
A|-6--6--6--6--6--6--6--6-------6--6--6--6--6--6--6--6------|
E|------------------------------4--4--4--4--4--4--4--4------|
  

E|----------------------------------------------------------------|
B|----------------------------------------------------------------|
G|-8--8--8--8--8--8--8--8-----------------------------------------|
D|-8--8--8--8--8--8--8--8-----8--8--8--8--8--8--8--8--------------|
A|-6--6--6--6--6--6--6--6-----8--8--8--8--8--8--8--8--------------|
E|----------------------------6--6--6--6--6--6--6--6--------------|




Pre Chorus:

E|------------------------------------------------|
B|------------------------------------------------|
G|-8#---------------------------------------------|
D|-8#---8~------6#-----------8~-------------------|
A|-6#---8~------6#-----------8~-------------------|
E|------6~------4#-----------6~-------------------|
  

                                                 #:Muffle
Chorus:

E|----------------------------------------------------------|
B|----------------------------------------------------------|
G|-8--8--8--8--8--8--8--8-----------------------------------|
D|-8--8--8--8--8--8--8--8---6--6--6--6--6--6--6--6----------|
A|-6--6--6--6--6--6--6--6---6--6--6--6--6--6--6--6--------- |    
E|--------------------------4--4--4--4--4--4--4--4----------|


E|----------------------------------------------------------|
B|----------------------------------------------------------|
G|-8--8--8--8--8--8--8--8-----------------------------------|
D|-8--8--8--8--8--8--8--8-----8--8--8--8--8--8--8--8--------|
A|-6--6--6--6--6--6--6--6-----8--8--8--8--8--8--8--8--------|
E|----------------------------6--6--6--6--6--6--6--6--------|



GIVE IT ALL

Intro (x2) 
e|---------------|
B|---------------|
G|---------------|
D|-7---3---6---4-|
A|-4---4---4---4-|
E|---------------|    

Verse Part 1 (x2)
e|--------------------------------------|
B|--------------------------------------|
G|--------------7777----------7777-9999-|
D|-44--44--44---7777-44--44---7777-9999-|
A|-44--44--44---5555-44--44---5555-7777-|
E|-22--22--22--------22--12-------------|

Verse Part 2 (x2)
E|--------------------------------------|
B|--------------------------------------|
G|--------------7777----------7777-9999-|
D|-44--44--44---7777-44--44---7777-9999-|
A|-4422442244---5555-44--44---5555-7777-|
E|-2200220022--------22002200-----------|  

Chorus (2x)
E|--------------------------------------------|
B|--------------------------------------------|
G|----------99999999-----------------77777777-|
D|-77777777-99999999-111111111111111-77777777-|
A|-77777777-77777777-111111111111111-55555555-|
E|-55555555----------9-9-9-9-9-9-9-9----------|

Verse Part 1 (x2)
E|--------------------------------------|
B|--------------------------------------|
G|--------------7777----------7777-9999-|
D|-44--44--44---7777-44--44---7777-9999-|
A|-44--44--44---5555-44--44---5555-7777-|
E|-22--22--22--------22--22-------------|

Verse Part 2 (x2)
E|---------------------------------------|
B|---------------------------------------|
G|---------------7777----------7777-9999-|
D|--44--44--44---7777-44--44---7777-9999-|
A|--4422442244---5555-44--44---5555-7777-|
E|--2200220022--------22002200-----------|
PM- xxxxxxxxxx        xxxxxxxx              
  
Chorus (2x)
E|--------------------------------------------|
B|--------------------------------------------|
G|----------99999999-----------------77777777-|
D|-77777777-99999999-111111111111111-77777777-|
A|-77777777-77777777-111111111111111-55555555-|
E|-55555555----------9-9-9-9-9-9-9-9----------|

Bridge Part 1

E|----|
B|----|
G|----|
D|-7-6|
A|-7-6|
E|-5-4|
                             
     Bridge Part 2 (x2)
E|----------------------|
B|----------------------|
G|------7777------------|
D|-4444-7777-2222-------|
A|-4444-5555-2222-44-33-|
E|-2222------0000-55-44-|
                             

     Bridge Part 3
E|-----------------------|
B|-----------------------|
G|-------7777------------|
D|--4444-7777-2222-------|
A|--4444-5555-2222-44-33-|
E|--2222------0000-55-44-|
PM  xxxx xxxx xxxx xx xx


     Bridge Part 4
E|-----------------------|
B|-----------------------|
G|-------7777------------|
D|--4444-7777-2222-2-----|
A|--4444-5555-2222-2-----|
E|--2222------0000-0-----|
PM  xxxx xxxx xxxx

Chorus (4x)
E|--------------------------------------------|
B|--------------------------------------------|
G|----------99999999-----------------77777777-|
D|-77777777-99999999-111111111111111-77777777-|
A|-77777777-77777777-111111111111111-55555555-|
E|-55555555----------9-9-9-9-9-9-9-9----------|




DANCING FOR RAIN


SWING LIFE AWAY

Tuning: Eb, Ab, Db, Gb, Bb, eb

Guitar 1										3x
e|-------------------------------------------------------------------------|
B|-<12>--------------------<7>---------------------------------------------|
G|------<12>----------<12>-----<7>-----------------------------------------|
D|-----------<12>-<7>------------------------------------------------------|
A|-------------------------------------------------------------------------|
E|-------------------------------------------------------------------------|

Guitar 2										3x
e|-------------------------------------------------------------------------|
B|-0------------3-33333-3333-----------------------------------------------|
G|--0---2-0-----0-00000-0000-----------------------------------------------|
D|---0-----4----x-xxxxx-xxxx-----------------------------------------------|
A|--------------3-33333-3333-----------------------------------------------|
E|-------------------------------------------------------------------------|
Guitar 2
e|-------------------------------------------------------------------------|
B|--3-33333-33333-33333x---------------------------------------------------|
G|--2-22222-22222-22222x---------------------------------------------------|
D|--0-00000-00000-00000x---------------------------------------------------|
A|--0-00000-00000-00000x---------------------------------------------------|
E|-------------------------------------------------------------------------|

Verse				3x					Repeat this line
e|------------------------------|------------------------------------------|
B|-:--------------------------:-|-3---33333-33333-33333--------------------|
G|---------------5-55555-5555---|-0---00000-00000-00000x-------------------|
D|---2-22225-55555-55555-5555---|-4---44444-44444-44444x-------------------|
A|-:-2-22225-55553-33333-3333-:-|-5---55555-55555-55555x-------------------|
E|---0-00003-3333---------------|------------------------------------------|
pm     x     x     x     x        x   x     x     x  
	Let up on pm 2nd time

Chorus
e|---0-0000------------------0-0000---------------------|------------------|
B|-:-0-00003-33333-33333-33330-00003-33333-33333-3333-:-|-3-33333x---------|
G|---x-xxxx0-00000-00002-2222x-xxxx0-00002-22222-2222---|-2-22222x---------|
D|---2-22220-0000x-xxxx0-00002-22220-00000-00000-0000---|-0-00000x---------|
A|-:-2-2222x-xxxx3-33330-00002-2222x-xxxx0-00000-0000-:-|-0-00000x---------|
E|---0-00003-3333------------0-00003-3333---------------|------------------|


Verse

Chorus (don't cut off last chord)


Bridge 2x
e|-0-00003-33333-33333-3333------------------------------------------------|
B|-0-00003-33333-33333-3333------------------------------------------------|
G|-x-xxxx0-00000-00000-0000------------------------------------------------|
D|-2-22220-0000x-xxxxx-xxxx------------------------------------------------|
A|-2-2222x-xxxx3-33333-3333------------------------------------------------|
E|-0-00003-3333------------------------------------------------------------|

e|-0-00003-33330-00003-3333------------------------------------------------|
B|-0-00003-33331-11113-3333------------------------------------------------|
G|-x-xxxx0-00002-22220-0000------------------------------------------------|
D|-2-22220-00002-2222x-xxxx------------------------------------------------|
A|-2-2222x-xxxx0-00003-3333------------------------------------------------|
E|-0-00003-3333------------------------------------------------------------|

e|-0-00003-33333-33333-33333-3333-------3----------------------------------|
B|-0-00003-33333-33333-33333-3333-0-----3----------------------------------|
G|-x-xxxx0-00000-00000-00000-0000---0---0----------------------------------|
D|-2-22220-0000x-xxxxx-xxxxx-xxxx-----0-0----------------------------------|
A|-2-2222x-xxxx3-33333-33333-3333-------x----------------------------------|
E|-0-00003-3333-------------------------3----------------------------------|



RUMORS OF DEMISE HAVE BEEN GREATLY EXXAGERATED


Guitar Intro  

e-------------------------------------------------|
B-------------------------------------------------|
G-55-3-5-3---------------55-3-5-3-----------------| (2x)
D-55-3-5-3-33-3-3-66-6-6-55-3-5-3-33-3-3-66-6-6---|
A-33-1-3-1-33-3-3-66-6-6-33-5-3-5-33-3-3-66-6-6---|
E----------11-1-1-44-4-4----------11-1-1-44-4-4---|

Guitar

e-----------------------------------------|
B-----------------------------------------|
G--12--8--10-121312-8--10---121312--------|
D-----------------------------------------|
A--10--6---8—101110-6--8----101110--------|
E-----------------------------------------|

Verse
e-----------------------------------------------|
B-----------------------------------------------|
G-55-3-5----------------55-3-5------------------| (2x)
D-55-3-5--33-3-3-66-6-6-55-3-5--33-3-3-66-6-6---|
A-33-1-3--33-3-3-66-6-6-33-5-3--33-3-3-66-6-6---|
E---------11-1-1-44-4-4---------11-1-1-44-4-4---|
  xxxxxxxxxxxxxxxxxxxxxxxxxxxxxxxxxxxxxxxxxxxxx

Chorus (Part 1)

e----------------------------------------------------------|
B----------------------------------------------------------|
G--------------------------------------------------555555--|
D-666666-333333-666666-333333-666666-333333-666666-555555--|
A-666666-333333-666666-333333-666666-333333-666666-333333--|
E-444444-111111-444444-111111-444444-111111-444444---------|

Chorus (Part 2)

e-----------------------------------------|
B-----------------------------------------|
G----------55555555-77777777-33333333-----| (2x)
D-33333333-55555555-77777777-33333333-----|
A-33333333-33333333-55555555-11111111-----|
E-11111111--------------------------------|

Verse

e-----------------------------------------------|
B-----------------------------------------------|
G-55-3-5----------------55-3-5------------------| (2x)
D-55-3-5--33-3-3-66-6-6-55-3-5--33-3-3-66-6-6---|
A-33-1-3--33-3-3-66-6-6-33-5-3--33-3-3-66-6-6---|
E---------11-1-1-44-4-4---------11-1-1-44-4-4---|
  xxxxxxxxxxxxxxxxxxxxxxxxxxxxxxxxxxxxxxxxxxx

Chorus (Part1)

e----------------------------------------------------------|
B----------------------------------------------------------|
G--------------------------------------------------555555--|
D-666666-333333-666666-333333-666666-333333-666666-555555--|
A-666666-333333-666666-333333-666666-333333-666666-333333--|
E-444444-111111-444444-111111-444444-111111-444444---------|

Chorus (Part 2)

e-----------------------------------------|
B-----------------------------------------|
G----------55555555-77777777-33333333-----| (2x)
D-33333333-55555555-77777777-33333333-----|
A-33333333-33333333-55555555-11111111-----|
E-11111111--------------------------------|

Break

e-----------------------------------------------------------|
B-----------------------------------------------------------|
G-----3h5p3h55555-(?x listen the Song)----------------------|
D-55--------------------------------------------------------| 
A-55--------------------------------------------------------|
E-33--------------------------------------------------------|
      x x x xxxxx

e-----------------------------------------------------------|
B-----------------------------------------------------------|
G-----------------------------------------------------------|
D-55---5-55---5-33---3-77---7-55---5-55---5-33---3-77-------| (2x)
A-55---5-55---5-33---3-77---7-55---5-55---5-33---3-77-------|
E-33---3-33---3-11---1-55---5-33---3-33---3-11---1-55-------|

e-------------------------------------------------------------------------|
B-------------------------------------------------------------------------|
G-------------------------------------------------------------------------| 
D-5555555555555555-33333333-77777777-5555555555555555-33333333-77777777---| 
A-5555555555555555-33333333-77777777-5555555555555555-33333333-77777777---|
E-3333333333333333-11111111-55555555-3333333333333333-11111111-55555555---|

Chorus (Part1)

e----------------------------------------------------------|
B----------------------------------------------------------|
G--------------------------------------------------555555--|
D-666666-333333-666666-333333-666666-333333-666666-555555--|
A-666666-333333-666666-333333-666666-333333-666666-333333--|
E-444444-111111-444444-111111-444444-111111-444444---------|

Chorus (Part 2)

e-----------------------------------------|
B-----------------------------------------|
G----------55555555-77777777-33333333-----| (4x)
D-33333333-55555555-77777777-33333333-----|
A-33333333-33333333-55555555-11111111-----|
E-11111111--------------------------------|


questions or comments email me

GREG DEAN
ilovechocolatesk8boards@hotmail.com


rise against has become my favorite band i hope these tabs are good i played
it along wit the CD and it sounded really good





comments
print report bad tab
9 comments total. Showing first comments. show 1 bad comment
+1 reply
eldanny wrote on January 19 2006, 10:06 am

dude congrats 1st rise against album tab iv only tryed lil bits of it so il rate it when iv done a bit more but it soounds ok so far

-2 reply
eldanny wrote on January 19 2006, 10:33 am

you just stole it form the other songs

I want to post or [tab]
guest
You may want to rate the tab now too:
select rating
Please do not post tabs as comments. Select "correction" instead!