Oops, an error
Loading. Please wait.

Survivor Guilt Bass Tab

ver2
ver2

Whole song

Interactive

More versions @911Tabs.com
150 views 1 this week
no commentswrite comment
1 2 3 4 5
please rate
Autoscroll
+/-
esc
set tempo
stop
Contributor
Tuning
D# G# C# F# A# D#
WARNING: You are trying to view
                                    content from Ultimate-Guitar.com
                                    in an unauthorized application,
                                    which is prohibited.

                                    Please use an official Ultimate
                                    Guitar Tabs application for iPhone,
                                    iPad or Android to access legitimate
                                    chords, guitar, bass, and drum tabs
                                    from Ultimate-Guitar.com database.

                                    Type "ultimate guitar tabs" in Apple
                                    App Store's or Android Market's
                                    search to find the application.
0:09
F#|--------------------------------------------------------|
C#|-------------------15-14-----15p14-17----15-----14------| 
G#|-3/17-------13------------------------------------------| 
D#|--------------------------------------------------------|

F#|-----------------------------------------------------------------------|
C#|-12-----12-------------------------------------------------------------| 
G#|---------------15---13-----13-----8---10-----3-3-----3/8-----7-----3---|
D#|-----------------------------------------------------------------------| 

0:24
F#|----------------------------------------------------------------------|
C#|----------------------------------------------------------------------| 
G#|-5---5---5---3---1---1---1---1---3---3---3---3---1---1---3---3---5----|
D#|----------------------------------------------------------------------| 

Rest

0:34
F#|----------------------------------------------------------------|
C#|o--------------------------------------------------------------o| 
G#|o-5-5-3-5-8-8-3-3-5-5-3-1-------5-5-3-5-8-8-3-3-5-5-3-1--------o|
D#|----------------------------------------------------------------| 

F#|--------------------------------------------------------------|
C#|--------------------------------------------------------------| 
G#|--------------------------------------------------------------|
D#|-3------------------------------------------------------------|

F#|--------------------------------------------------------------|
C#|--------------------------------------------------------------| 
G#|-5-5-3-5-8-8-3-3-5-5-3-1-------5-5-3-5-8-8-3-3-5-5-3-1--------|
D#|--------------------------------------------------------------| 

F#|--------------------------------------------------------------|
C#|--------------------------------------------------------------| 
G#|----------------------------------5-/-10-10-10-10-10-10-10-10-|
D#|-3------------------------------------------------------------|
 
F#|--------------------------------------------------------------|
C#|--------------------------------------------------------------| 
G#|-5-5-3-5-8-8-3-3-5-5-3-1-------5-5-3-5-8-8-3-3-5-5-3-1--------|
D#|--------------------------------------------------------------| 

F#|-----------------------------------------------------------------|
C#|-----------------------------------------------------------------| 
G#|-------------------------------------------------3-3-3-3-3-3-8-7-|
D#|-3-3-3-3-3-3-3-3-3-3-3-3-3-3-3-3-6-6-6-6-6-6-6-3-----------------|

1:01
F#|-----------------------------------------------------------------|
C#|-----------------------------------------------------------------| 
G#|-5-5-5-5-5-5-5-------------------3-3-3-3-3---3-------------------| 
D#|-----------------6-6-6-6-6-6-6-6-----------------3-3-3-3-3---3-3-|

F#|-----------------------------------------------------------------|
C#|-----------------------------------------------------------------| 
G#|-5-5-5-5-5-5-5-------------------3-3-3-3-3-3-3-3-3-3-3-3-------3-| 
D#|-----------------6-6-6-6-6-6-6-6-------------------------3-1-----|

F#|-----------------------------------------------------------------|
C#|-----------------------------------------------------------------| 
G#|-5-5-5-5-5-5-5-------------------3-3-3-3-3---3-------------------| 
D#|-----------------6-6-6-6-6-6-6-6-----------------3-3-3-3-3---3---|

1:21
F#|---------------------------------------------------------------------|
C#|---------------------------------------------------------------------| 
G#|---------------------------------3-3-3-3-3-3-3-3-3-3-3-3-3---8-7-5---| 
D#|-6-6-6-6-6-6-6-6-6-6-6-6-3-3-1-1---------------------------6---------|

Rest

1:30
F#|-----|----------------------------------------------------------------|
C#|-----|o--------------------------------------------------------------o| 
G#|-3---|o-5-5-3-5-8-8-3-3-5-5-3-1-------5-5-3-5-8-8-3-3-5-5-3-1--------o|
D#|-----|----------------------------------------------------------------| 

F#|--------------------------------------------------------------|
C#|--------------------------------------------------------------| 
G#|--------------------------------------------------------------|
D#|-3------------------------------------------------------------|

F#|--------------------------------------------------------------|
C#|--------------------------------------------------------------| 
G#|-5-5-3-5-8-8-3-3-5-5-3-1-------5-5-3-5-8-8-3-3-5-5-3-1--------|
D#|--------------------------------------------------------------| 

F#|--------------------------------------------------------------|
C#|--------------------------------------------------------------| 
G#|----------------------------------5-/-10-10-10-10-10-10-10-10-|
D#|-3------------------------------------------------------------|
 
F#|--------------------------------------------------------------|
C#|--------------------------------------------------------------| 
G#|-5-5-3-5-8-8-3-3-5-5-3-1-------5-5-3-5-8-8-3-3-5-5-3-1--------|
D#|--------------------------------------------------------------|

1:51
F#|-------------------------------------------------------------------|
C#|-----------------5-5-5-3-3-3---------------------------------------| 
G#|---------------------------------------5-5-5-8-8-7-------7---10-10-|
D#|-3-3-3-3-3-3-3-3-------------3-3-6-6-6-------------8-8-8---8-------|

1:58
F#|-----------------------------------------------------------------|
C#|-----------------------------------------------------------------| 
G#|-5-5-5-5-5-5-5-------------------3-3-3-3-3---3-------------------| 
D#|-----------------6-6-6-6-6-6-6-6-----------------3-3-3-3-3---3-3-|

F#|-----------------------------------------------------------------|
C#|-----------------------------------------------------------------| 
G#|-5-5-5-5-5-5-5-------------------3-3-3-3-3-3-3-3-3-3-3-3-------3-| 
D#|-----------------6-6-6-6-6-6-6-6-------------------------3-1-----|

F#|-----------------------------------------------------------------|
C#|-----------------------------------------------------------------| 
G#|-5-5-5-5-5-5-5-------------------3-3-3-3-3---3-------------------| 
D#|-----------------6-6-6-6-6-6-6-6-----------------3-3-3-3-3---3---|

F#|-----------------------------------------------------------------|
C#|-----------------------------------------------------------------| 
G#|---------------------------------3-3-3-3-3-3-3-3-3-3-3-3-3---8-7-| 
D#|-6-6-6-6-6-6-6-6-6-6-6-6-3-3-1-1---------------------------6-----|

2:24
F#|-----------------------------------------------------------------|
C#|-----------------------------------------------------------------| 
G#|-5---5---5-5----------------------5---5---5-5--------------------| 
D#|-----------------------------------------------------------------|

F#|-----------------------------------------------------------------|
C#|-----------------------------------------------------------------| 
G#|-----------------3---3-3---3-3-----------------------------------| 
D#|-1---1-1---1-1-------------------3---3-3---3-3---5---5-5---5-5---|

F#|-----------------------------------------------------------------|
C#|----------------------------------15---12---10--12-\-------------| 
G#|-5---5---5-5-----------------------------------------------------| 
D#|-----------------------------------------------------------------|

F#|-----------------------------------------------------------------|
C#|-----------------------------------------------------------------| 
G#|-----------------3---3-3---3-3-----------------------------------| 
D#|-1---1-1---1-1-------------------3---3-3---3-3---5---5-5---5-5---|

F#|-----------------------------------------------------------------|
C#|-----------------------------------------------------------------| 
G#|-5---5-5---5-5---5---5-5---5-5---5---5-5---5-5---5---5-5---5-5---| 
D#|-----------------------------------------------------------------|

F#|-----------------------------------------------------------------|
C#|-----------------------------------------------------------------| 
G#|-----------------3---3-3---3-3-----------------------------------| 
D#|-1---1-1---1-1-------------------3---3-3---3-3---5---5-5---5-5---|

F#|-----------------------------------------------------------------|
C#|-----------------------------------------------------------------| 
G#|-5---5-5---5-5---5---5-5---5-5---5---5-5---5-5---5---5-5---5-5---| 
D#|-----------------------------------------------------------------|

F#|-----------------------------------------------------------------|
C#|-----------------------------------------------------------------| 
G#|-----------------3---3-3---3-3-----------------------------------| 
D#|-1---1-1---1-1-------------------3---3-3---3-3---5---5-5---5-5---|

2:48
F#|-----------------------------------------------------------------|
C#|-----------------------------------------------------------------| 
G#|-----------------------------------------------------------------|
D#|-6---6-6---6-6---6---6-6---6-6---6---6-6---6-6---1---1-1---1-1---|

F#|-----------------------------------------------------------------|
C#|-----------------------------------------------------------------| 
G#|-----------------------------------------------------------------|
D#|-3---3-3---3-3---3---3-3---3-3---3---3-3---3-3---1---1-1---1-1---|

F#|-----------------------------------------------------------------|
C#|-----------------------------------------------------------------| 
G#|-----------------------------------------------------------------| 
D#|-5---5-5---5-5---5---5-5---5-5---5---5-5---5-5---5---5-5---5-5---|

F#|-----------------------------------------------------------------|
C#|-----------------------------------------------------------------| 
G#|---------------------------------3---3---3---3---3---3---3---3---|
D#|-6---6-6---6-6---6---6-6---6-6-----------------------------------|

3:00
F#|-----------------------------------------------------------------|
C#|-----------------------------------------------------------------| 
G#|-5-5-5-5-5-5-5-5-1-1-1-1-1-1-1-1-3-3-3-3-3-3-3-3-3-3-3-3-3-3-3-3-| 
D#|-----------------------------------------------------------------|

F#|-----------------------------------------------------------------|
C#|-------------5-7-8-8-8-7-7-7-----5-5-5---------------------------| 
G#|-5-5-5-5-5-5-----------------8-8-------3-3-3-3-3-3-3-3-3-1-1-3-3-| 
D#|-----------------------------------------------------------------|

F#|-----------------------------------------------------------------|
C#|-----------------------------------------------------------------| 
G#|-5-5-5-5-5-5-5-5-1-1-1-1-1-1-1-1-3-3-3-3-3-3-3-3-3-3-3-3-3-3-3-3-| 
D#|-----------------------------------------------------------------|

3:17
F#|-----------------------------------------------------------------|
C#|-----------------------------------------------------------------| 
G#|-5-5-5-5-5-5-5-5-1-1-1-1-1-1-1-1-3-3-3-3-3-3-3-3-3-0-1-3-1-3-7-8-| 
D#|-----------------------------------------------------------------|

3:23
F#|-----------------------------------------------------------------|
C#|-----------------------------------------------------------------| 
G#|-5-5-5-5-5-5-5-5-1-1-1-1-1-1-1-1-3-3-3-3-3-3-3-3-----------------| 
D#|-------------------------------------------------3-3-3-3-3-3-3-3-|

F#|-----------------------------------------------------------------|
C#|-----------------------------------------------------------------| 
G#|-5-5-5-5-5-5-5-5-1-1-1-1-1-1-1-1-3-3-3-3-3-3-3-3---------7-7-3-3-| 
D#|-------------------------------------------------3-3-1-1---------|

3:35
F#|-----------------------------------------------------------------|
C#|-----------------------------------------------------------------| 
G#|-5-5-5-5-5-5-5-5-1-1-1-1-1-1-1-1-3-3-3-3-3-3-3-3-----------------| 
D#|-------------------------------------------------3-3-3-3-3-3-3-3-|

F#|-----------------------------------------------------------------|
C#|-----------------------------------------------------------------| 
G#|---------------------------------3-3-3-3-3-3-3-3-3-3-3-3-3-3-3-3-| 
D#|-6-6-6-6-6-6-6-6-6-6-6-6-3-3-1-1---------------------------------|

3:47
F#|-------------------------------------------------------------------------------|
C#|-12-12-12-12-------------------------------------------------------------------| 
G#|-------------13-13-13-13-12-12-12-12-8-8-10-10-3-3-3-3-3-3-3-3-3-3-3-3-8---7---|
D#|-------------------------------------------------------------------------------| 

F#|--------------------------------------------14---19-\------------|
C#|----------------------------------12---15------------------------| 
G#|-5---5---5-5-----------------------------------------------------| 
D#|-----------------------------------------------------------------|
Tabbed by Dave Vucko
comments
We did not receive enough feedback on this tab! Please rate:
print report bad tab
1 2 3 4 5
I want to post or [tab]
guest
You may want to rate the tab now too:
select rating
Please do not post tabs as comments. Select "correction" instead!