Oops, an error
Loading. Please wait.

The Black Market Bass Tab

ver1
ver1

Album

Whole song

More versions @911Tabs.com
1,109 views 81 this week
3 commentsread comments
1 2 3 4 5
excellent!
x 5
Autoscroll
+/-
esc
set tempo
stop
Contributor
Difficulty
Tuning
intermediate
D# G# C# F# A# D#
NEW! There's an official Ultimate Guitar app which is ideal
for learning songs when you're away from computer. Get the app
WARNING: You are trying to view
                                    content from Ultimate-Guitar.com
                                    in an unauthorized application,
                                    which is prohibited.

                                    Please use an official Ultimate
                                    Guitar Tabs application for iPhone,
                                    iPad or Android to access legitimate
                                    chords, guitar, bass, and drum tabs
                                    from Ultimate-Guitar.com database.

                                    Type "ultimate guitar tabs" in Apple
                                    App Store's or Android Market's
                                    search to find the application.
Rise Against - The Black Market

The Great Die-Off 
I Don't Want To Be Here Anymore (Standard Tuning)
Tragedy + Time
The Black Market
The Eco-Terrorist In Me
Sudden Life
A Beautiful Indifference
Methadone
Zero Visibility
Awake Too Long
People Live Here
Bridges
Escape Artists (Bonus Track)

All songs Tabbed by Dave Vucko

===========================================================================================

The Great Die-Off

0:17
F#|-----------------------------------------------------------------|
C#|-3-----------5-----------7---8---7-----------3-----------1---1---|
G#|-------5-----------5-------------------5-----------5-------------|
D#|-----------------------------------------------------------------|
    1 + 2 + 3 + 4 + 1 + 2 + 3 + 4 + 1 + 2 + 3 + 4 + 1 + 2 + 3 + 4 +


F#|-----------------------------------------------------------------|
C#|-3-----------5-----------7---8---7-----------3-----------3---5---|
G#|-------5-----------5-------------------5-----------5-------------|
D#|-----------------------------------------------------------------|
    1 + 2 + 3 + 4 + 1 + 2 + 3 + 4 + 1 + 2 + 3 + 4 + 1 + 2 + 3 + 4 +

Verse 0:24
F#|-----------------------------------------------------------------|
C#|---------------------------------------------3-------------------|
G#|-3---3-5-------------------------3---3-5-------------------------|
D#|-----------------------------------------------------------------|
    1 + 2 + 3 + 4 + 1 + 2 + 3 + 4 + 1 + 2 + 3 + 4 + 1 + 2 + 3 + 4 +

F#|-----------------------------------------------------------------|
C#|-----------------------------------------------------------------|
G#|-3---3-5-------------------------3---3-5-----------------0---1---|
D#|---------------------------------------------1-------3-----------|
    1 + 2 + 3 + 4 + 1 + 2 + 3 + 4 + 1 + 2 + 3 + 4 + 1 + 2 + 3 + 4 +

F#|-----------------------------------------------------------------|
C#|---------------------------------------------3-------------------|
G#|-3---3-5-------------------------3---3-5-------------------------|
D#|-----------------------------------------------------------------|
    1 + 2 + 3 + 4 + 1 + 2 + 3 + 4 + 1 + 2 + 3 + 4 + 1 + 2 + 3 + 4 +

F#|-----------------------------------------------------------------|
C#|-----------------------------------------------------------------|
G#|-3---3-5-------------------------3---3-5-------------------------|
D#|---------------------------------------------1-------------------|
    1 + 2 + 3 + 4 + 1 + 2 + 3 + 4 + 1 + 2 + 3 + 4 + 1 + 2 + 3 + 4 +

Pre Chorus 0:37
F#|-----------------------------------------------------------------|
C#|-----------------------------------------------------------------|
G#|---------------------------------1---1-1---1-1---1---1-1---1-1---|
D#|-3---3-3---3-1---3---3-3---3-1-----------------------------------|
    1 + 2 + 3 + 4 + 1 + 2 + 3 + 4 + 1 + 2 + 3 + 4 + 1 + 2 + 3 + 4 +

F#|-----------------------------------------------------------------|
C#|-------------2---3---2---0---2-----------------------------------|
G#|-5---5-5---5---------------------3---3-3---3-3---3---3---3---3---|
D#|-----------------------------------------------------------------|
    1 + 2 + 3 + 4 + 1 + 2 + 3 + 4 + 1 + 2 + 3 + 4 + 1 + 2 + 3 + 4 +

F#|-----------------------------------------------------------------|
C#|-----------------------------------------------------------------|
G#|---------------------------------1---1---1---1---3---------------|
D#|-3---3-3---3-3---3---3-3---3-3-----------------------------------|
    1 + 2 + 3 + 4 + 1 + 2 + 3 + 4 + 1 + 2 + 3 + 4 + 1 + 2 + 3 + 4 +

Chorus 0:47
F#|-----------------------------------------------------------------|
C#|-----------------------------------------------------------------|
G#|-5---------------------------------------------------------------|
D#|-----------------------------------------------------------------|
    1 + 2 + 3 + 4 + 1 + 2 + 3 + 4 + 1 + 2 + 3 + 4 + 1 + 2 + 3 + 4 +

F#|-----------------------------------------------------------------|
C#|-----------------------------------------------------------------|
G#|-1---1---1---1---1---1---1---1-----------------------------------|
D#|---------------------------------1---1---1---1---3---3---3---3---|
    1 + 2 + 3 + 4 + 1 + 2 + 3 + 4 + 1 + 2 + 3 + 4 + 1 + 2 + 3 + 4 +

F#|-----------------------------------------------------------------|
C#|-----------------------------------------------------------------|
G#|-5---5---5---5---5---5---5---------------------------------------|
D#|---------------------------------3---3---3---3---3---3---3---3---|
    1 + 2 + 3 + 4 + 1 + 2 + 3 + 4 + 1 + 2 + 3 + 4 + 1 + 2 + 3 + 4 +

F#|-----------------------------------------------------------------|
C#|-----------------------------------------------------------------|
G#|-1---1---1---1---1---1---1---1-------------------3---3---3---3---|
D#|---------------------------------1---1---1---1-------------------|
    1 + 2 + 3 + 4 + 1 + 2 + 3 + 4 + 1 + 2 + 3 + 4 + 1 + 2 + 3 + 4 +

1:00
F#|-------------------------------------------------------------------------|
C#|-------------------------------------------------------------------------|
G#|-5---5---5---5---5---5---5---/---10---10---10---10---10---10---10---10---|
D#|-------------------------------------------------------------------------|
    1 + 2 + 3 + 4 + 1 + 2 + 3 + 4 + 1  + 2  + 3  + 4  + 1  + 2  + 3  + 4  +

F#|-----------------------------------------------------------------|
C#|-----------------------------------------------------------------|
G#|-1---1---1---1---1---1---1---1-----------------------------------|
D#|---------------------------------1---1---1---1---3---3---3---3---|
    1 + 2 + 3 + 4 + 1 + 2 + 3 + 4 + 1 + 2 + 3 + 4 + 1 + 2 + 3 + 4 +

F#|-----------------------------------------------------------------|
C#|-----------------------------------------------------------------|
G#|-5---5---5---5---5---5---5---5-----------------------------------|
D#|---------------------------------3---3---3---3---3---3---3---3---|
    1 + 2 + 3 + 4 + 1 + 2 + 3 + 4 + 1 + 2 + 3 + 4 + 1 + 2 + 3 + 4 +

F#|-----------------------------------------------------------------|
C#|-----------------------------------------------------------------|
G#|-1---1---1---1---1---1---1---1-------------------3---3---3---3---|
D#|---------------------------------1---1---1---1-------------------|
    1 + 2 + 3 + 4 + 1 + 2 + 3 + 4 + 1 + 2 + 3 + 4 + 1 + 2 + 3 + 4 +

Interlude 1:13
F#|-----------------------------------------------------------------|
C#|-3-3-3-------5-5-5-------7-7-8-8-3-----------7-------------------|
G#|-------5-5-5-------5-5-5---------------5-----5-------------------|
D#|-----------------------------------------------------------------|
    1 + 2 + 3 + 4 + 1 + 2 + 3 + 4 + 1 + 2 + 3 + 4 + 1 + 2 + 3 + 4 +

Verse 1:17
F#|-----------------------------------------------------------------|
C#|---------------------------------------------3-------------------|
G#|-3---3-5-------------------------3---3-5-------------------------|
D#|-----------------------------------------------------------------|
    1 + 2 + 3 + 4 + 1 + 2 + 3 + 4 + 1 + 2 + 3 + 4 + 1 + 2 + 3 + 4 +

F#|-----------------------------------------------------------------|
C#|-----------------------------------------------------------------|
G#|-3---3-5-------------------------3---3-5-----------------0---1---|
D#|---------------------------------------------1-------3-----------|
    1 + 2 + 3 + 4 + 1 + 2 + 3 + 4 + 1 + 2 + 3 + 4 + 1 + 2 + 3 + 4 +

F#|-----------------------------------------------------------------|
C#|---------------------------------------------3-------------------|
G#|-3---3-5-------------------------3---3-5-------------------------|
D#|-----------------------------------------------------------------|
    1 + 2 + 3 + 4 + 1 + 2 + 3 + 4 + 1 + 2 + 3 + 4 + 1 + 2 + 3 + 4 +

F#|-----------------------------------------------------------------|
C#|-----------------------------------------------------------------|
G#|-3---3-5-------------------------3---3-5-------------------------|
D#|---------------------------------------------1-------------------|
    1 + 2 + 3 + 4 + 1 + 2 + 3 + 4 + 1 + 2 + 3 + 4 + 1 + 2 + 3 + 4 +

Pre Chorus 1:30
F#|-----------------------------------------------------------------|
C#|-----------------------------------------------------------------|
G#|---------------------------------1---1-1---1-1---1---1-1---1-1---|
D#|-3---3-3---3-3---3---3-3---3-1-----------------------------------|
    1 + 2 + 3 + 4 + 1 + 2 + 3 + 4 + 1 + 2 + 3 + 4 + 1 + 2 + 3 + 4 +

F#|-----------------------------------------------------------------|
C#|-------------7---5---3---2-2-3-----------------------------------|
G#|-5---5-5---5---------------------3---3-3---3-3---3---3---3---3---|
D#|-----------------------------------------------------------------|
    1 + 2 + 3 + 4 + 1 + 2 + 3 + 4 + 1 + 2 + 3 + 4 + 1 + 2 + 3 + 4 +

F#|-----------------------------------------------------------------|
C#|-----------------------------------------------------------------|
G#|---------------------------------1---1---1---1---3---------------|
D#|-3---3-3---3-3---3---3-3---3-3-----------------------------------|
    1 + 2 + 3 + 4 + 1 + 2 + 3 + 4 + 1 + 2 + 3 + 4 + 1 + 2 + 3 + 4 +

Chorus 1:40
F#|-----------------------------------------------------------------|
C#|-----------------------------------------------------------------|
G#|-5---5---5---5---5---5---5---5-----------------------------------|
D#|---------------------------------3---3---3---3---3---3---3---3---|
    1 + 2 + 3 + 4 + 1 + 2 + 3 + 4 + 1 + 2 + 3 + 4 + 1 + 2 + 3 + 4 +

F#|-----------------------------------------------------------------|
C#|-----------------------------------------------------------------|
G#|-1---1---1---1---1---1---1---1-----------------------------------|
D#|---------------------------------1---1---1---1---3---3---3---3---|
    1 + 2 + 3 + 4 + 1 + 2 + 3 + 4 + 1 + 2 + 3 + 4 + 1 + 2 + 3 + 4 +

F#|-----------------------------------------------------------------|
C#|-----------------------------------------------------------------|
G#|-5---5---5---5---5---5---5---5-----------------------------------|
D#|---------------------------------3---3---3---3---3---3---3---3---|
    1 + 2 + 3 + 4 + 1 + 2 + 3 + 4 + 1 + 2 + 3 + 4 + 1 + 2 + 3 + 4 +

F#|-----------------------------------------------------------------|
C#|-----------------------------------------------------------------|
G#|-1---1---1---1---1---1---1---1-------------------3---3---3---3---|
D#|---------------------------------1---1---1---1-------------------|
    1 + 2 + 3 + 4 + 1 + 2 + 3 + 4 + 1 + 2 + 3 + 4 + 1 + 2 + 3 + 4 +

1:53
F#|-------------------------------------------------------------------------|
C#|-------------------------------------------------------------------------|
G#|-5---5---5---5---5---5---5---/---10---10---10---10---10---10---10---10---|
D#|-------------------------------------------------------------------------|
    1 + 2 + 3 + 4 + 1 + 2 + 3 + 4 + 1  + 2  + 3  + 4  + 1  + 2  + 3  + 4  +

F#|-----------------------------------------------------------------|
C#|-----------------------------------------------------------------|
G#|-1---1---1---1---1---1---1---------------------------------------|
D#|---------------------------------1---1---1---1---3---3---3---3---|
    1 + 2 + 3 + 4 + 1 + 2 + 3 + 4 + 1 + 2 + 3 + 4 + 1 + 2 + 3 + 4 +

F#|-----------------------------------------------------------------|
C#|-----------------------------------------------------------------|
G#|-5---5---5---5---5---5---5---------------------------------------|
D#|---------------------------------3---3---3---3---3---3---3---3---|
    1 + 2 + 3 + 4 + 1 + 2 + 3 + 4 + 1 + 2 + 3 + 4 + 1 + 2 + 3 + 4 +

F#|-----------------------------------------------------------------|
C#|-----------------------------------------------------------------|
G#|-1---1---1---1---1---1---1---1-------------------3---3---3-------|
D#|---------------------------------1---1---1-----------------------|
    1 + 2 + 3 + 4 + 1 + 2 + 3 + 4 + 1 + 2 + 3 + 4 + 1 + 2 + 3 + 4 +

Solo 2:07
F#|-------------------------------------------------------------------|
C#|o-----------------------------------------------------------------o|
G#|o-1---1---1---1---1---0-------5-------5---5---5---5---5---5---5---o|
D#|--------------------------3----------------------------------------|
     1 + 2 + 3 + 4 + 1 + 2 + 3 + 4 + 1 + 2 + 3 + 4 + 1 + 2 + 3 + 4 +

F#|-------------------------------------------------------------------|
C#|--------------------------------------------------------------10---|
G#|-1-------1-------1---0-------5-------5---5---5---5---5-/-10--------|
D#|-------------------------3-----------------------------------------|
    1 + 2 + 3 + 4 + 1 + 2 + 3 + 4 + 1 + 2 + 3 + 4 + 1 + 2 + 3  + 4  +

F#|--------------------------------------------------------------------------------|
C#|-----10---10---10---10---10---10---10---10---10---10---10---10---10---10---10---|
G#|--------------------------------------------------------------------------------|
D#|--------------------------------------------------------------------------------|
    1 + 2  + 3  + 4  + 1  + 2  + 3  + 4  + 1  + 2  + 3  + 4  + 1  + 2  + 3  + 4  +

2:20
F#|-10-------------------------------9--------------------------------|
C#|-12-------------------------------10-------------------------------|
G#|-------------------------------------------------------------------|
D#|-------------------------------------------------------------------|
    1  + 2 + 3 + 4 + 1 + 2 + 3 + 4 + 1  + 2 + 3 + 4 + 1 + 2 + 3 + 4 +

F#|-7----------------------------------------10-----------------------|
C#|-8-----------------------------------10----------------------------|
G#|---------------------------------8-------------7-------5---7---8---|
D#|-------------------------------------------------------------------|
    1 + 2 + 3 + 4 + 1 + 2 + 3 + 4 + 1 + 2  + 3  + 4 + 1 + 2 + 3 + 4 +

Interlude 2:26
F#|------------------------------------------------------------------|
C#|o-----------------------------------------------------------------|
G#|o-3-----5---------------------------------------------------------|
D#|------------------------------------------------------------------|
     1 + 2 + 3 + 4 + 1 + 2 + 3 + 4 + 1 + 2 + 3 + 4 + 1 + 2 + 3 + 4 +

F#|------------------------------------------------------------------|
C#|-----------------------------------------------------------------o|
G#|-----------------------------------------------------------------o|
D#|------------------------------------------------------------------|
    1 + 2 + 3 + 4 + 1 + 2 + 3 + 4 + 1 + 2 + 3 + 4 + 1 + 2 + 3 + 4 +

2:40
F#|-----------------------------------------------------------------|
C#|-----------------------------------------------------------------|
G#|-3-----5---------------------------------------------------------|
D#|-----------------------------------------------------------------|
    1 + 2 + 3 + 4 + 1 + 2 + 3 + 4 + 1 + 2 + 3 + 4 + 1 + 2 + 3 + 4 +

F#|-----------------------------------------------------------------|
C#|-----------------------------------------------------------------|
G#|---------------------------------3-----5-------------------------|
D#|---------------------------------------------3-------------------|
    1 + 2 + 3 + 4 + 1 + 2 + 3 + 4 + 1 + 2 + 3 + 4 + 1 + 2 + 3 + 4 +

Hold

Chorus 2:51
F#|-----------------------------------------------------------------|
C#|-----------------------------------------------------------------|
G#|-5---5-5---5-5---5---5-5---5-5-----------------------------------|
D#|---------------------------------3---3-3---3-3---3---3-3---3-3---|
    1 + 2 + 3 + 4 + 1 + 2 + 3 + 4 + 1 + 2 + 3 + 4 + 1 + 2 + 3 + 4 +

F#|-----------------------------------------------------------------|
C#|-----------------------------------------------------------------|
G#|-1---1-1---1-1---1---1-1---1-1-----------------------------------|
D#|---------------------------------1---1-1---1-1---3---3---3---3---|
    1 + 2 + 3 + 4 + 1 + 2 + 3 + 4 + 1 + 2 + 3 + 4 + 1 + 2 + 3 + 4 +

2:57
F#|-----------------------------------------------------------------|
C#|--------------------------------/5---5-5---5-5---5---5-5---5-5---|
G#|-5---5-5---5-5---5---5-5---5-5-----------------------------------|
D#|-----------------------------------------------------------------|
    1 + 2 + 3 + 4 + 1 + 2 + 3 + 4 + 1 + 2 + 3 + 4 + 1 + 2 + 3 + 4 +

F#|-----------------------------------------------------------------|
C#|---------------------------------3---3---3-3-3-------------------|
G#|-1---1-1---1-1---1---1-1---1-1-------------------3---3---3-3-3---|
D#|-----------------------------------------------------------------|
    1 + 2 + 3 + 4 + 1 + 2 + 3 + 4 + 1 + 2 + 3 + 4 + 1 + 2 + 3 + 4 +

3:06
F#|-----------------------------------------------------------------|
C#|-----------------------------------------------------------------|
G#|-5---5---5---5---5---5---5---5-----------------------------------|
D#|---------------------------------3---3---3---3---3---3---3---3---|
    1 + 2 + 3 + 4 + 1 + 2 + 3 + 4 + 1 + 2 + 3 + 4 + 1 + 2 + 3 + 4 +

F#|-----------------------------------------------------------------|
C#|-----------------------------------------------------------------|
G#|-1---1---1---1---1---1---1---1-----------------------------------|
D#|---------------------------------1---1---1---1---3---3---3---3---|
    1 + 2 + 3 + 4 + 1 + 2 + 3 + 4 + 1 + 2 + 3 + 4 + 1 + 2 + 3 + 4 +

F#|-----------------------------------------------------------------|
C#|-----------------------------------------------------------------|
G#|-5---5---5---5---5---5---5---5-----------------------------------|
D#|---------------------------------3---3---3---3---3---3---3---3---|
    1 + 2 + 3 + 4 + 1 + 2 + 3 + 4 + 1 + 2 + 3 + 4 + 1 + 2 + 3 + 4 +

F#|-----------------------------------------------------------------|
C#|-----------------------------------------------------------------|
G#|-1---1---1---1---1---1---1---1---3---3---3---3---3---3---3---3---|
D#|-----------------------------------------------------------------|
    1 + 2 + 3 + 4 + 1 + 2 + 3 + 4 + 1 + 2 + 3 + 4 + 1 + 2 + 3 + 4 +

3:18
F#|-----------------------------------------------------------------|
C#|-3---3---3---3---3---2---0---3---5---5---5---5---5---5---5---5---|
G#|-----------------------------------------------------------------|
D#|-----------------------------------------------------------------|
    1 + 2 + 3 + 4 + 1 + 2 + 3 + 4 + 1 + 2 + 3 + 4 + 1 + 2 + 3 + 4 +

F#|---------------------------------5---5---5---5---5---5-----------|
C#|-8---8---8---8---8---7---5---8---------------------------5-------|
G#|-------------------------------------------------------------3---|
D#|-----------------------------------------------------------------|
    1 + 2 + 3 + 4 + 1 + 2 + 3 + 4 + 1 + 2 + 3 + 4 + 1 + 2 + 3 + 4 +

F#|-----------------------------------------------------------------|
C#|-----------------------------------------------------------------|
G#|-5---------------------------------------------------------------|
D#|-----------------------------------------------------------------|
    1 + 2 + 3 + 4 + 1 + 2 + 3 + 4 + 1 + 2 + 3 + 4 + 1 + 2 + 3 + 4 +
Tabbed by Dave Vucko

================================================================================

I Don't Want To Be Here Anymore

Intro 0:06
G|-----------------------------------------------------------------|
D|-----------------------------------------------------------------|
A|-----------------0-0-0-0-0-0-0-0/7-7-7-7-7-7-7-7-5-5-5-4-4-4-2-2-|
E|-2-2-2-2-2-2-2-2-------------------------------------------------|
   1 + 2 + 3 + 4 + 1 + 2 + 3 + 4 + 1 + 2 + 3 + 4 + 1 + 2 + 3 + 4 +

G|-----------------------------------------------------------------|
D|-----------------------------------------------------------------|
A|-----------------0-0-0-0-0-0-0-0/7-7-7-7-7-7-7-7-2-2-2-2-4-2-0-2-|
E|-2-2-2-2-2-2-2-2-------------------------------------------------|
   1 + 2 + 3 + 4 + 1 + 2 + 3 + 4 + 1 + 2 + 3 + 4 + 1 + 2 + 3 + 4 +

G|-----------------------------------------------------------------|
D|-----------------------------------------------------------------|
A|-----------------0-0-0-0-0-0-0-0/7-7-7-7-7-7-7-7-5-5-5-5-5-5-5-5-|
E|-2-2-2-2-2-2-2-2-------------------------------------------------|
   1 + 2 + 3 + 4 + 1 + 2 + 3 + 4 + 1 + 2 + 3 + 4 + 1 + 2 + 3 + 4 +

G|-----------------------------------------------------------------|
D|---------------------------------------------------------2--2--2-|
A|-2-2-2-2-2-2-2-2-4-4-4-4-7-7-7-7---------------------------------|
E|---------------------------------2-22-20-2-22-20-2-22-20---------|
   1 + 2 + 3 + 4 + 1 + 2 + 3 + 4 + 1 + 2 + 3 + 4 + 1 + 2 + Triplet

Verse 0:29
G|-----------------------------------------------------------------|
D|-----------------------------------------------------------------|
A|-----------------0-00-00-0-00-00---------2-22-2------------------|
E|-2-22-22-2-22-22-----------------0-00-00-------0-2-22-22-2-22-22-|
   1 + 2 + 3 + 4 + 1 + 2 + 3 + 4 + 1 + 2 + 3 + 4 + 1 + 2 + 3 + 4 +

G|-----------------------------------------------------------------|
D|-----------------------------------------------------------------|
A|-----------------0-00-00---------2-22-22-2-22-22-2-22-22-4--5--4-|
E|-2-22-22-2-22-22---------0-00-00---------------------------------|
   1 + 2 + 3 + 4 + 1 + 2 + 3 + 4 + 1 + 2 + 3 + 4 + 1 + 2 + Triplet

G|-----------------------------------------------------------------|
D|-----------------------------------------------------------------|
A|-----------------0-00-00-0-00-00---------2-22-2------------------|
E|-r-2---2-2-22-22-----------------0-00-00-------0-2-22-22-2222222-|
   1 + 2 + 3 + 4 + 1 + 2 + 3 + 4 + 1 + 2 + 3 + 4 + 1 + 2 + 3 + 4 +

G|-----------------------------------------------------------------|
D|-----------------------------------------------------------------|
A|-----------------0-00-00---------2-22-22-2-22-22-2-22-22-4--5--4-|
E|-r-2---2-2-22-22---------0-00-00---------------------------------|
   1 + 2 + 3 + 4 + 1 + 2 + 3 + 4 + 1 + 2 + 3 + 4 + 1 + 2 + Triplet

Pre Chorus 0:54
G|-----------------------------------------------------------------|
D|-----------------------------------------------------------------|
A|-0-0-----2-2---------------------0-0-----2-2-----------------2-/-|
E|-----------------2-2-----------------------------2-2-------------|
   1 + 2 + 3 + 4 + 1 + 2 + 3 + 4 + 1 + 2 + 3 + 4 + 1 + 2 + 3 + 4 +

G|-----------------------------------------------------------------|
D|-------------------------------------------------2-2-2-2-2-2-2-2-|
A|-9-9-9-9-9-9-9-9-9-9-9-9-2-2-2-2-4-4-4-4-4-4-4-4-----------------|
E|-----------------------------------------------------------------|
   1 + 2 + 3 + 4 + 1 + 2 + 3 + 4 + 1 + 2 + 3 + 4 + 1 + 2 + 3 + 4 +

G|-----------------------------------------------------------------|
D|-----------------------------------------------------------------|
A|-----------------------------------------------------------------|
E|-2---------------------------------------------------------------|
   1 + 2 + 3 + 4 + 1 + 2 + 3 + 4 + 1 + 2 + 3 + 4 + 1 + 2 + 3 + 4 +

G|-----------------------------------------------------------------|
D|-----------------------------------------------------------------|
A|-----------------------------------------------------------------|
E|-----------------------------------------------------------------|
   1 + 2 + 3 + 4 + 1 + 2 + 3 + 4 + 1 + 2 + 3 + 4 + 1 + 2 + 3 + 4 +

Chorus 1:18
G|-----------------------------------------------------------------|
D|-----------------------------------------------------------------|
A|-----------------0-0-0-0-0-0-0-0/7-7-7-7-7-7-7-7-5-5-5-4-4-4-2-2-|
E|-2---2-2-2-2-2-2-------------------------------------------------|
   1 + 2 + 3 + 4 + 1 + 2 + 3 + 4 + 1 + 2 + 3 + 4 + 1 + 2 + 3 + 4 +

G|-----------------------------------------------------------------|
D|-----------------------------------------------------------------|
A|-----------------0-0-0-0-0-0-0-0/7-7-7-7-7-7-7-7-2-2-2-2---------|
E|-2-2-2-2-2-2-2-2-------------------------------------------------|
   1 + 2 + 3 + 4 + 1 + 2 + 3 + 4 + 1 + 2 + 3 + 4 + 1 + 2 + 3 + 4 +

G|-----------------------------------------------------------------|
D|-4-4-4-------4-4-2-2---------0-0-2-2-2-4-4-4-2-2-0-0-------------|
A|-------4-4-4---------0-0-4-4-------------------------4-4-2-2-0-0-|
E|-----------------------------------------------------------------|
   1 + 2 + 3 + 4 + 1 + 2 + 3 + 4 + 1 + 2 + 3 + 4 + 1 + 2 + 3 + 4 +

G|-----------------------------------------------------------------|
D|-----------------------------------------------------------------|
A|-----------------5-5-5-4-4-4-2-2-0-0-0-0-0-0-0-4-2---------------|
E|-2---2-2-2-2-2-2-------------------------------------------------|
   1 + 2 + 3 + 4 + 1 + 2 + 3 + 4 + 1 + 2 + 3 + 4 + 1 + 2 + 3 + 4 +

Interlude
G|---------------------------------|
D|-------------------------2--2--2-|
A|---------------------------------|
E|-2-22-20-2-22-20-2-22-20---------|
   1 + 2 + 3 + 4 + 1 + 2 + Triplet

Verse 1:45
G|-----------------------------------------------------------------|
D|-----------------------------------------------------------------|
A|-----------------0-00-00-0-00-00---------2-22-2------------------|
E|-2-22-22-2-22-22-----------------0-00-00-------0-2-22-22-2-22-22-|
   1 + 2 + 3 + 4 + 1 + 2 + 3 + 4 + 1 + 2 + 3 + 4 + 1 + 2 + 3 + 4 +

G|-----------------------------------------------------------------|
D|-----------------------------------------------------------------|
A|-----------------0-00-00---------2-22-22-2-22-22-2-22-22-4-------|
E|-2-22-22-2-22-22---------0-00-00---------------------------------|
   1 + 2 + 3 + 4 + 1 + 2 + 3 + 4 + 1 + 2 + 3 + 4 + 1 + 2 + 3 + 4 +

Pre Chorus 1:58
G|-----------------------------------------------------------------|
D|-----------------------------------------------------------------|
A|-0-0-----2-2---------------------0-0-----2-2-----------------2-/-|
E|-----------------2-2-----------------------------2-2-------------|
   1 + 2 + 3 + 4 + 1 + 2 + 3 + 4 + 1 + 2 + 3 + 4 + 1 + 2 + 3 + 4 +

G|-----------------------------------------------------------------|
D|-------------------------------------------------2-2-2-2-2-2-2-2-|
A|-9-9-9-9-9-9-9-9-9-9-9-9-2-2-2-2-4-4-4-4-4-4-4-4-----------------|
E|-----------------------------------------------------------------|
   1 + 2 + 3 + 4 + 1 + 2 + 3 + 4 + 1 + 2 + 3 + 4 + 1 + 2 + 3 + 4 +

Chorus 2:10
G|-----------------------------------------------------------------|
D|-----------------------------------------------------------------|
A|-----------------0-0-0-0-0-0-0-0/7-7-7-7-7-7-7-7-5-5-5-4-4-4-2---|
E|-2-2-2-2-2-2-2-2-------------------------------------------------|
   1 + 2 + 3 + 4 + 1 + 2 + 3 + 4 + 1 + 2 + 3 + 4 + 1 + 2 + 3 + 4 +

G|-----------------------------------------------------------------|
D|-----------------------------------------------------------------|
A|-----------------0-0-0-0-0-0-0-0/7-7-7-7-7-7-7-7-2-2-2-2-4-------|
E|-2---2-2-2-2-2-2-------------------------------------------------|
   1 + 2 + 3 + 4 + 1 + 2 + 3 + 4 + 1 + 2 + 3 + 4 + 1 + 2 + 3 + 4 +

G|-----------------------------------------------------------------|
D|-4-4-4-------4-4-2-2---------0-0-2-2-2-4-4-4-2-2-0-0-------------|
A|-------4-4-4---------0-0-4-4-------------------------4-4-2-2-0-0-|
E|-----------------------------------------------------------------|
   1 + 2 + 3 + 4 + 1 + 2 + 3 + 4 + 1 + 2 + 3 + 4 + 1 + 2 + 3 + 4 +

G|-----------------------------------------------------------------|
D|-4-4-4-------4-4-2-2-----7-7-6-6-2-2-2-4-4-4-2-2-4-4-6-4-7-6-4---|
A|-------4-4-4---------4-4---------------------------------------7-|
E|-----------------------------------------------------------------|
   1 + 2 + 3 + 4 + 1 + 2 + 3 + 4 + 1 + 2 + 3 + 4 + 1 + 2 + 3 + 4 +

Bridge 
G|-----------------------------------------------------------------|
D|-----------------------------------------------------------------|
A|-5---5-5-5---5-5-------------------------------------0-0-2-2-4-4-|
E|-----------------0---0---0---0---2-2-2-2-2-2-2-2-2-2-------------|
   1 + 2 + 3 + 4 + 1 + 2 + 3 + 4 + 1 + 2 + 3 + 4 + 1 + 2 + 3 + 4 +

G|------------------------------------------------------------------|
D|-----------------------------------------7---7-9-11-9-7-9-7-------|
A|-5-5-5-5-5-5-5-5-7---7-7-7-7-7-7-9-9-9-9---9----------------9-7---|
E|----------------------------------------------------------------9-|
   1 + 2 + 3 + 4 + 1 + 2 + 3 + 4 + 1 + 2 + 3 + 4 + 1  + 2 + 3 + 4 +

G|-----------------------------------------------------------------|
D|-----------------------------------------------------------------|
A|---------------------------------2-2-2-2-2-2-2-2-------------2-4-|
E|-5---5-5-5---5-5-0-0-0-0-0-0-0-0-----------------2-2-2-2-2-2-----|
   1 + 2 + 3 + 4 + 1 + 2 + 3 + 4 + 1 + 2 + 3 + 4 + 1 + 2 + 3 + 4 +

G|-----------------------------------------------------------------|
D|-----------------------------------------------------------------|
A|-5-5-5-5-5-5-5-5-5-5-4-4-2---5-5-7---7-7-7-7-7-7-7-7-7-7-7-7-7-7-|
E|-----------------------------------------------------------------|
   1 + 2 + 3 + 4 + 1 + 2 + 3 + 4 + 1 + 2 + 3 + 4 + 1 + 2 + 3 + 4 +

Interlude 2:58
G|-------------------------------------------------------------------|
D|o-----------------------------------------------------------------o|
A|o----------------/5---5---5---5---0---0---0---0-------------------o|
E|--2---2---2---2-----------------------------------0---0---0---0----|
    1 + 2 + 3 + 4 + 1 + 2 + 3 + 4 + 1 + 2 + 3 + 4 + 1 + 2 + 3 + 4 +

G|-----------------------------------------------------------------|
D|-----------------------------------------------------------------|
A|-----------------------------------------------------------------|
E|-2---------------------------------------------------------------|
   1 + 2 + 3 + 4 + 1 + 2 + 3 + 4 + 1 + 2 + 3 + 4 + 1 + 2 + 3 + 4 +

G|-----------------------------------------------------------------|
D|-----------------------------------------------------------------|
A|-----------------------------------------------------------------|
E|-----------------------------------------------------------------|
   1 + 2 + 3 + 4 + 1 + 2 + 3 + 4 + 1 + 2 + 3 + 4 + 1 + 2 + 3 + 4 +

Chorus 3:22
G|-------------------------------------------------7-7-6-6---------|
D|---------------------------------------------9-9---------9-9-7-7-|
A|-----------------0-0-0-0-0-0-0-0/7-7-7-7-7-7---------------------|
E|-2-2-2-2-2-2-2-2-------------------------------------------------|
   1 + 2 + 3 + 4 + 1 + 2 + 3 + 4 + 1 + 2 + 3 + 4 + 1 + 2 + 3 + 4 +

G|-----------------------------------------------------------------|
D|-------------6-6-7-7-7-6-6-6-7-7-------------6-6-7-7-6-6---------|
A|-9-9-9-9-9-9---------------------7-7-7-9-9-9-------------9-9-7-7-|
E|-----------------------------------------------------------------|
   1 + 2 + 3 + 4 + 1 + 2 + 3 + 4 + 1 + 2 + 3 + 4 + 1 + 2 + 3 + 4 +

G|-----------------------------------------------------------------|
D|-4-4-4-------4-4-2-2---------0-0-2-2-2-4-4-4-2-2-0-0-------------|
A|-------4-4-4---------0-0-4-4-------------------------4-4-2-2-0-0-|
E|-----------------------------------------------------------------|
   1 + 2 + 3 + 4 + 1 + 2 + 3 + 4 + 1 + 2 + 3 + 4 + 1 + 2 + 3 + 4 +

G|-----------------------------------------------------------------|
D|-4-4-4-------4-4-2-2-----7-7-6-6-2-2-2-4-4-4-2-2-4-4-6-4-7-6-4---|
A|-------4-4-4---------4-4---------------------------------------7-|
E|-----------------------------------------------------------------|
   1 + 2 + 3 + 4 + 1 + 2 + 3 + 4 + 1 + 2 + 3 + 4 + 1 + 2 + 3 + 4 +

Outro 3:46
G|-----------------------------------------------------------------|
D|-----------------------------------------------------------------|
A|-----------------0-0-0-0-0-0-0-0-----------------5-5-5-5-5-5-5-5-|
E|-2-2-2-2-2-2-2-2-----------------0-0-0-0-0-0-0-0-----------------|
   1 + 2 + 3 + 4 + 1 + 2 + 3 + 4 + 1 + 2 + 3 + 4 + 1 + 2 + 3 + 4 +

G|-----------------------------------------------------------------|
D|-----------------------------------------------------------------|
A|-----------------0-0-0-0-0-0-0-0-----------------5-5-5-5-5-\-----|
E|-2-2-2-2-2-2-2-2-----------------0-0-0-0-0-0-0-0-----------------|
   1 + 2 + 3 + 4 + 1 + 2 + 3 + 4 + 1 + 2 + 3 + 4 + 1 + 2 + 3 + 4 +
Tabbed by Dave Vucko

================================================================================

Tragedy + Time

0:04
F#|-------------------------------------------------------------------------|
C#|-------------------------------------------------------------------------|
G#|-0-------------------------------2-2-2-0---0-0-0-0-0-0-0-0-0-0-0-2-2-2-4-|
D#|---4-2-0---0-0-0-0-0-0-0-0-0-0-0-----------------------------------------|
    3 + 4 + 1 + 2 + 3 + 4 + 1 + 2 + 3 + 4 + 1 + 2 + 3 + 4 + 1 + 2 + 3 + 4 +

F#|-----------------------------------------------------------------|
C#|-----------------------------------------------------------------|
G#|---4-4-4-4-4-4-2---2-2-2-2-2-2-0---0-0-0-0-0-0-0-0-0-0-0---------|
D#|-----------------------------------------------------------------|
    1 + 2 + 3 + 4 + 1 + 2 + 3 + 4 + 1 + 2 + 3 + 4 + 1 + 2 + 3 + 4 +

F#|-----------------------------------------------------------------|
C#|-----------------------------------------------------------------|
G#|---7-7---7-7-7-7-7-7-7-7-2-2-2-0---0-0-0-0-0-0-0-0-0-0-0-2-2-2-4-|
D#|-----------------------------------------------------------------|
    1 + 2 + 3 + 4 + 1 + 2 + 3 + 4 + 1 + 2 + 3 + 4 + 1 + 2 + 3 + 4 +

F#|-----------------------------------------------------------------|
C#|-----------------------------------------------------------------|
G#|---4-4-4-4-4-4-2---2-2-2-2-2-2-2---------------------------------|
D#|-----------------------------------------------------------------|
    1 + 2 + 3 + 4 + 1 + 2 + 3 + 4 + 1 + 2 + 3 + 4 + 1 + 2 + 3 + 4 +

Verse 0:27
F#|-----------------------------------------------------------------|
C#|-----------------------------------------------------------------|
G#|-4---4-4-4-4-4-4-4-4-4-4-4-4-4-4-2-2-2-2-2-2-2-2-2-2-2-2-2-2-----|
D#|-------------------------------------------------------------2-2-|
    1 + 2 + 3 + 4 + 1 + 2 + 3 + 4 + 1 + 2 + 3 + 4 + 1 + 2 + 3 + 4 +

F#|-----------------------------------------------------------------|
C#|-----------------------------------------------------------------|
G#|---------------------------------0-0-0-0-0-0-0-0-0-0-0-0-0-0-0-0-|
D#|-4-4-4-4-4-4-4-4-4-4-4-4-4-4-4-4---------------------------------|
    1 + 2 + 3 + 4 + 1 + 2 + 3 + 4 + 1 + 2 + 3 + 4 + 1 + 2 + 3 + 4 +

F#|-----------------------------------------------------------------|
C#|-----------------------------------------------------------------|
G#|-4---4-4-4-4-4-4-6-6-6-6-7-7-7-7-2-2-2-2-2-2-2-2-6-6-6-6-7-7-7-7-|
D#|-----------------------------------------------------------------|
    1 + 2 + 3 + 4 + 1 + 2 + 3 + 4 + 1 + 2 + 3 + 4 + 1 + 2 + 3 + 4 +

F#|-----------------------------------------------------------------|
C#|---------------------------------7-7-7-7-7-7-7-7-7-7-6-6-4-4-6-4-|
G#|-0---0---0---0-0-0---0---0-0-0-0---------------------------------|
D#|-----------------------------------------------------------------|
    1 + 2 + 3 + 4 + 1 + 2 + 3 + 4 + 1 + 2 + 3 + 4 + 1 + 2 + 3 + 4 +

Pre Chorus 0:49
F#|-----------------------------------------------------------------|
C#|-----------------------------------------6-6-6-6-------------4-4-|
G#|-----------------0-0---0-0-0---2---2-2-2---------6-6-6-6-7-7-----|
D#|-4-4---4-4-4---4-------------------------------------------------|
    1 + 2 + 3 + 4 + 1 + 2 + 3 + 4 + 1 + 2 + 3 + 4 + 1 + 2 + 3 + 4 +

F#|-----------------------------------------------------------------|
C#|-----------------------------------------------------------------|
G#|-----------------0-0---0-0-4-0-2---2-----6-6-4-0-2---------------|
D#|-4-4---4-4-4---4---------------------0-0-------------------------|
    1 + 2 + 3 + 4 + 1 + 2 + 3 + 4 + 1 + 2 + 3 + 4 + 1 + 2 + 3 + 4 +

Chorus 1:00
F#|-----------------------------------------------------------------|
C#|-----------------------------------------------------------------|
G#|-------------------------2-2-2-0---0-0-0-0-0-0---0-0-0---2-2-2-4-|
D#|-0---0-0-0-0-0-0-0-0-0-------------------------------------------|
    1 + 2 + 3 + 4 + 1 + 2 + 3 + 4 + 1 + 2 + 3 + 4 + 1 + 2 + 3 + 4 +

F#|-----------------------------------------------------------------|
C#|-----------------------------------------------------------------|
G#|---4-4---4-4-4-2---2-2---2-2-2-0---0-0-0-0-0-0-0-0-0-0-0-0-------|
D#|-----------------------------------------------------------4-2-0-|
    1 + 2 + 3 + 4 + 1 + 2 + 3 + 4 + 1 + 2 + 3 + 4 + 1 + 2 + 3 + 4 +

F#|-----------------------------------------------------------------|
C#|-----------------------------------------------------------------|
G#|-----7---7-7-7---7-7-7---2-2-2-0---0-0-0-0-0-0-0-0-0-0-0-2-2-2-4-|
D#|-----------------------------------------------------------------|
    1 + 2 + 3 + 4 + 1 + 2 + 3 + 4 + 1 + 2 + 3 + 4 + 1 + 2 + 3 + 4 +

F#|-----------------------------------------------------------------|
C#|-----------------------------------------------------------------|
G#|---4-4-4-4-4-4-2---2-2-2-2-2-2-0---0-0---0-0-0-0-2-2-2-2-2-2-2-2-|
D#|-----------------------------------------------------------------|
    1 + 2 + 3 + 4 + 1 + 2 + 3 + 4 + 1 + 2 + 3 + 4 + 1 + 2 + 3 + 4 +

1:22
F#|-----------------6-6---6-4-4---4---------------------------------|
C#|-6-6---6-7-7---7-----------------6-6---6-7-7---7-----------------|
G#|-----------------------------------------------------------------|
D#|-----------------------------------------------------------------|
    1 + 2 + 3 + 4 + 1 + 2 + 3 + 4 + 1 + 2 + 3 + 4 + 1 + 2 + 3 + 4 +

Verse 1:27
F#|-----------------------------------------------------------------|
C#|-----------------------------------------------------------------|
G#|-4-4-4-4-4-4-4-4-4-4-4-4-4-4-4-4-2-2-2-2-2-2-2-2-2-2-2-2-2-2-----|
D#|-------------------------------------------------------------2-2-|
    1 + 2 + 3 + 4 + 1 + 2 + 3 + 4 + 1 + 2 + 3 + 4 + 1 + 2 + 3 + 4 +

F#|-----------------------------------------------------------------|
C#|-----------------------------------------------------------------|
G#|---------------------------------0---0-0-0-0-0-0-0-0-0-0-0-0-0-0-|
D#|-4---4-4-4-4-4-4-4-4-2-2-0-0-2-2---------------------------------|
    1 + 2 + 3 + 4 + 1 + 2 + 3 + 4 + 1 + 2 + 3 + 4 + 1 + 2 + 3 + 4 +

1:38
F#|-----------------------------------------------------------------|
C#|-----------------------------------------------------------------|
G#|-4-4-4-4-4-4-4-4-6-6-6-6-7-7-7-7-2-2-2-2-2-2-2-2-6-6-6-6-7-7-7-7-|
D#|-----------------------------------------------------------------|
    1 + 2 + 3 + 4 + 1 + 2 + 3 + 4 + 1 + 2 + 3 + 4 + 1 + 2 + 3 + 4 +

F#|-----------------------------------------------------------------|
C#|/7-7-7-7-7-7-7-7-7-7-7-7-7-7-7-7-7-7-7-7-7-7-7-7-7-7-6-6-4-4-6-4-|
G#|-----------------------------------------------------------------|
D#|-----------------------------------------------------------------|
    1 + 2 + 3 + 4 + 1 + 2 + 3 + 4 + 1 + 2 + 3 + 4 + 1 + 2 + 3 + 4 +

Pre Chorus 1:49
F#|-------------------------------------2---------------------------|
C#|-----------------------------------------1-2-1-------6-4---------|
G#|-----------------0-0---0-0-0---2---2---2-------2-2-2-----7-6-4---|
D#|-4-4---4-4-4---4-----------------------------------------------7-|
    1 + 2 + 3 + 4 + 1 + 2 + 3 + 4 + 1 + 2 + 3 + 4 + 1 + 2 + 3 + 4 +

F#|-----------------------------------------------------------------|
C#|-----------------------------------------------------------------|
G#|-----------------0-0---0-0-4-0-2---2-2-2-----4-0-2---------------|
D#|-4-4---4-4-4---4-------------------------0-4---------------------|
    1 + 2 + 3 + 4 + 1 + 2 + 3 + 4 + 1 + 2 + 3 + 4 + 1 + 2 + 3 + 4 +

Chorus 2:00
F#|-----------------------------------------------------------------|
C#|-----------------------------------------------------------------|
G#|-------------------------2-2-2-0---0-0-0-0-0-0---0-0-0---2-2-2-4-|
D#|-0---0-0-0-0-0-0-0-0-0-------------------------------------------|
    1 + 2 + 3 + 4 + 1 + 2 + 3 + 4 + 1 + 2 + 3 + 4 + 1 + 2 + 3 + 4 +

F#|-----------------------------------------------------------------|
C#|-----------------------------------------------------------------|
G#|---4-4---4-4-4-2---2-2---2-2-2-0---0-0-0-0-0-0-0-0-0-0-0-0-------|
D#|-----------------------------------------------------------4-2-0-|
    1 + 2 + 3 + 4 + 1 + 2 + 3 + 4 + 1 + 2 + 3 + 4 + 1 + 2 + 3 + 4 +

F#|-----------------------------------------------------------------|
C#|-----------------------------------------------------------------|
G#|-----7---7-7-7-7-7-7-7---2-2-2-0---0-0-0-0-0-0-0-0-0-0-0-2-2-2-4-|
D#|-----------------------------------------------------------------|
    1 + 2 + 3 + 4 + 1 + 2 + 3 + 4 + 1 + 2 + 3 + 4 + 1 + 2 + 3 + 4 +

F#|-----------------------------------------------------------------|
C#|-----------------------------------------------------------------|
G#|---4-4-4-4-4-4-2---2-2-2-2-2-2-0---0-0-0-0-0-0-0-0-0-0-0-0-2-0-4-|
D#|-----------------------------------------------------------------|
    1 + 2 + 3 + 4 + 1 + 2 + 3 + 4 + 1 + 2 + 3 + 4 + 1 + 2 + 3 + 4 +

2:21
F#|-----------------------------------------------------------------|
C#|-----------------------------------------------------------------|
G#|-----4---4-----2-----2---2-----0-----0---0---0---2---2---2-0-4---|
D#|-----------------------------------------------------------------|
    1 + 2 + 3 + 4 + 1 + 2 + 3 + 4 + 1 + 2 + 3 + 4 + 1 + 2 + 3 + 4 +

F#|---------------------------------------------------------------------------------|
C#|---------------------------------------------------------------------------------|
G#|-0-------------------------------------------------------2-2---2---2-2-2---2---2-|
D#|---------------------------------------------------------------------------------|
    1 + 2 + 3 + 4 + 1 + 2 + 3 + 4 + 1 + 2 + 3 + 4 + 1 + 2 + 3 + 4 + 1 + 2 + 3 + 4 +

Bridge 2:33
F#|-------------------------------------------------------------------------------------------------|
C#|-------------------------------------------------------------------------------------------------|
G#|-------------0-0-0-0-0---4-4-4-4-----2-2-2-2-2---------------0---0---0---2---2-------------------|
D#|-4---4-4-----------------------------------------4-4-4-4-----------------------0---0-2---4---2---|
    1 + 2 + 3 + 1 + 2 + 3 + 1 + 2 + 3 + 1 + 2 + 3 + 1 + 2 + 3 + 1 + 2 + 3 + 1 + 2 + 3 + 1 + 2 + 3 +

F#|-------------------------------------------------------------------------------------------------|
C#|-------------------------------------------------------------------------------------------------|
G#|-------------0-0-0-0-0---4-4-4-4-----2-2-2-2-2---------------0---0---0---2---2---0---7-----------|
D#|-4-4-4-4-----------------------------------------4-4-4-4---------------------------------7---4---|
    1 + 2 + 3 + 1 + 2 + 3 + 1 + 2 + 3 + 1 + 2 + 3 + 1 + 2 + 3 + 1 + 2 + 3 + 1 + 2 + 3 + 1 + 2 + 3 +

2:48
F#|-------------------------------------------------------------------------------------------------|
C#|-------------2---1---2-------------------------------------------4---6---------------------------|
G#|-0-----------------------2-----------2---0-------4-----------7-----------7-----------------------|
D#|---------------------------------------------4-----------------------------------0---0---2---4---|
    1 + 2 + 3 + 1 + 2 + 3 + 1 + 2 + 3 + 1 + 2 + 3 + 1 + 2 + 3 + 1 + 2 + 3 + 1 + 2 + 3 + 1 + 2 + 3 +

F#|-------------------------------------------------------------------------------------------------|
C#|-------------2---1---2-------------------------------------------4-------6---4-------4-----------|
G#|-0-----------------------2-----------2---0-------4-----------7-------7-----------7-------7---6---|
D#|---------------------------------------------4---------------------------------------------------|
    1 + 2 + 3 + 1 + 2 + 3 + 1 + 2 + 3 + 1 + 2 + 3 + 1 + 2 + 3 + 1 + 2 + 3 + 1 + 2 + 3 + 1 + 2 + 3 +

3:01
F#|-------------------------------------------------------------------------------------------------|
C#|-7-----------2---1---2---------------------------------------------------9---7---6---7---6-------|
G#|-------------------------2-----------2---0-------4-----------7---9---7-----------------------9---|
D#|---------------------------------------------4---------------------------------------------------|
    1 + 2 + 3 + 1 + 2 + 3 + 1 + 2 + 3 + 1 + 2 + 3 + 1 + 2 + 3 + 1 + 2 + 3 + 1 + 2 + 3 + 1 + 2 + 3 +

F#|-------------------------------------------------------------------------------------------------|
C#|-------------7---6---4---------------------------------------------------------------------------|
G#|-0-----------------------2-----------------------------------------------------------------------|
D#|-------------------------------------------------------------------------------------------------|
    1 + 2 + 3 + 1 + 2 + 3 + 1 + 2 + 3 + 1 + 2 + 3 + 1 + 2 + 3 + 1 + 2 + 3 + 1 + 2 + 3 + 1 + 2 + 3 +

Chorus3:13
F#|-----------------------------------------------------------------|
C#|-----------------------------------------------------------------|
G#|-------------------------2-2-2-0-0-0-0-0-0-0-0-0-0-0-0-0-2-2-2-4-|
D#|-----0-0-0-0-0-0-0-0-0-0-----------------------------------------|
    1 + 2 + 3 + 4 + 1 + 2 + 3 + 4 + 1 + 2 + 3 + 4 + 1 + 2 + 3 + 4 +

F#|-----------------------------------------------------------------|
C#|-----------------------------------------------------------------|
G#|---4-4-4-4-4-4-2---2-2-2-2-2-2-0---0-0-0-0-0-0-0-0-0-0-0-0-0-0-0-|
D#|-----------------------------------------------------------------|
    1 + 2 + 3 + 4 + 1 + 2 + 3 + 4 + 1 + 2 + 3 + 4 + 1 + 2 + 3 + 4 +

3:24
F#|-----------------------------------------------------------------|
C#|-----------------------------------------------------------------|
G#|-------------------------2-2-2-0-0-0-0-0-0-0-0-0-0-0-0-0-2-2-2-4-|
D#|-0-0-0-0-0-0-0-0-0-0-0-0-----------------------------------------|
    1 + 2 + 3 + 4 + 1 + 2 + 3 + 4 + 1 + 2 + 3 + 4 + 1 + 2 + 3 + 4 +

F#|-----------------------------------------------------------------|
C#|-----------------------------------------------------------------|
G#|-4-4-4-4-4-4-4-2-2-2-2-2-2-2-2-0-0-0-0-0-0-0-0-0-0-0-0-0-0-------|
D#|-----------------------------------------------------------4-2-0-|
    1 + 2 + 3 + 4 + 1 + 2 + 3 + 4 + 1 + 2 + 3 + 4 + 1 + 2 + 3 + 4 +

3:36
F#|-----------------------------------------------------------------|
C#|-----------------------------------------------------------------|
G#|-------------------------2-2-2-0---0-0-0-0-0-0-0-0-0-0-0-2-2-2-4-|
D#|-----0-0-0-0-0-0-0-0-0-0-----------------------------------------|
    1 + 2 + 3 + 4 + 1 + 2 + 3 + 4 + 1 + 2 + 3 + 4 + 1 + 2 + 3 + 4 +

F#|-----------------------------------------------------------------|
C#|-----------------------------------------------------------------|
G#|---4-4-4-4-4-4-2---2-2-2-2-2-2-0---0-0-0-0-0-0-0-0-0-0-0-0-------|
D#|-----------------------------------------------------------4-2-0-|
    1 + 2 + 3 + 4 + 1 + 2 + 3 + 4 + 1 + 2 + 3 + 4 + 1 + 2 + 3 + 4 +

F#|-----------------------------------------------------------------|
C#|-----------------------------------------------------------------|
G#|-----7---7-7-7-7-7-7-7-7-2-2-2-0---0-0-0-0-0-0-0-0-0-0-0-2-2-2-4-|
D#|-----------------------------------------------------------------|
    1 + 2 + 3 + 4 + 1 + 2 + 3 + 4 + 1 + 2 + 3 + 4 + 1 + 2 + 3 + 4 +

F#|-----------------------------------------------------------------|
C#|-----------------------------------------------------------------|
G#|-----4---4-4-4-2-----2---2-2-2-0---0-0---0-0-0-0-0-0-0-0-0-0-0-4-|
D#|-----------------------------------------------------------------|
    1 + 2 + 3 + 4 + 1 + 2 + 3 + 4 + 1 + 2 + 3 + 4 + 1 + 2 + 3 + 4 +

F#|-----------------------------------------------------------------|
C#|-----------------------------------------------/-7---7-6-6-4-4---|
G#|-----4---4-----6-----6---6-----7-----0---0---0-----------------7-|
D#|-----------------------------------------------------------------|
    1 + 2 + 3 + 4 + 1 + 2 + 3 + 4 + 1 + 2 + 3 + 4 + 1 + 2 + 3 + 4 +

F#|-----------------------------------------------------------------|
C#|-----------------------------------------------------------------|
G#|-4---------------2---------------0-------------------------------|
D#|-----------------------------------------------------------------|
    1 + 2 + 3 + 4 + 1 + 2 + 3 + 4 + 1 + 2 + 3 + 4 + 1 + 2 + 3 + 4 +
Tabbed by Dave Vucko

===============================================================================

The Black Market

Intro 0:07
F#|---------------------------------------------------------------------|
C#|---------------------------------------------------------------------|
G#|---------------------------------------------------------------------|
D#|-2-------------------------------------------------------------------|
    4 + 1 + 2 + 3 + 4 + 1 + 2 + 3 + 4 + 1 + 2 + 3 + 4 + 1 + 2 + 3 + 4 +

F#|-----------------------------------------------------------------|
C#|-----------------------------------------------------------------|
G#|-----------------------------------------------------------------|
D#|-0---------------2---------------0---------------2---------------|
    1 + 2 + 3 + 4 + 1 + 2 + 3 + 4 + 1 + 2 + 3 + 4 + 1 + 2 + 3 + 4 +

F#|---------------------------------|
C#|---------------------------------|
G#|-4-------------------------------|
D#|---------------------------------|
    
0:21
F#|-----------------------------------------------------------------|
C#|-----------------------------------------------------------------|
G#|-4---4---4-4-4-4---4-4---4-4-4---1---1---1-1-1-1-----------------|
D#|---------------------------------------------------2-2---2-2-2---|
    1 + 2 + 3 + 4 + 1 + 2 + 3 + 4 + 1 + 2 + 3 + 4 + 1 + 2 + 3 + 4 +

F#|-----------------------------------------------------------------|
C#|-----------------------------------------------------------------|
G#|-4-4-4-4-4-4-4-4-4-4-6-6-7-7-6-6-----1---1-1-1-1-----------------|
D#|---------------------------------------------------2-2---2-2-2---|
    1 + 2 + 3 + 4 + 1 + 2 + 3 + 4 + 1 + 2 + 3 + 4 + 1 + 2 + 3 + 4 +

Verse 0:29
F#|-------------------------------------------------------------------|
C#|o---------2-------------------------------------------------------o|x4
G#|o-2---4-------4-------2---4---------------------------------------o|
D#|------------------------------2------------------------------------|
     1 + 2 + 3 + 4 + 1 + 2 + 3 + 4 + 1 + 2 + 3 + 4 + 1 + 2 + 3 + 4 +

F#|-----------------------------------------------------------------|
C#|---------2-------------------------------------------------------|
G#|-2---4-------4-------2---4---------------------------------------|
D#|---------------------------------0---0---0-0-0-2---2-2---2-2-2---|
    1 + 2 + 3 + 4 + 1 + 2 + 3 + 4 + 1 + 2 + 3 + 4 + 1 + 2 + 3 + 4 +

F#|-----------------------------------------------------------------|
C#|-----------------------------------------------------------------|
G#|-------------------------------4---4-4-4-4-4-4-4-4-4-4-4-------0-|
D#|-0---0---0-0-0-2---2-2---2-2-2---------------------------2-2-----|
    1 + 2 + 3 + 4 + 1 + 2 + 3 + 4 + 1 + 2 + 3 + 4 + 1 + 2 + 3 + 4 +

Pre Chorus 0:55
F#|-----------------------------------------------------------------|
C#|-----------------------------------------------------------------|
G#|---0-0-0-0-0-0-0-0-0-0-0-0-0-0---------------------------------4-|
D#|-------------------------------2---2-2-2-2-2-2-2-2-2-2-2-2-2-2---|
    1 + 2 + 3 + 4 + 1 + 2 + 3 + 4 + 1 + 2 + 3 + 4 + 1 + 2 + 3 + 4 +

F#|-----------------------------------------------------------------|
C#|-----------------------------------------------------------------|
G#|---4-4---4---4---4---4---4-4-4-2---2-2-2-6-6-6-6-7-7-7-7-6-6-6-0-|
D#|-----------------------------------------------------------------|
    1 + 2 + 3 + 4 + 1 + 2 + 3 + 4 + 1 + 2 + 3 + 4 + 1 + 2 + 3 + 4 +

F#|-----------------------------------------------------------------|
C#|-----------------------------------------------------------------|
G#|---0-0-0-0-0-0-0-0-0-0-0-0-0-0-0-----------------2---------------|
D#|---------------------------------2-2-2-2-2-2-2-2-----------------|
    1 + 2 + 3 + 4 + 1 + 2 + 3 + 4 + 1 + 2 + 3 + 4 + 1 + 2 + 3 + 4 +

Chorus 1:08  Change tempo
F#|-----------------------------------------------------------------|
C#|-------------------------------------------------2-2-2-2-2-2-2-2-|
G#|-0-0-0-0-0-0-0-0-2-2-2-2-2-2-2-2-4-4-4-4-4-4-4-4-----------------|
D#|-----------------------------------------------------------------|
    1 + 2 + 3 + 4 + 1 + 2 + 3 + 4 + 1 + 2 + 3 + 4 + 1 + 2 + 3 + 4 +

F#|-----------------------------------------------------------------|
C#|-------------------------------------------------2---------------|
G#|-0-0-0-0-0-0-0-0-2-2-2-2-2-2-2-2-4-4-4-4-4-4-4-4-----------------|
D#|---------------------------------------------------0-0-0-2-2-4-4-|
    1 + 2 + 3 + 4 + 1 + 2 + 3 + 4 + 1 + 2 + 3 + 4 + 1 + 2 + 3 + 4 +

F#|-----------------------------------------------------------------|
C#|-------------------------------------------------2---------------|
G#|-0-0-0-0-0-0-0-0-2-2-2-2-2-2-2-2-4-4-4-4-4-4-4-4-----------------|
D#|---------------------------------------------------0-0-0-0-2-4-0-|
    1 + 2 + 3 + 4 + 1 + 2 + 3 + 4 + 1 + 2 + 3 + 4 + 1 + 2 + 3 + 4 +

F#|-------------------------------------------------------------------------|
C#|-------------------------------------------------------------------------|
G#|-0-0-0-0-0-0-0-0-2-2-2-2-2-2-2-------------------2-2-2-2-2-2-2-2-4-------|
D#|-------------------------------2-4-4-4-4-4-4-4-4-------------------------|
    1 + 2 + 3 + 4 + 1 + 2 + 3 + 4 + 1 + 2 + 3 + 4 + 1 + 2 + 3 + 4 + 1 + 2 +

Rest

Interlude 1:40 a tempo
F#|-----------------------------------------------------------------|
C#|---------2-----------------------4-------------------------------|
G#|-2---4-------4-------2---4-\-------------------------------------|
D#|-----------------------------------------------------------------|
    1 + 2 + 3 + 4 + 1 + 2 + 3 + 4 + 1 + 2 + 3 + 4 + 1 + 2 + 3 + 4 +

Verse 1:43
F#|-----------------------------------------------------------------|
C#|-----------------------------------------------------------------|
G#|-4---4---4-4-4-4---4-4---4-4-4---1---1---1-1-1-1-----------------|
D#|---------------------------------------------------2-2-2-2-2-2---|
    1 + 2 + 3 + 4 + 1 + 2 + 3 + 4 + 1 + 2 + 3 + 4 + 1 + 2 + 3 + 4 +

F#|-----------------------------------------------------------------|
C#|-----------------------------------------------------------------|
G#|-4---4---4-4-4-4---4-4---4-4-4-------1---1-1-1-1-----------------|
D#|---------------------------------------------------2-2-2-2-2-2---|
    1 + 2 + 3 + 4 + 1 + 2 + 3 + 4 + 1 + 2 + 3 + 4 + 1 + 2 + 3 + 4 +

1:53
F#|-----------------------------------------------------------------|
C#|---------2-2-----------------------------------------------------|
G#|-2---4-------4-4-----2---4---------------------------------------|
D#|---------------------------------0---0---0-0-0-2---2-2---2-2-2---|
    1 + 2 + 3 + 4 + 1 + 2 + 3 + 4 + 1 + 2 + 3 + 4 + 1 + 2 + 3 + 4 +

F#|-----------------------------------------------------------------|
C#|-----------------------------------------------------------------|
G#|-------------------------------4---4-4-4-4-4-4-4-4-4-4-4-------0-|
D#|-0---0---0-0-0-2---2-2---2-2-2---------------------------2-2-----|
    1 + 2 + 3 + 4 + 1 + 2 + 3 + 4 + 1 + 2 + 3 + 4 + 1 + 2 + 3 + 4 +

Pre Chorus 2:01
F#|-----------------------------------------------------------------|
C#|-----------------------------------------------------------------|
G#|---0-0-0-0-0-0-0-0-0-0-0-0-0-0---------------------------------4-|
D#|-------------------------------2---2-2-2-2-2-2-2-2-2-2-2-2-2-2---|
    1 + 2 + 3 + 4 + 1 + 2 + 3 + 4 + 1 + 2 + 3 + 4 + 1 + 2 + 3 + 4 +

F#|-----------------------------------------------------------------|
C#|-----------------------------------------------------------------|
G#|---4-4---4---4---4---4---4-4-4-2---2-2-2-6-6-6-6-7-7-7-7-9-9-9-0-|
D#|-----------------------------------------------------------------|
    1 + 2 + 3 + 4 + 1 + 2 + 3 + 4 + 1 + 2 + 3 + 4 + 1 + 2 + 3 + 4 +

F#|-----------------------------------------------------------------|
C#|-----------------------------------------------------------------|
G#|---0-0-0-0-0-0-0-0-0-0-0-0-0-0-0-----------------2---------------|
D#|---------------------------------2-2-2-2-2-2-2-2-----------------|
    1 + 2 + 3 + 4 + 1 + 2 + 3 + 4 + 1 + 2 + 3 + 4 + 1 + 2 + 3 + 4 +

Chorus 2:14 Change Tempo
F#|-----------------------------------------------------------------|
C#|-----------------------------2-1---------------1-2-2-2-2-2-2-2-2-|
G#|-0-0-0-0-0-0-0-0-2-2-2-2-2-2-----4-4-4-4-4-4-4-------------------|
D#|-----------------------------------------------------------------|
    1 + 2 + 3 + 4 + 1 + 2 + 3 + 4 + 1 + 2 + 3 + 4 + 1 + 2 + 3 + 4 +

F#|-----------------------------------------------------------------|
C#|-------------------------------------------------2---------------|
G#|-0-0-0-0-0-0-0-0-2-2-2-2-2-2-2-2-4-4-4-4-4-4-4-4-----------------|
D#|---------------------------------------------------0-0-0-2-2-4-4-|
    1 + 2 + 3 + 4 + 1 + 2 + 3 + 4 + 1 + 2 + 3 + 4 + 1 + 2 + 3 + 4 +

F#|-----------------------------------------------------------------|
C#|-------------------------------------------------2---------------|
G#|-0-0-0-0-0-0-0-0-2-2-2-2-2-2-2-2-4-4-4-4-4-4-4-4-----------------|
D#|---------------------------------------------------0-0-0-0-2-4-0-|
    1 + 2 + 3 + 4 + 1 + 2 + 3 + 4 + 1 + 2 + 3 + 4 + 1 + 2 + 3 + 4 +

F#|-----------------------------------------------------------------|
C#|-----------------------------------------------------------------|
G#|-0-0-0-0-0-0-0-0-2-2-2-2-2-2-2-------------------2-2-2-2-2-2-2-2-|
D#|-------------------------------2-4-4-4-4-4-4-4-4-----------------|
    1 + 2 + 3 + 4 + 1 + 2 + 3 + 4 + 1 + 2 + 3 + 4 + 1 + 2 + 3 + 4 + 

Solo 2:41
F#|-----------------------------------------------------------------|
C#|-------------------------------------------4-6-------------4-6---|
G#|-4-4-4-4-4-4-4-4-4-4-4-4-4-4-4-4-7-7-7-7-7-----7-7-7-7-7-7-----7-|
D#|-----------------------------------------------------------------|
    1 + 2 + 3 + 4 + 1 + 2 + 3 + 4 + 1 + 2 + 3 + 4 + 1 + 2 + 3 + 4 +

F#|-----------------------------------------------------------------|
C#|-----------------------------2-----------------------------------|
G#|-2-2-2-2-2-2-2-2-2-2-2-2-2-4---2-0-0-0-0-0-0-0-0-0-------2-0-----|
D#|---------------------------------------------------4-2-0-----4-2-|
    1 + 2 + 3 + 4 + 1 + 2 + 3 + 4 + 1 + 2 + 3 + 4 + 1 + 2 + 3 + 4 +

Bridge 2:54 
F#|-------------------------------------------------------6---------|
C#|-------------------------------------------4-6-------------9-7-6-|
G#|-4-4-4-4-4-4-4-4-4-4-4-4-4-4-4-4-7-7-7-7-7-----7-7-7-7-----------|
D#|-----------------------------------------------------------------|
    1 + 2 + 3 + 4 + 1 + 2 + 3 + 4 + 1 + 2 + 3 + 4 + 1 + 2 + 3 + 4 +

F#|-----------------------------------------------------------------|
C#|-----------------------------2-----------------------------------|
G#|-7-2-2-2-2-2-2-2-2-2-2-2-2-4---2-0-0-0-0-0-0-0-0-2-2-2-2-2-2-2---|
D#|---------------------------------------------------------------2-|
    1 + 2 + 3 + 4 + 1 + 2 + 3 + 4 + 1 + 2 + 3 + 4 + 1 + 2 + 3 + 4 +

Interlude 3:07
F#|-----------------------------------------------------------------|
C#|-----------------------------------------------------------------|
G#|-0---------------------------------------------------------------|
D#|-----------------------------------------------------------------|
    1 + 2 + 3 + 4 + 1 + 2 + 3 + 4 + 1 + 2 + 3 + 4 + 1 + 2 + 3 + 4 +

Rest

Chorus 3:22
F#|-----------------------------------------------------------------|
C#|-------------------------------------------------2-2-2-2-2-2-2-2-|
G#|-0-0-0-0-0-0-0-0-2-2-2-2-2-2-2-2-4-4-4-4-4-4-4-4-----------------|
D#|-----------------------------------------------------------------|
    1 + 2 + 3 + 4 + 1 + 2 + 3 + 4 + 1 + 2 + 3 + 4 + 1 + 2 + 3 + 4 +

F#|-----------------------------------------------------------------|
C#|-------------------------------------------------2---------------|
G#|-0-0-0-0-0-0-0-0-2-2-2-2-2-2-2-2-4-4-4-4-4-4-4-4-----------------|
D#|---------------------------------------------------0-0-0-2-0-4-0-|
    1 + 2 + 3 + 4 + 1 + 2 + 3 + 4 + 1 + 2 + 3 + 4 + 1 + 2 + 3 + 4 +

F#|-----------------------------------------------------------------|
C#|-------------------------------------------------2-2-2-2-2-2-2-2-|
G#|-0-0-0-0-0-0-0-0-2-2-2-2-2-2-2-2-4-4-4-4-4-4-4-4-----------------|
D#|-----------------------------------------------------------------|
    1 + 2 + 3 + 4 + 1 + 2 + 3 + 4 + 1 + 2 + 3 + 4 + 1 + 2 + 3 + 4 +

F#|-----------------------------------------------------------------|
C#|-----------------------------------------------------------------|
G#|-0-0-0-0-0-0-0-0-2-2-2-2-2-2-2-2-4-4-4-4-4-4-4-4-----------------|
D#|-------------------------------------------------0-0-0-0-2-2-4-4-|
    1 + 2 + 3 + 4 + 1 + 2 + 3 + 4 + 1 + 2 + 3 + 4 + 1 + 2 + 3 + 4 +

3:48
F#|-----------------------------------------------------------------|
C#|-------------------------------------------------2---2-2-2-2-2-2-|
G#|-0---0-0-0-0---0-2---2-2-2-2---2-4---4-4-4-4-4-2-----------------|
D#|-------------2---------------2-----------------------------------|
    1 + 2 + 3 + 4 + 1 + 2 + 3 + 4 + 1 + 2 + 3 + 4 + 1 + 2 + 3 + 4 +

F#|-----------------------------------------------------------------|
C#|-----------------------------------------------------------------|
G#|-0---0-0-0---0-0-2-2-2-2-2-2-2-2-0-------------------------------|
D#|-----------------------------------------------------------------|
    1 + 2 + 3 + 4 + 1 + 2 + 3 + 4 + 1 + 2 + 3 + 4 + 1 + 2 + 3 + 4 +

F#|-----------------------------------------------------------------|
C#|-----------------------------------------------------------------|
G#|-2-------------------------------0-------------------------------|
D#|-----------------------------------------------------------------|
    1 + 2 + 3 + 4 + 1 + 2 + 3 + 4 + 1 + 2 + 3 + 4 + 1 + 2 + 3 + 4 +
Tabbed by Dave Vucko

==========================================================================

The Eco-Terrorist In Me

F#|-----------------------------------|
C#|-----------------------------------|
G#|-0-2-------------------------------|
D#|-----------------------------------|
    + 1 + 2 + 3 + 4 + 1 + 2 + 3 + 4 +

Verse 0:06
F#|------------------------------------------------------------------|
C#|-------2-------2-------2---------------2-------2-------2-55544455-|
G#|-2-22-2--2-22-2--2-22-2----------2-22-2--2-22-2--2-22-2-----------|
D#|-------------------------3-33-33----------------------------------|
    1 + 2 + 3 + 4 + 1 + 2 + 3 + 4 + 1 + 2 + 3 + 4 + 1 + 2 + 3 + 4 +

F#|------------------------------------------------------------------|
C#|-------2-------2-------2---------------2-------2-------2-55577755-|
G#|-2-22-2--2-22-2--2-22-2----------2-22-2--2-22-2--2-22-2-----------|
D#|-------------------------3-33-33----------------------------------|
    1 + 2 + 3 + 4 + 1 + 2 + 3 + 4 + 1 + 2 + 3 + 4 + 1 + 2 + 3 + 4 +

0:17
F#|------------------------------------------------------------------|
C#|-0-00-00-0-00-00---------2-22-22----------------------------------|
G#|-----------------0-00-00---------22222222222222222222222222222222-|
D#|------------------------------------------------------------------|
    1 + 2 + 3 + 4 + 1 + 2 + 3 + 4 + 1 + 2 + 3 + 4 + 1 + 2 + 3 + 4 +

F#|-----------------------------------------------------------------|
C#|-0-00-00-0-00-00---------2-22-22---------------/-9-9-9-9-9-7-----|
G#|-----------------0-00-00---------2-22----2-22----------------9-7-|
D#|-----------------------------------------------------------------|
    1 + 2 + 3 + 4 + 1 + 2 + 3 + 4 + 1 + 2 + 3 + 4 + 1 + 2 + 3 + 4 +

Pre Chorus 0:28
F#|-----------------------------------------------------------------|
C#|-----------------------------------------------------------------|
G#|-5-5-5---5-5-5-0---0-0-0-0-0-0-0---------------------------------|
D#|---------------------------------0-0-0-0-0-0-0-2---2-2-2-2-2-2-2-|
    1 + 2 + 3 + 4 + 1 + 2 + 3 + 4 + 1 + 2 + 3 + 4 + 1 + 2 + 3 + 4 +

F#|---------------------------------|
C#|---------------------------------|
G#|-----------------0-0-0-0-0-0-0-0-|
D#|-3-3-3-3-3-3-3-3-----------------|
    1 + 2 + 3 + 4 + 1 + 2 + 3 + 4 + 

Chorus 0:37
F#|-----------------------------------------6-66-66-7-77-77-9-9-6-9-|
C#|-------------------------0-00-00---------------------------------|
G#|-2-22-22-2-22-22-----------------0-00-00-------------------------|
D#|-----------------3-33-33-----------------------------------------|
    1 + 2 + 3 + 4 + 1 + 2 + 3 + 4 + 1 + 2 + 3 + 4 + 1 + 2 + 3 + 4 +

F#|-----------------------------------------6-66-66-7-77-77-7-6-----|
C#|-------------------------0-00-00-----------------------------7---|
G#|-2-22-22-2-22-22-----------------0-00-00-------------------------|
D#|-----------------3-33-33-----------------------------------------|
    1 + 2 + 3 + 4 + 1 + 2 + 3 + 4 + 1 + 2 + 3 + 4 + 1 + 2 + 3 + 4 +

0:48
F#|-----------------------------------------------------------------|
C#|-----------------------------------------------------------------|
G#|---------------0---0-0-0-0-0-0---2-2-----0-0---------------------|
D#|-3---3-3-3-3-3-----------------------------------3-3-3-3-3-3-3-3-|
    1 + 2 + 3 + 4 + 1 + 2 + 3 + 4 + 1 + 2 + 3 + 4 + 1 + 2 + 3 + 4 +

F#|---------------------------------------------------------------16----|
C#|------------------------------------------------------------16----16-|
G#|-----------------0-00-00-0-00-00-2---------------------/-14----------|
D#|-3-33-33-3-33-33-----------------------------------------------------|
    1 + 2 + 3 + 4 + 1 + 2 + 3 + 4 + 1 + 2 + 3 + 4 + 1 + 2 + 3  +  4  +

Verse 0:59
F#|-----------------------------------------------------------------|
C#|-----------------------------------------------------------------|
G#|-2-22-22-2-22-22-2-22-22---------2-22-22-2-22-22----5--0-7-----0-|
D#|-------------------------3-33-33-----------------3----------3----|
    1 + 2 + 3 + 4 + 1 + 2 + 3 + 4 + 1 + 2 + 3 + 4 + Triplet Triplet

F#|-----------------------------------------------------------7-----|
C#|-------------------------------------------------5--7--9-7---5-4-|
G#|-2-22-22-2-22-22-2-22-22---------2-22-22-2-22-22-----------------|
D#|-------------------------3-33-33---------------------------------|
    1 + 2 + 3 + 4 + 1 + 2 + 3 + 4 + 1 + 2 + 3 + 4 + Triplet 3 + 4 +

Pre Chorus 1:10
F#|-----------------------------------------------------------------|
C#|-----------------------------------------------------------------|
G#|-5-5-5-5-5-5-5-5-0-0-0-0-7-7-7-7-2-2-2-2-2-2-2-2-----------------|
D#|-------------------------------------------------2-2-2-2-2-2-0-2-|
    1 + 2 + 3 + 4 + 1 + 2 + 3 + 4 + 1 + 2 + 3 + 4 + 1 + 2 + 3 + 4 +

F#|---------------------------------|
C#|---------------------------------|
G#|-----------------0-0-0-0-0-------|
D#|-3-3-3-3-3-3-3-3-----------3-2-0-|
    1 + 2 + 3 + 4 + 1 + 2 + 3 + 4 + 

Chorus 1:19
F#|-----------------------------------------6-66-66-7-77-77-9-9-6-9-|
C#|-------------------------0-00-00---------------------------------|
G#|-2-22-22-2-22-22-----------------0-00-00-------------------------|
D#|-----------------3-33-33-----------------------------------------|
    1 + 2 + 3 + 4 + 1 + 2 + 3 + 4 + 1 + 2 + 3 + 4 + 1 + 2 + 3 + 4 +

F#|-----------------------------------------6-66-66-7-77-77-7-6-----|
C#|-------------------------0-00-00-----------------------------7---|
G#|-2-22-22-2-22-22-----------------0-00-00-------------------------|
D#|-----------------3-33-33-----------------------------------------|
    1 + 2 + 3 + 4 + 1 + 2 + 3 + 4 + 1 + 2 + 3 + 4 + 1 + 2 + 3 + 4 +

F#|-----------------------------------------------------------------|
C#|-----------------------------------------------------------------|
G#|---------------0---0-0-0-0-0-0---2-2-----0-0---------------------|
D#|-3-3-3-3-3-3-3-----------------------------------3-3-3-3-3-3-3-3-|
    1 + 2 + 3 + 4 + 1 + 2 + 3 + 4 + 1 + 2 + 3 + 4 + 1 + 2 + 3 + 4 +

F#|-----------------------------------------------------------------|
C#|-----------------------------------------------------------------|
G#|---------------------------------0-0-0-0-0-0-0-0-0-0-0-0-0-0-0-0-|
D#|-3-3-3-3-3-3-3-3-3-3-3-3-3-3-3-3---------------------------------|
    1 + 2 + 3 + 4 + 1 + 2 + 3 + 4 + 1 + 2 + 3 + 4 + 1 + 2 + 3 + 4 +

Bridge 1:41
F#|-----------------------------------------------------------------|
C#|-----------------------------------------------------------------|
G#|-----------------------------------------------------------------|
D#|-3---3---3---3---3---3---3---3---0---0---0---0---0---0---0---0---|
    1 + 2 + 3 + 4 + 1 + 2 + 3 + 4 + 1 + 2 + 3 + 4 + 1 + 2 + 3 + 4 +

F#|-----------------------------------------------------------------|
C#|-----------------------------------------------------------------|
G#|-2---2---2---2---2---2---2---2---4---4---4---4---4---4---4---4---|
D#|-----------------------------------------------------------------|
    1 + 2 + 3 + 4 + 1 + 2 + 3 + 4 + 1 + 2 + 3 + 4 + 1 + 2 + 3 + 4 +

F#|-----------------------------------------------------------------|
C#|-----------------------------------------------------------------|
G#|-5---5---5---5---5---5---5---5---7---7---7---7---7---7---7---7---|
D#|-----------------------------------------------------------------|
    1 + 2 + 3 + 4 + 1 + 2 + 3 + 4 + 1 + 2 + 3 + 4 + 1 + 2 + 3 + 4 +

Chorus 1:57
F#|-------------------------------------------------------------------|
C#|o-----------------------------------------------------------------o|
G#|o-2-2-2-2-2-2-2-2---------5-5-5-5-0-0-0-0-0-0-0-0-0-0-0-0-0-0-0-0-o|
D#|------------------3-3-3-3------------------------------------------|
     1 + 2 + 3 + 4 + 1 + 2 + 3 + 4 + 1 + 2 + 3 + 4 + 1 + 2 + 3 + 4 +

F#|-----------------------------------------------------------------|
C#|-----------------------------------------------------------------|
G#|-2-r-----------------------------0-0-0-0-0-0-0-0-0-0-0-0-0-0-0-0-|
D#|-----------------3-----------------------------------------------|
    1 + 2 + 3 + 4 + 1 + 2 + 3 + 4 + 1 + 2 + 3 + 4 + 1 + 2 + 3 + 4 +

2:14
F#|-----------------------------------------------------------------|
C#|-----------------------------------------------------------------|
G#|-2-22-22-2-22-22---------5-55-55-0-00-00-0-00-00-0-00-00-0-00-00-|
D#|-----------------3-33-33-----------------------------------------|
    1 + 2 + 3 + 4 + 1 + 2 + 3 + 4 + 1 + 2 + 3 + 4 + 1 + 2 + 3 + 4 +

F#|-----------------------------------------------------------------|
C#|-----------------------------------------------------------------|
G#|-2-22-22-2-22-22---------5-55-55-0-00-00-0-00-00-0-4-4-0-7-5-4-5-|
D#|-----------------3-33-33-----------------------------------------|
    1 + 2 + 3 + 4 + 1 + 2 + 3 + 4 + 1 + 2 + 3 + 4 + 1 + 2 + 3 + 4 +

F#|-----------------------------------------------------------------|
C#|-----------------------------------------------------------------|
G#|-2-22-22-2-22-22---------5-55-55-0-00-00-0-00-00-0-00-00-0-000000|
D#|-----------------3-33-33-----------------------------------------|
    1 + 2 + 3 + 4 + 1 + 2 + 3 + 4 + 1 + 2 + 3 + 4 + 1 + 2 + 3 + 4 +

Slowing down
F#|-------------------------7-------6-------------------------------|
C#|-4-----------------------7-------7-------------------------------|
G#|-2-----------------------5-------0-------------------------------|
D#|-----------------3-----------------------------------------------|
    1 + 2 + 3 + 4 + 1 + 2 + 3 + 4 + 1 + 2 + 3 + 4 + 1 + 2 + 3 + 4 +
Tabbed by Dave Vucko

===============================================================================

Sudden Life

F#|-19-------------------------------------|
C#|----19-19-------------------------------|
G#|----------------------------------------|
D#|----------------------------------------|
    4  +  1  + 2 + 3 + 4 + 1 + 2 + 3 + 4 + 

0:22
F#|-----------------------------------------------------------------|
C#|-----------------------------------------------------------------|
G#|-5---x-x-x-x-x-x-x-x-x-x-x-x-x-x-5---x-x-x-x-x-x-x-x-x-x-x---3---|
D#|-----------------------------------------------------------3---3-|
    1 + 2 + 3 + 4 + 1 + 2 + 3 + 4 + 1 + 2 + 3 + 4 + 1 + 2 + 3 + 4 +

F#|-----------------------------------------------7-----------------------|
C#|-----------------------------7-9-10---10-10-10---10---9---9-9-9-10-9---|
G#|-5---x-x-x-x-x-x-x-x-x-x-x-x-------------------------------------------|
D#|-----------------------------------------------------------------------|
    1 + 2 + 3 + 4 + 1 + 2 + 3 + 4 + 1  + 2  +  3  + 4  + 1 + 2 + 3 +  4 +

F#|---------------------------------|
C#|-7-7-7---------------------------|
G#|-------5-5-5-5-5-5-5-5-5-5---3---|
D#|---------------------------3---3-|
    1 + 2 + 3 + 4 + 1 + 2 + 3 + 4 +

0:39
F#|-----------------------------------------------------------------|
C#|-----------------------------------------------------------5-5-5-|
G#|-5---x-x-x-x-x-x-x-x-x-x-x---3---5---x-x-x-x-x-x-x-x-x-x-5-------|
D#|---------------------------3---3---------------------------------|
    1 + 2 + 3 + 4 + 1 + 2 + 3 + 4 + 1 + 2 + 3 + 4 + 1 + 2 + 3 + 4 +

F#|-----------------------------------------------7-----------------------|
C#|-----------------------------7-9-10---10-10-10---10---9---9-9-9-10-9---|
G#|-5---x-x-x-x-x-x-x-x-x-x-x-x-------------------------------------------|
D#|-----------------------------------------------------------------------|
    1 + 2 + 3 + 4 + 1 + 2 + 3 + 4 + 1  + 2  +  3  + 4  + 1 + 2 + 3 +  4 +

Pre Chorus 0:53
F#|-----------------------------------------------------------------|
C#|-----4-4-5-5-6-6-7-7-7-7-7-7-5-4-----2-2-3-3-4-4-5-5-5-5-5-4-4-2-|
G#|-5-5-----------------------------3-3-----------------------------|
D#|-----------------------------------------------------------------|
    1 + 2 + 3 + 4 + 1 + 2 + 3 + 4 + 1 + 2 + 3 + 4 + 1 + 2 + 3 + 4 +

F#|-----------------------------------------------------------------|
C#|-----------------------------------------------------------------|
G#|-5-5-5-5-5-5-5-7-0-0-0-0-0-0-0-2-3-3-3-3-3-3-3-3-----------------|
D#|-------------------------------------------------3---------------|
    1 + 2 + 3 + 4 + 1 + 2 + 3 + 4 + 1 + 2 + 3 + 4 + 1 + 2 + 3 + 4 +

Chorus 1:05
F#|-----------------------------------------------------------------|
C#|-----------------------------------------------------------------|
G#|-5---5-5-5-5-5---------------------------------------------------|
D#|-----------------3---3-3-3-3-3-3-1---1-1-1-1-1-1-3---3-3-3-3-3-3-|
    1 + 2 + 3 + 4 + 1 + 2 + 3 + 4 + 1 + 2 + 3 + 4 + 1 + 2 + 3 + 4 +

F#|-----------------------------------------------------------------|
C#|---------------/-5---5-5-5-5-7-5---------------------------------|
G#|-5---5-5-5---5-------------------8---8-7-7-7-5-5-3---3-2-2-2-0-0-|
D#|-----------------------------------------------------------------|
    1 + 2 + 3 + 4 + 1 + 2 + 3 + 4 + 1 + 2 + 3 + 4 + 1 + 2 + 3 + 4 +

F#|-----------------------------------------------------------------|
C#|-----------------------------------------------------------------|
G#|-5-5-5-5-5-5-5-5-------------------------------------------------|
D#|-----------------3-3-3-3-3-3-3-3-1-1-1-1-1-1-1-1-3-3-3-3-3-3-3-3-|
    1 + 2 + 3 + 4 + 1 + 2 + 3 + 4 + 1 + 2 + 3 + 4 + 1 + 2 + 3 + 4 +

F#|-----------------------------------------------------------------|
C#|-3-3-3-2-2-2-0-0-0-----------------------------------------------|
G#|-------------------3-3-3-2-2-0-0---------------------------------|
D#|---------------------------------3-3-3-3-3-3-3-3-3---------------|
    1 + 2 + 3 + 4 + 1 + 2 + 3 + 4 + 1 + 2 + 3 + 4 + 1 + 2 + 3 + 4 +

Rest

F#|-14------------------------------|
C#|---------------------------------|
G#|---------------------------------|
D#|---------------------------------|
    1 + 2 + 3 + 4 + 1 + 2 + 3 + 4 + 

Verse 1:40
F#|-----------------------------------------------------------------|
C#|-----------------------------------------------------------5-5-5-|
G#|-5---x-x-x-x-x-x-x-x-x-x-x---3---5---x-x-x-x-x-x-x-x-x-x-5-------|
D#|---------------------------3---3---------------------------------|
    1 + 2 + 3 + 4 + 1 + 2 + 3 + 4 + 1 + 2 + 3 + 4 + 1 + 2 + 3 + 4 +

F#|-----------------------------------------------7-----------------------|
C#|-----------------------------7-9-10---10-10-10---10---9---9-9-9-10-9---|
G#|-5---x-x-x-x-x-x-x-x-x-x-x-x-------------------------------------------|
D#|-----------------------------------------------------------------------|
    1 + 2 + 3 + 4 + 1 + 2 + 3 + 4 + 1  + 2  +  3  + 4  + 1 + 2 + 3 +  4 +

Pre Chorus 1:53
F#|-----------------------------------------------------------------|
C#|-----4-4-5-5-6-6-7-7-7-7-7-7-5-4-----2-2-3-3-4-4-5-5-5-5-5-4-4-2-|
G#|-5-5-----------------------------3-3-----------------------------|
D#|-----------------------------------------------------------------|
    1 + 2 + 3 + 4 + 1 + 2 + 3 + 4 + 1 + 2 + 3 + 4 + 1 + 2 + 3 + 4 +

F#|-----------------------------------------------------------------|
C#|-----------------------------------------------------------------|
G#|-5-5-5-5-5-5-5-7-0-0-0-0-0-0-0-2-3-3-3-3-3-3-3-3-----------------|
D#|-------------------------------------------------3---------------|
    1 + 2 + 3 + 4 + 1 + 2 + 3 + 4 + 1 + 2 + 3 + 4 + 1 + 2 + 3 + 4 +

Chorus 2:07
F#|-----------------------------------------------------------------|
C#|-----------------------------------------------------------------|
G#|-5---5-5-5-5-5---------------------------------------------------|
D#|-----------------3---3-3-3-3-3-3-1---1-1-1-1-1-1-3---3-3-3-3-3-3-|
    1 + 2 + 3 + 4 + 1 + 2 + 3 + 4 + 1 + 2 + 3 + 4 + 1 + 2 + 3 + 4 +

F#|-----------------------------------------------------------------|
C#|---------------/-5---5-5-5-5-7-5---------------------------------|
G#|-5---5-5-5---5-------------------8---8-7-7-7-5-5-3---3-2-2-2-0-0-|
D#|-----------------------------------------------------------------|
    1 + 2 + 3 + 4 + 1 + 2 + 3 + 4 + 1 + 2 + 3 + 4 + 1 + 2 + 3 + 4 +

F#|-----------------------------------------------------------------|
C#|-----------------------------------------------------------------|
G#|-5-5-5-5-5-5-5-5-------------------------------------------0-0-0-|
D#|-----------------3-3-3-3-3-3-3-3-1-1-1-1-1-1-1-1-3-3-3-3-3-------|
    1 + 2 + 3 + 4 + 1 + 2 + 3 + 4 + 1 + 2 + 3 + 4 + 1 + 2 + 3 + 4 +

F#|-----------------------------------------------------------------------|
C#|-----------------------------------------------------------------------|
G#|-1---1-1-1-1-1-1-1-0-0---------1-3-3-3/15-15-15-15-15-15---------------|
D#|-----------------------3-3-1-1-----------------------------------------|
    1 + 2 + 3 + 4 + 1 + 2 + 3 + 4 + 1 + 2 +  3  +  4  +  1  + 2 + 3 + 4 +

Rest

Bridge 2:38
F#|-------------------------------------------------------------------------|
C#|-------------------------------------------------------------------------|
G#|-------------------------5-----5---5-3---3---3---------------------------|
D#|-1-1---1---1-3-----------------------------------1-1---1---1-3---3---3---|
    1 + 2 + 3 + 1 + 2 + 3 + 1 + 2 + 3 + 1 + 2 + 3 + 1 + 2 + 3 + 1 + 2 + 3 +

F#|-------------------------------------------------|
C#|-------------------------------------------------|
G#|-5-----5---5-3---3---3---------------------------|
D#|-------------------------1-1---1---1-3-----------|
    1 + 2 + 3 + 1 + 2 + 3 + 1 + 2 + 3 + 1 + 2 + 3 +

F#|-------------------------------------------------------------------------------------------------|
C#|-------------------------3-3---3---3-5---5---5---------------------------------------------------|
G#|-5-----5---5-3---3---3---------------------------5-----5---5-3---3---3---------------------------|
D#|-------------------------------------------------------------------------1-1---1---1-3---3---3---|
    1 + 2 + 3 + 1 + 2 + 3 + 1 + 2 + 3 + 1 + 2 + 3 + 1 + 2 + 3 + 1 + 2 + 3 + 1 + 2 + 3 + 1 + 2 + 3 +

2:53
F#|-------------------------------------------------------------------------------------------------|
C#|-------------------------2---3---2---0-----------------------2-------5---7---5-------5-----------|
G#|-1---1---1---0---1---1-------------------3---1---3---------------3---------------8-------8---7---|
D#|-------------------------------------------------------------------------------------------------|
    1 + 2 + 3 + 1 + 2 + 3 + 1 + 2 + 3 + 1 + 2 + 3 + 1 + 2 + 3 + 1 + 2 + 3 + 1 + 2 + 3 + 1 + 2 + 3 +

F#|-------------------------------------------------------------------------------------------------|
C#|-------------0-----------2---3---5---3---2-------------------------------------------------------|
G#|-1---1---1-------1---1-----------------------1---3---3---3---3---3---3---3---3---3---3---3---3---|
D#|-------------------------------------------------------------------------------------------------|
    1 + 2 + 3 + 1 + 2 + 3 + 1 + 2 + 3 + 1 + 2 + 3 + 1 + 2 + 3 + 1 + 2 + 3 + 1 + 2 + 3 + 1 + 2 + 3 +

F#|-----------------------------------------------------------------|
C#|-----------------------------------------------------------------|
G#|-5---------------------------------------------------------------|
D#|-----------------------------------------------------------------|
    1 + 2 + 3 + 4 + 1 + 2 + 3 + 4 + 1 + 2 + 3 + 4 + 1 + 2 + 3 + 4 +

Pre Chorus 3:12
F#|-------7---------12---------------10-----9----------------------------|
C#|---7-------7-----12----------------------------12---10-----7-----5----|
G#|-5-----------5--------------------------------------------------------|
D#|----------------------------------------------------------------------|
    1 + 2 + 3 + 4 + 1  + 2 + 3 + 4 + 1  + 2 + 3 + 4  + 1  + 2 + 3 + 4 +

F#|---------------------------------7-7-7-7-7-7-7-7-7-7-7-7-7-7-7---|
C#|-------------------------------7-------------------------------7-|
G#|-5-5-5-5-5-5-5-5-5-5-5-5-5-5-5-----------------------------------|
D#|-----------------------------------------------------------------|
    1 + 2 + 3 + 4 + 1 + 2 + 3 + 4 + 1 + 2 + 3 + 4 + 1 + 2 + 3 + 4 +

F#|-----------------------------------------------------------------|
C#|-----------------------------------------------------------------|
G#|-5-5-5-5-5-5-5-5-5-5-5-5-5-5-5-5-5-5-5-5-5-5-5-5-5-5-5-5-5-\-----|
D#|-----------------------------------------------------------------|
    1 + 2 + 3 + 4 + 1 + 2 + 3 + 4 + 1 + 2 + 3 + 4 + 1 + 2 + 3 + 4 +

Chorus 3:32
F#|-----------------------------------------------------------------|
C#|-----------------------------------------------------------------|
G#|-5-5-5---5-5-5-5-------------------------------------------------|
D#|-----------------3-3-3---3-3-3-3-1-1-1---1-1-1-1-3-3-3-3-3-3-3-3-|
    1 + 2 + 3 + 4 + 1 + 2 + 3 + 4 + 1 + 2 + 3 + 4 + 1 + 2 + 3 + 4 +

F#|-----------------------------------------------------------------|
C#|----------------/5---5-5-5-5-7-5---------------------------------|
G#|-5-5-5---5-5-5-5-----------------8-8-8-7-7-7-5-5-3-3-3-2-2-2-0-0-|
D#|-----------------------------------------------------------------|
    1 + 2 + 3 + 4 + 1 + 2 + 3 + 4 + 1 + 2 + 3 + 4 + 1 + 2 + 3 + 4 +

F#|-----------------------------------------------------------------|
C#|-----------------------------------------------------------------|
G#|-5-5-5-5-5-5-5-5-------------------------------------------0-0-0-|
D#|-----------------3-3-3-3-3-3-3-3-1-1-1-1-1-1-1-1-3-3-3-3-3-------|
    1 + 2 + 3 + 4 + 1 + 2 + 3 + 4 + 1 + 2 + 3 + 4 + 1 + 2 + 3 + 4 +

Outro3:52
F#|-----------------------------------------------------------------|
C#|-----3-/-7-----5---------5---------------2-2-2-2-3-3-3-3-2-2-2-2-|
G#|-1-----------8---------8---8-7-5-3-3-3-3-------------------------|
D#|-----------------------------------------------------------------|
    1 + 2 + 3 + 4 + 1 + 2 + 3 + 4 + 1 + 2 + 3 + 4 + 1 + 2 + 3 + 4 +

F#|-----------------------------------------------------------------|
C#|-----------------------------------------------------------------|
G#|-1-1-0---------5-5-5-7-7-7-8-8-8-3-3-3-3-3-3-3-3-3---------------|
D#|---------3---1---------------------------------------------------|
    1 + 2 + 3 + 4 + 1 + 2 + 3 + 4 + 1 + 2 + 3 + 4 + 1 + 2 + 3 + 4 +
Tabbed by Dave Vucko


=============================================================================

A Beautiful Indifference

F#|-----------------------------------------------------------------|
C#|-----------------------------------------------------------------|
G#|---------------0---2-2-2-2-2-2-2---------------0---2-2-2-2-2-2-2-|
D#|-0---2-2-2-2-0-------------------0---2---2-2-0-------------------|
    1 + 2 + 3 + 4 + 1 + 2 + 3 + 4 + 1 + 2 + 3 + 4 + 1 + 2 + 3 + 4 +

F#|-----------------------------------------------------------------|
C#|-----------------------------------------------------------------|
G#|---------------0---2-2-2-2-2-2-2---------------0---2-2-2-2-2-2-2-|
D#|-0---2---2-2-0-------------------0---2-2-2-2-0-------------------|
    1 + 2 + 3 + 4 + 1 + 2 + 3 + 4 + 1 + 2 + 3 + 4 + 1 + 2 + 3 + 4 +

Verse 0:09
F#|-----------------------------------------------------------------|
C#|-----------------------------------------------------------------|
G#|---------------0---2---------------------------0---2-------------|
D#|-0-0-2-2-2-2-0-------------------0-0-2-2-2-2-0-------------------|
    1 + 2 + 3 + 4 + 1 + 2 + 3 + 4 + 1 + 2 + 3 + 4 + 1 + 2 + 3 + 4 +

F#|-----------------------------------------------------------------|
C#|-----------------------------------------------------------------|
G#|---------------0---2---------------------------0---2---0---2---/-|
D#|-0-0-2-2-2-2-0-------------------0-0-2-2-2-2-0-------------------|
    1 + 2 + 3 + 4 + 1 + 2 + 3 + 4 + 1 + 2 + 3 + 4 + 1 + 2 + 3 + 4 +

F#|-----------------------------------------------------------------|
C#|-----------------------------7-7-6-6-6-6-7-7-7-7-9-9-9-9-7-6-----|
G#|-7-7-7-7-7-7-7-7-7-7-7-7-7-7---------------------------------9-7-|
D#|-----------------------------------------------------------------|
    1 + 2 + 3 + 4 + 1 + 2 + 3 + 4 + 1 + 2 + 3 + 4 + 1 + 2 + 3 + 4 +

F#|-----------------------------------------------------------------|
C#|-----------------------------------------------------------------|
G#|---------------0---2---0---2-------------------0---2---0-3-2-0---|
D#|-0-0-2-2-2-2-0-------------------0-0-2-2-2-2-0-------------------|
    1 + 2 + 3 + 4 + 1 + 2 + 3 + 4 + 1 + 2 + 3 + 4 + 1 + 2 + 3 + 4 +

F#|-----------------------------------------------------------------|
C#|-----------------------------------------------------------------|
G#|---------------0---2---------------------------0---2-------------|
D#|-0-0-2-2-2-2-0-------------------0-0-2-2-2-2-0-------------------|
    1 + 2 + 3 + 4 + 1 + 2 + 3 + 4 + 1 + 2 + 3 + 4 + 1 + 2 + 3 + 4 +

F#|-----------------------------------------------------------------|
C#|-----------------------------------------------------------------|
G#|---------------0---2---------------------------0---2---0---2---/-|
D#|-0-0-2-2-2-2-0-------------------0-0-2-2-2-2-0-------------------|
    1 + 2 + 3 + 4 + 1 + 2 + 3 + 4 + 1 + 2 + 3 + 4 + 1 + 2 + 3 + 4 +

F#|-----------------------------------------------------------------|
C#|-----------------------------7-7-6-6-6-6-7-7-7-7-6-6-6-6---------|
G#|-7-7-7-7-7-7-7-7-7-7-7-7-7-7-----------------------------9-9-7-5-|
D#|-----------------------------------------------------------------|
    1 + 2 + 3 + 4 + 1 + 2 + 3 + 4 + 1 + 2 + 3 + 4 + 1 + 2 + 3 + 4 +

Pre Chorus 0:39
F#|-----------------------------------------------------------------|
C#|-----------------------------------------------------------------|
G#|-----5---5---5-2-----2---2---2--------------------------------/5-|
D#|-------------------------------2-----2---2---2---2---2---2---2---|
    1 + 2 + 3 + 4 + 1 + 2 + 3 + 4 + 1 + 2 + 3 + 4 + 1 + 2 + 3 + 4 +

F#|-----------------------------------------------------------------|
C#|-------------------------------4-----4---4---4---4---4---4---4---|
G#|-----5---5---5-2-----2---2---2---------------------------------0-|
D#|-----------------------------------------------------------------|
    1 + 2 + 3 + 4 + 1 + 2 + 3 + 4 + 1 + 2 + 3 + 4 + 1 + 2 + 3 + 4 +

0:49
F#|-----------------------------------------------------------------|
C#|-----------------------------------------------------------------|
G#|---0-0---0-0-0-----------------2---2-2---2-2-2-----------------0-|
D#|---------------0---0-0---0-0-0-----------------2---2-2---2-2-2---|
    1 + 2 + 3 + 4 + 1 + 2 + 3 + 4 + 1 + 2 + 3 + 4 + 1 + 2 + 3 + 4 +

F#|-----------------------------------------------------------------|
C#|-----------------------------------------------------------------|
G#|---0-0-0-0-0-0-0-0-0-0-0-0-0-0-0-4-4-4-4-4-4-4-4-4-\-------------|
D#|-----------------------------------------------------------------|
    1 + 2 + 3 + 4 + 1 + 2 + 3 + 4 + 1 + 2 + 3 + 4 + 1 + 2 + 3 + 4 +

Chorus 0:58
F#|-----------------------------------------------------------------|
C#|-----------------------------------------------------------------|
G#|-----------------5---5---5---5---0---0---0---0---2---2---2-------|
D#|-2---2---2---2---------------------------------------------------|
    1 + 2 + 3 + 4 + 1 + 2 + 3 + 4 + 1 + 2 + 3 + 4 + 1 + 2 + 3 + 4 +

F#|-----------------------------------------------------------------|
C#|-----------------------------------------------------------------|
G#|-----------------5---5---5---5---0---0---0---0---7---7---7---7---|
D#|-2---2---2---2---------------------------------------------------|
    1 + 2 + 3 + 4 + 1 + 2 + 3 + 4 + 1 + 2 + 3 + 4 + 1 + 2 + 3 + 4 +

1:07
F#|-------------------------------------------------------------------|
C#|o-4---4---4-4-4-4-------------------------------------------------o|
G#|o-----------------5---5---5-5-5-5-0---0---0-0-0---2---2---2-2-2---o|
D#|-------------------------------------------------------------------|
     1 + 2 + 3 + 4 + 1 + 2 + 3 + 4 + 1 + 2 + 3 + 4 + 1 + 2 + 3 + 4 +

F#|-----------------------------------------------------------------|
C#|-----------------------------------------------------------------|
G#|-4-4-4-4-4-4-4-4-4-4-4-4-4-4-4-4-4-4-4-4-4-4-4-4-4-----------4-/-|
D#|-----------------------------------------------------------------|
    1 + 2 + 3 + 4 + 1 + 2 + 3 + 4 + 1 + 2 + 3 + 4 + 1 + 2 + 3 + 4 +

Interlude 1:19
F#|---------------------------------------------------------------------------------|
C#|---------------------------------------------------------------------------------|
G#|-9-9-9---9-9-9-9-\-----------4-/-9-9-9---9-9-9-3---------------------------------|
D#|---------------------------------------------------------------------------------|
    1 + 2 + 3 + 4 + 1 + 2 + 3 + 4 + 1 + 2 + 3 + 4 + 1 + 2 + 3 + 4 + 1 + 2 + 3 + 4 +

Verse 1:25
F#|-----------------------------------------------------------------|
C#|-----------------------------------------------------------------|
G#|---------------0---2---------------------------0---2-------------|
D#|-0-0-2-2-2-2-0-------------------0-0-2-2-2-2-0-------------------|
    1 + 2 + 3 + 4 + 1 + 2 + 3 + 4 + 1 + 2 + 3 + 4 + 1 + 2 + 3 + 4 +

F#|-----------------------------------------------------------------|
C#|-----------------------------------------------------------------|
G#|---------------0---2---------------------------0---2---5---2---/-|
D#|-0-0-2-2-2-2-0-------------------0-0-2-2-2-2-0-------------------|
    1 + 2 + 3 + 4 + 1 + 2 + 3 + 4 + 1 + 2 + 3 + 4 + 1 + 2 + 3 + 4 +

F#|-----------------------------------------------------------------|
C#|-----------------------------7-7-6-6-6-6-7-7-7-7-6-6-6-6---------|
G#|-7-7-7-7-7-7-7-7-7-7-7-7-7-7-----------------------------9-9-7-5-|
D#|-----------------------------------------------------------------|
    1 + 2 + 3 + 4 + 1 + 2 + 3 + 4 + 1 + 2 + 3 + 4 + 1 + 2 + 3 + 4 +

Pre Chorus 1:38
F#|-----------------------------------------------------------------|
C#|-----------------------------------------------------------------|
G#|-----5---5---5-2-----2---2---2--------------------------------/5-|
D#|-------------------------------2-----2---2---2---2---2---2---2---|
    1 + 2 + 3 + 4 + 1 + 2 + 3 + 4 + 1 + 2 + 3 + 4 + 1 + 2 + 3 + 4 +

F#|-------------------------------------------------------------------------------------------------|
C#|-------------------------------------------------------------------------------------------------|
G#|-----5---5---5-2-----2---2---2-4---4-4---4-4-4---4-4-4---4-4-4---4---------------4---------------|
D#|-----------------------------------------------------------------------2-----0-------------------|
    1 + 2 + 3 + 4 + 1 + 2 + 3 + 4 + 1 + 2 + 3 + 4 + 1 + 2 + 3 + 4 + 1 + 2 + 3 + 4 + 1 + 2 + 3 + 4 +

Chorus 1:49
F#|-----------------------------------------------------------------|
C#|-----------------------------------------------------------------|
G#|-----------------5---5---5---5---0---0---0---0---2---2---2---2---|
D#|-2---2---2-------------------------------------------------------|
    1 + 2 + 3 + 4 + 1 + 2 + 3 + 4 + 1 + 2 + 3 + 4 + 1 + 2 + 3 + 4 +

F#|-----------------------------------------------------------------|
C#|-----------------------------------------------------------------|
G#|-----------------5---5---5---5---0---0---0---0---7---7---7---7---|
D#|-2---2---2-------------------------------------------------------|
    1 + 2 + 3 + 4 + 1 + 2 + 3 + 4 + 1 + 2 + 3 + 4 + 1 + 2 + 3 + 4 +

1:58
F#|-------------------------------------------------------------------|
C#|o-4---4---4-4-4-4-------------------------------------------------o|
G#|o-----------------5---5---5-5-5-5-0---0---0-0-0---2---2---2-2-2---o|
D#|-------------------------------------------------------------------|
     1 + 2 + 3 + 4 + 1 + 2 + 3 + 4 + 1 + 2 + 3 + 4 + 1 + 2 + 3 + 4 +

F#|-----------------------------------------------------------------|
C#|-----------------------------------------------------------------|
G#|-4-4-4-4-4-4-4-4-4-4-4-4-4-4-4-4-4-4-4-4-4-4-4-4-4---------------|
D#|-----------------------------------------------------------------|
    1 + 2 + 3 + 4 + 1 + 2 + 3 + 4 + 1 + 2 + 3 + 4 + 1 + 2 + 3 + 4 +

Solo 2:10
F#|-----------------------------------------------------------------|
C#|-----------------------------------------------------------------|
G#|---------------------------------0-------0-------0-------0---5---|
D#|-2-------2-------2---0---2---0-----------------------2-----------|
    1 + 2 + 3 + 4 + 1 + 2 + 3 + 4 + 1 + 2 + 3 + 4 + 1 + 2 + 3 + 4 +

F#|-----------------------------------------------------------------|
C#|-----------------------------------------------------------------|
G#|-7-------7-------7---0---7---0---2-------2-------2---4---2---0---|
D#|-----------------------------------------------------------------|
    1 + 2 + 3 + 4 + 1 + 2 + 3 + 4 + 1 + 2 + 3 + 4 + 1 + 2 + 3 + 4 +

2:18
F#|-----------------------------------------------------------------|
C#|-----------------------------------------------------------------|
G#|---------------------------------0-------0-------0-------0---5---|
D#|-2-------2-------2---0---2---0-----------------------2-----------|
    1 + 2 + 3 + 4 + 1 + 2 + 3 + 4 + 1 + 2 + 3 + 4 + 1 + 2 + 3 + 4 +

F#|-----------------------------------------------------------------|
C#|-----------------------------------------------------------------|
G#|-7-------7-------7---0---7---0---2-------2---------------2---4---|
D#|-------------------------------------------------2---4-----------|
    1 + 2 + 3 + 4 + 1 + 2 + 3 + 4 + 1 + 2 + 3 + 4 + 1 + 2 + 3 + 4 +

Bridge 2:26
F#|---------------------------------7---------------4---------------|
C#|-7---------------4-----------------------------------------------|
G#|-----5---5---5-------5---5---5-------5---5---5-------5---5---5---|
D#|-----------------------------------------------------------------|
    1 + 2 + 3 + 4 + 1 + 2 + 3 + 4 + 1 + 2 + 3 + 4 + 1 + 2 + 3 + 4 +

F#|-------------------------------------------------4---4---4---4---|
C#|-6---------------6---------------6-------------------------------|
G#|-----7---7---7-----------7-----------7---7---7-------------------|
D#|-----------------------------------------------------------------|
    1 + 2 + 3 + 4 + 1 + 2 + 3 + 4 + 1 + 2 + 3 + 4 + 1 + 2 + 3 + 4 +

F#|---------------------------------7---------------4---------------|
C#|-7---------------4-----------------------------------------------|
G#|-----5---5-----------5---5---5-------5---5---5-------5---5---5---|
D#|-----------------------------------------------------------------|
    1 + 2 + 3 + 4 + 1 + 2 + 3 + 4 + 1 + 2 + 3 + 4 + 1 + 2 + 3 + 4 +

F#|-----------------------------------------------------------------|
C#|-6---------------------------------------------------------------|
G#|-----7---7---7---7---7---7---7---7---7---7---7---7---7---7---7---|
D#|-----------------------------------------------------------------|
    1 + 2 + 3 + 4 + 1 + 2 + 3 + 4 + 1 + 2 + 3 + 4 + 1 + 2 + 3 + 4 +

Interlude 2:40
F#|-----------------------------------------------------------------|
C#|-----------------------------------------------------------------|
G#|-----------------------------------------------------------------|
D#|-2---------------------------------------------------------------|
    1 + 2 + 3 + 4 + 1 + 2 + 3 + 4 + 1 + 2 + 3 + 4 + 1 + 2 + 3 + 4 +

F#|-----------------------------------------------------------------|
C#|-----------------------------------------------------------------|
G#|-----------------------------------------------------------------|
D#|-----------------------------------------------------------------|
    1 + 2 + 3 + 4 + 1 + 2 + 3 + 4 + 1 + 2 + 3 + 4 + 1 + 2 + 3 + 4 +

Pre Chorus 2:49
F#|-----------------------------------------------------------------|
C#|-----------------------------------------------------------------|
G#|-----------------5---5---5---5---0---0---0---0---2---2---2---2---|
D#|-2---2---2---2---------------------------------------------------|
    1 + 2 + 3 + 4 + 1 + 2 + 3 + 4 + 1 + 2 + 3 + 4 + 1 + 2 + 3 + 4 +

F#|-----------------------------------------------------------------|
C#|-----------------------------------------------------------------|
G#|-----------------5---5---5---5---0---0---0---0---7---7---7-------|
D#|-2---2---2---2---------------------------------------------------|
    1 + 2 + 3 + 4 + 1 + 2 + 3 + 4 + 1 + 2 + 3 + 4 + 1 + 2 + 3 + 4 +

Chorus 2:59
F#|-----------------------------------------------------------------|
C#|-----------------------------------------------------------------|
G#|-----------------5---5---5---5---0---0---0-------2---2---2---2---|
D#|-2-------2---2---------------------------------------------------|
    1 + 2 + 3 + 4 + 1 + 2 + 3 + 4 + 1 + 2 + 3 + 4 + 1 + 2 + 3 + 4 +

F#|-----------------------------------------------------------------|
C#|-----------------------------------------------------------------|
G#|-----------------5---5---5---5---0---0---0-------7---7---7---7---|
D#|-2---2---2---2---------------------------------------------------|
    1 + 2 + 3 + 4 + 1 + 2 + 3 + 4 + 1 + 2 + 3 + 4 + 1 + 2 + 3 + 4 +

3:06
F#|-----------------------------------------------------------------|
C#|-----------------------------------------------------------------|
G#|-----------------5---5---5---5---0---0---0---0---2---2---2---2---|
D#|-2---2---2---2---------------------------------------------------|
    1 + 2 + 3 + 4 + 1 + 2 + 3 + 4 + 1 + 2 + 3 + 4 + 1 + 2 + 3 + 4 +

F#|-----------------------------------------------------------------|
C#|-----------------------------------------------------------------|
G#|-----------------5---5---5---5---0---0---0---0---7---7---7---7---|
D#|-2---2---2---2---------------------------------------------------|
    1 + 2 + 3 + 4 + 1 + 2 + 3 + 4 + 1 + 2 + 3 + 4 + 1 + 2 + 3 + 4 +

3:13
F#|-----------------------------------------------------------------|
C#|-------------------------------------------------------------4---|
G#|-4---4---4---4---4---4---4---4---4---4---4---4---4---4---4-------|
D#|-----------------------------------------------------------------|
    1 + 2 + 3 + 4 + 1 + 2 + 3 + 4 + 1 + 2 + 3 + 4 + 1 + 2 + 3 + 4 +

F#|----------------------------------------------------------------------|
C#|-6---6---6---7---7---7---9---9---11---11---11---11---11---------------|
G#|----------------------------------------------------------------------|
D#|----------------------------------------------------------------------|
    1 + 2 + 3 + 4 + 1 + 2 + 3 + 4 + 1  + 2  + 3  + 4  + 1  + 2 + 3 + 4 +
Tabbed by Dave Vucko

===============================================================================

Methadone

Verse
F#|-----------------------------------------------------------------|
C#|-----------------------------------------------------------------|
G#|-0-------------------------------4---------------4-----6-----7---|
D#|-----------------2-----------------------------------------------|
    1 + 2 + 3 + 4 + 1 + 2 + 3 + 4 + 1 + 2 + 3 + 4 + 1 + 2 + 3 + 4 +

F#|-----------------------------------------------------------------|
C#|/7---------------4-----------6p4---------------------------------|
G#|---------------------------------4---------------2-----6-----7---|
D#|-----------------------------------------------------------------|
    1 + 2 + 3 + 4 + 1 + 2 + 3 + 4 + 1 + 2 + 3 + 4 + 1 + 2 + 3 + 4 +

0:!3
F#|-----------------------------------------------------------------|
C#|-----------------------------------------------------------------|
G#|-------------------------------4---------------------------2-----|
D#|---------------------------2-----------------------------------2-|
    1 + 2 + 3 + 4 + 1 + 2 + 3 + 4 + 1 + 2 + 3 + 4 + 1 + 2 + 3 + 4 +


F#|-----------------------------------------------------------------|
C#|---------------------------------------------------4-----6---4---|
G#|-0-------------------------------4-----6-----7-------------------|
D#|---------------------------2---2---------------------------------|
    1 + 2 + 3 + 4 + 1 + 2 + 3 + 4 + 1 + 2 + 3 + 4 + 1 + 2 + 3 + 4 +
 
F#|-----------------------------------------------------------------|
C#|-7-----------6---4-----------6p4---------------------------------|
G#|---------------------------------4-4-4-4-4-4-4-4---------------2-|
D#|-----------------------------------------------------------------|
    1 + 2 + 3 + 4 + 1 + 2 + 3 + 4 + 1 + 2 + 3 + 4 + 1 + 2 + 3 + 4 +

Pre Chorus 0:31
F#|-----------------------------------------------------------------|
C#|-----------------------------------------------------------------|
G#|---2-2-2-2-2-2-2-2-2-2-2-------4---4-4-4-4-4-4-4-4-4-4-4-------2-|
D#|-------------------------0-2-0---------------------------4-5-4---|
    1 + 2 + 3 + 4 + 1 + 2 + 3 + 4 + 1 + 2 + 3 + 4 + 1 + 2 + 3 + 4 +

F#|-----------------------------------------------------------------|
C#|-----------------------------------------------------------------|
G#|---2-2-2-2-2-2-2-2-2-2-2-----------------------------------------|
D#|-------------------------0-0-0-2---2-2-2-2-2-2-4---4-4-4-4-4-4-5-|
    1 + 2 + 3 + 4 + 1 + 2 + 3 + 4 + 1 + 2 + 3 + 4 + 1 + 2 + 3 + 4 +

F#|---------------------------------|
C#|---------------------------------|
G#|---------------------------------|
D#|---5-5-5-5-5-5-5-----------------|
    1 + 2 + 3 + 4 + 1 + 2 + 3 + 4 +

Chorus 0:45
F#|-----------------------------------------------------------------|
C#|-----------------------------------------------------------------|
G#|-4-4-4-4-4-4-4-4-0-0-0-0-0-0-0-0-----------------2-2-2-2-2-2-2-2-|
D#|---------------------------------0-0-0-0-0-0-0-0-----------------|
    1 + 2 + 3 + 4 + 1 + 2 + 3 + 4 + 1 + 2 + 3 + 4 + 1 + 2 + 3 + 4 +

F#|-----------------------------------------------------------------|
C#|---------------------------------2-2-2-2-2-2-2-2-----------------|
G#|-4-4-4-4-4-4-4-4-0-0-0-0-0-0-0-0-----------------2-2-2-2-2-2-2-2-|
D#|-----------------------------------------------------------------|
    1 + 2 + 3 + 4 + 1 + 2 + 3 + 4 + 1 + 2 + 3 + 4 + 1 + 2 + 3 + 4 +

F#|-----------------------------------------------------------------|
C#|-------------4-4-7-7-7-7-7-7-9-9---------------------------------|
G#|-4-4-4-7-7-7---------------------7-7-7-6-6-6-4-4-2-2-2-2-2-2-2-2-|
D#|-----------------------------------------------------------------|
    1 + 2 + 3 + 4 + 1 + 2 + 3 + 4 + 1 + 2 + 3 + 4 + 1 + 2 + 3 + 4 +

F#|-----------------------------------------------------------------|
C#|-----------------------------------------------------------------|
G#|-0-0-0-0-0-0-0-0-0-0-0-0-0-0-0-0-0-0-0-0-0-0-0-0-0-0-0-0-2-4-2-4-|
D#|-----------------------------------------------------------------|
    1 + 2 + 3 + 4 + 1 + 2 + 3 + 4 + 1 + 2 + 3 + 4 + 1 + 2 + 3 + 4 +

Interlude
F#|-----------------------------------------------------------------|
C#|-----------------------------------------------------------------|
G#|-0-0-0-0-0-0-0-0-----------------4-4-4-4-4-4-4-4-4-4-4-4-4-4-4-4-|
D#|-----------------2-2-2-2-2-2-2-2---------------------------------|
    1 + 2 + 3 + 4 + 1 + 2 + 3 + 4 + 1 + 2 + 3 + 4 + 1 + 2 + 3 + 4 +

Verse 1:14
F#|-----------------------------------------------------------------|
C#|-----------------------------------------------------------------|
G#|-0-0-0-0-0-0-0-0-----------------4-4-4-4-4-4-4-4-4-4-4-4-4-2-0---|
D#|-----------------2-2-2-2-2-2-2-2-------------------------------4-|
    1 + 2 + 3 + 4 + 1 + 2 + 3 + 4 + 1 + 2 + 3 + 4 + 1 + 2 + 3 + 4 +

F#|-----------------------------------------------------------------|
C#|-----------------------------------------------------------------|
G#|-0-0-0-0-0-0-0-0-----------------4-4-4-4-4-4-4-4-2-2-2-2-2-2-0---|
D#|-----------------2-2-2-2-2-2-2-2-------------------------------4-|
    1 + 2 + 3 + 4 + 1 + 2 + 3 + 4 + 1 + 2 + 3 + 4 + 1 + 2 + 3 + 4 +

F#|-----------------------------------------------------------------|
C#|-----------------------------------------------------------------|
G#|-0-0-0-0-0-0-0-0-----------------4-4-4-4-4-4-4-4-2-2-2-2-2-2-2-2-|
D#|-----------------2-2-2-2-2-2-2-2---------------------------------|
    1 + 2 + 3 + 4 + 1 + 2 + 3 + 4 + 1 + 2 + 3 + 4 + 1 + 2 + 3 + 4 +

F#|-----------------------------------------------------------------|
C#|-----------------4-4-4-4-4-4-------------------------------------|
G#|-0-0-0-0-0-0-6-7-------------7-6-4-4-4-4-4-4-4-4-4-4-4-4-------2-|
D#|---------------------------------------------------------2-2-----|
    1 + 2 + 3 + 4 + 1 + 2 + 3 + 4 + 1 + 2 + 3 + 4 + 1 + 2 + 3 + 4 + 

Pre Chorus 1:37
F#|-----------------------------------------------------------------|
C#|-----------------------------------------------------------------|
G#|---2-2---2-2-2-2-2-2-2---------4---4-4-4-4-4-4-4-4-4-4-4-------2-|
D#|-------------------------0-2-0---------------------------4-5-4---|
    1 + 2 + 3 + 4 + 1 + 2 + 3 + 4 + 1 + 2 + 3 + 4 + 1 + 2 + 3 + 4 +

F#|-----------------------------------------------------------------|
C#|-----------------------------------------------------------------|
G#|---2-2-2-2-2-2-2-2-2-2-2-----------------------------------------|
D#|-------------------------0-0-0-2---2-2-2-2-2-2-4---4-4-4-4-4-4-5-|
    1 + 2 + 3 + 4 + 1 + 2 + 3 + 4 + 1 + 2 + 3 + 4 + 1 + 2 + 3 + 4 +

F#|-------------------------------------------------|
C#|-------------------------------------------------|
G#|-----------------2-------------------------------|
D#|---5-5-5-5-5-5-5---------------------------------|
    1 + 2 + 3 + 4 + 1 + 2 + 3 + 4 + 1 + 2 + 3 + 4 +

Chorus 1:52
F#|-----------------------------------------------------------------|
C#|-----------------------------------------------------------------|
G#|-4-4-4-4-4-4-4-4-0-0-0-0-0-0-0-0-----------------2-2-2-2-2-2-2-2-|
D#|---------------------------------0-0-0-0-0-0-0-0-----------------|
    1 + 2 + 3 + 4 + 1 + 2 + 3 + 4 + 1 + 2 + 3 + 4 + 1 + 2 + 3 + 4 +

F#|-----------------------------------------------------------------|
C#|---------------------------------2-2-2-2-2-2-2-2-----------------|
G#|-4-4-4-4-4-4-4-4-0-0-0-0-0-0-0-0-----------------2-2-2-2-2-2-2-2-|
D#|-----------------------------------------------------------------|
    1 + 2 + 3 + 4 + 1 + 2 + 3 + 4 + 1 + 2 + 3 + 4 + 1 + 2 + 3 + 4 +

F#|-----------------------------------------------------------------|
C#|-------------4-4-7-7-7-7-7-7-9-9---------------------------------|
G#|-4-4-4-7-7-7---------------------7-7-7-6-6-6-4-4-2-2-2-2-2-2-2-2-|
D#|-----------------------------------------------------------------|
    1 + 2 + 3 + 4 + 1 + 2 + 3 + 4 + 1 + 2 + 3 + 4 + 1 + 2 + 3 + 4 +

F#|-----------------------------------------------------------------|
C#|-----------------------------------------------------------------|
G#|-0-0-0-0-0-0-0-0-0-0-0-0-0-0-0-0-2-2-2-2-2-2-2-2-2-2-2-2-2-2-2-2-|
D#|-----------------------------------------------------------------|
    1 + 2 + 3 + 4 + 1 + 2 + 3 + 4 + 1 + 2 + 3 + 4 + 1 + 2 + 3 + 4 +

Bridge 2:16
F#|-----------------------------------------------------------------|
C#|-----------------------------------------------------------------|
G#|-4-4-4-4-4-4-4-4-4-4-4-4-4-4-4-4-0-0-0-0-0-0-0-0-0-0-0-0-0-0-4-6-|
D#|-----------------------------------------------------------------|
    1 + 2 + 3 + 4 + 1 + 2 + 3 + 4 + 1 + 2 + 3 + 4 + 1 + 2 + 3 + 4 + 

F#|-----------------------------------------------------------------|
C#|---------------------------------4-4-4-4-4-4-4-4-4-4-4-4-4-4-4-4-|
G#|-7-7-7-7-7-7-7-7-7-7-7-7-7-7-6-7---------------------------------|
D#|-----------------------------------------------------------------|
    1 + 2 + 3 + 4 + 1 + 2 + 3 + 4 + 1 + 2 + 3 + 4 + 1 + 2 + 3 + 4 + 

F#|-----------------------------------------------------------------|
C#|-------------------------------4-6-6-6-6-6-6-6-6-6-6-6-6-6-6-4-6-|
G#|-4-4-4-4-4-4-4-4-4-4-4-4-4-4-7-----------------------------------|
D#|-----------------------------------------------------------------|
    1 + 2 + 3 + 4 + 1 + 2 + 3 + 4 + 1 + 2 + 3 + 4 + 1 + 2 + 3 + 4 + 

F#|-----------------------------------------------------------------|
C#|-7-7-7-7-7-7-7-7-7-7-7-7-7-7-6-7-9-9-9-9-9-9-9-9-9-9-9-9-9-9-9-9-|
G#|-----------------------------------------------------------------|
D#|-----------------------------------------------------------------|
    1 + 2 + 3 + 4 + 1 + 2 + 3 + 4 + 1 + 2 + 3 + 4 + 1 + 2 + 3 + 4 + 


F#|-----------------------------------------------------------------|
C#|-----------------------------------------------------------------|
G#|-4---------------------------------------------------------------|
D#|-----------------------------------------------------------------|
    1 + 2 + 3 + 4 + 1 + 2 + 3 + 4 + 1 + 2 + 3 + 4 + 1 + 2 + 3 + 4 + 

Rest

Chorus 3:01
F#|-----------------------------------------------------------------|
C#|-----------------------------------------------------------------|
G#|-4-4-4-4-4-4-4-4-0-0-0-0-0-0-0-0-----------------2-2-2-2-2-2-2-2-|
D#|---------------------------------0-0-0-0-0-0-0-0-----------------|
    1 + 2 + 3 + 4 + 1 + 2 + 3 + 4 + 1 + 2 + 3 + 4 + 1 + 2 + 3 + 4 +

F#|-----------------------------------------------------------------|
C#|---------------------------------2-2-2-2-2-2-2-2-----------------|
G#|-4-4-4-4-4-4-4-4-0-0-0-0-0-0-0-0-----------------2-2-2-2-2-2-2-2-|
D#|-----------------------------------------------------------------|
    1 + 2 + 3 + 4 + 1 + 2 + 3 + 4 + 1 + 2 + 3 + 4 + 1 + 2 + 3 + 4 +

F#|-----------------------------------------------------------------|
C#|-------------4-4-7-7-7-7-7-7-9-9---------------------------------|
G#|-4-4-4-7-7-7---------------------7-7-7-6-6-6-4-4-2-2-2-2-2-2-2-2-|
D#|-----------------------------------------------------------------|
    1 + 2 + 3 + 4 + 1 + 2 + 3 + 4 + 1 + 2 + 3 + 4 + 1 + 2 + 3 + 4 +

F#|---------------------------------------------------------------------------|
C#|---------------------------11---11-9---------------6-6-6-6---------7-6-----|
G#|-4-/-11-11-11-11-11-11-0-------------12-11-7-7-7-7---------9-9-9-9-----9-7-|
D#|---------------------------------------------------------------------------|
    1 + 2  +  3  +  4  +  1 + 2  + 3  + 4  +  1 + 2 + 3 + 4 + 1 + 2 + 3 + 4 + 

3:23
F#|-------------------------------------------------4---4---4-6-4-4-|
C#|-6---6---6---6-------------------9---9---9---9-------------------|
G#|-4---4---4---4---7---7---7---7---7---7---7---7-------------------|
D#|-----------------5---5---5---5-----------------------------------|
    1 + 2 + 3 + 4 + 1 + 2 + 3 + 4 + 1 + 2 + 3 + 4 + 1 + 2 + 3 + 4 +

F#|-----------------------------------------------------------------|
C#|-------------4---7---7---7---7-----------------------------------|
G#|-4---4-7-------------------------7---7-6-----4---2-------2---4---|
D#|-----------------------------------------------------4-----------|
    1 + 2 + 3 + 4 + 1 + 2 + 3 + 4 + 1 + 2 + 3 + 4 + 1 + 2 + 3 + 4 +

F#|-----------------------------------------------------------------|
C#|-----------------------------------------------------------------|
G#|-0---------------------------------------------------------------|
D#|-----------------------------------------------------------------|
    1 + 2 + 3 + 4 + 1 + 2 + 3 + 4 + 1 + 2 + 3 + 4 + 1 + 2 + 3 + 4 +
Tabbed by Dave Vucko

 
========================================================================================

Zero Visibility


Intro 0:06
F#|-------------------------------------------------------------------------------------------------|
C#|-------------------------------------------------------------------------------------------------|
G#|-------------5-7-7-7-7-7-------------5-7-7-7-7-7-------------2-0---------------------5-7-7-7-7-7-|
D#|-0---0-0-0-0-------------0---0-0-0-0-------------3-5-5-5-3-2-----3-3-5-3-0---0-0---0-------------|
    1 + 2 + 3 + 1 + 2 + 3 + 1 + 2 + 3 + 1 + 2 + 3 + 1 + 2 + 3 + 1 + 2 + 3 + 1 + 2 + 3 + 1 + 2 + 3 + 

0:13
F#|-------------------------------------------------------------------------------------------------|
C#|-------------------------------------------------------------------------------------------------|
G#|-------------2-0---------------------5-7-7-7-7-7-------------2-0---------2-----------------------|
D#|-3-5-5-5-3-2-----3-3-5-3-0-0-0-0-0-0-------------3-5-5-5-3-2-----3-3-5-3-------------------------|
    1 + 2 + 3 + 1 + 2 + 3 + 1 + 2 + 3 + 1 + 2 + 3 + 1 + 2 + 3 + 1 + 2 + 3 + 1 + 2 + 3 + 1 + 2 + 3 + 

0:22
F#|-------------------------------------------------|
C#|-------------------------------------------------|
G#|-------------------------------------------------|
D#|-0---0-0---0-0---0-0---0-0---0-0---0-0---0-0---0-|
    1 + 2 + 3 + 1 + 2 + 3 + 1 + 2 + 3 + 1 + 2 + 3 +

Verse 0:24
F#|-------------------------------------------------------------------------------------------------|
C#|-------------------------------------------------------------------------------------------------|
G#|-------------------------------------------------------------------------------------------------|
D#|-0---0-0---0-0---0-0---0-0---0-0---0-0-0-0-0-0-0-0---0-0---0-0---0-0---0-0---0-0-0-0-0-0-0-0-0-0-|
    1 + 2 + 3 + 1 + 2 + 3 + 1 + 2 + 3 + 1 + 2 + 3 + 1 + 2 + 3 + 1 + 2 + 3 + 1 + 2 + 3 + 1 + 2 + 3 + 

F#|-------------------------------------------------------------------------------------------------|
C#|-------------------------------------------------------------------------------------------------|
G#|-------------------------------------------------------------2-0---------------------5-7-7-7-7-7-|
D#|-0---0-0---0-0-0-0-0-0-0-0---0-0---0-0-0-0-0-0-0-3-5-5-5-3-2-----3-3-5-3-0---0-0---0-------------|
    1 + 2 + 3 + 1 + 2 + 3 + 1 + 2 + 3 + 1 + 2 + 3 + 1 + 2 + 3 + 1 + 2 + 3 + 1 + 2 + 3 + 1 + 2 + 3 + 

Pre Chorus 0:37
F#|-----------------------------------------------------------------------9-12-12-12-------------------------|
C#|-------------------------------------------------------------------9-9------------12-12-12----------------|
G#|-3-3-3-3-3-3-3-3-3-3-3-3-3-3-3-3-3-3-3-3-3-3-3-3-7-7-7-7-7-7-7-7-7-------------------------10-10-10-9-9-9-|
D#|----------------------------------------------------------------------------------------------------------|
    1 + 2 + 3 + 1 + 2 + 3 + 1 + 2 + 3 + 1 + 2 + 3 + 1 + 2 + 3 + 1 + 2 + 3 + 1  +  2  +  3  +  1  +  2  + 3 + 

F#|-------------------------------------------------------------------------------------------------|
C#|-------------------------------------------------------------------------------------------------|
G#|-3-3-3-3-3-3-3-3-3-3-3-3-3-3-3-3-3-3-3-3-3-3-3-3-5-5-5-5-5-5-5-5-5-5-5-5-0---0-0---0-2---0-------|
D#|---------------------------------------------------------------------------------------------3---|
    1 + 2 + 3 + 1 + 2 + 3 + 1 + 2 + 3 + 1 + 2 + 3 + 1 + 2 + 3 + 1 + 2 + 3 + 1 + 2 + 3 + 1 + 2 + 3 + 

Chorus 0:52
F#|-------------------------------------------------------------------------------------------------|
C#|-------------------------------------------------------------------------------------------------|
G#|-------------------------3-------3---3---3---3---------------------------0---0---0---2---0-------|
D#|-0-------0---0---0---0---------------------------3-------3---3---3---3-----------------------3---|
    1 + 2 + 3 + 1 + 2 + 3 + 1 + 2 + 3 + 1 + 2 + 3 + 1 + 2 + 3 + 1 + 2 + 3 + 1 + 2 + 3 + 1 + 2 + 3 + 

F#|-------------------------------------------------------------------------------------------------|
C#|-------------------------------------------------------------------------------------------------|
G#|-------------------------3-------3---3---3---3---5---5---5---5---5---5---0-0-0-0-0---2---0-------|
D#|-0-------0---0---0---0-------------------------------------------------------------3---------3---|
    1 + 2 + 3 + 1 + 2 + 3 + 1 + 2 + 3 + 1 + 2 + 3 + 1 + 2 + 3 + 1 + 2 + 3 + 1 + 2 + 3 + 1 + 2 + 3 + 

F#|-------------------------------------------------------------------------------------------------|
C#|---------2---2---0-------------------------------------------------------------------------------|
G#|---------------------2---3-------3---2---3---5---------------------------0---0---0---2---0-------|
D#|-0-----------------------------------------------3---3---3---3---0---3-----------------------3---|
    1 + 2 + 3 + 1 + 2 + 3 + 1 + 2 + 3 + 1 + 2 + 3 + 1 + 2 + 3 + 1 + 2 + 3 + 1 + 2 + 3 + 1 + 2 + 3 + 

F#|-------------------------------------------------------------------------------------------------|
C#|-------------2---4---5---------------------------------------------------------------------------|
G#|-------------------------3-------3---3---2---3---5---5---5---5---5---5---0-----------------------|
D#|-0-------0---------------------------------------------------------------------------------------|
    1 + 2 + 3 + 1 + 2 + 3 + 1 + 2 + 3 + 1 + 2 + 3 + 1 + 2 + 3 + 1 + 2 + 3 + 1 + 2 + 3 + 1 + 2 + 3 + 

Interlude 1:23
F#|-------------------------------------------------|
C#|-------------------------------------------------|
G#|-------------------------------------------------|
D#|-0---0-0---0-0---0-0---0-0---0-0---0-0---0-0---0-|
    1 + 2 + 3 + 1 + 2 + 3 + 1 + 2 + 3 + 1 + 2 + 3 +

Verse 1:26
F#|-------------------------------------------------------------------------------------------------|
C#|-------------------------------------------------------------------------------------------------|
G#|-------------------------------------------------------------------------------------------------|
D#|-0---0-0---0-0---0-0---0-0---0-0---0-0-0-0-0-0-0-0---0-0---0-0---0-0---0-0---0-0-0-0-0-0-0-0-0-0-|
    1 + 2 + 3 + 1 + 2 + 3 + 1 + 2 + 3 + 1 + 2 + 3 + 1 + 2 + 3 + 1 + 2 + 3 + 1 + 2 + 3 + 1 + 2 + 3 + 

F#|-------------------------------------------------------------------------------------------------|
C#|-------------------------------------------------------------------------------------------------|
G#|-------------------------------------------------------------2-0---------------------5-7-7-7-7-7-|
D#|-0---0-0---0-0-0-0-0-0-0-0---0-0---0-0-0-0-0-0-0-3-5-5-5-3-2-----3-3-5-3-0---0-0---0-------------|
    1 + 2 + 3 + 1 + 2 + 3 + 1 + 2 + 3 + 1 + 2 + 3 + 1 + 2 + 3 + 1 + 2 + 3 + 1 + 2 + 3 + 1 + 2 + 3 + 

Pre Chorus 1:41
F#|-------------------------------------------------|
C#|-------------------------------------------------|
G#|-3-3-3-3-3-3-3-3-3-3-3-3-3-3-3-3-3-3-3-3-3-3-3-3-|
D#|-------------------------------------------------|
    1 + 2 + 3 + 1 + 2 + 3 + 1 + 2 + 3 + 1 + 2 + 3 +  

F#|-----------------------9-12-12-12---------------------------|
C#|-------------------9-9------------12-12-12-------------9-10-|
G#|-7-7-7-7-7-7-7-7-7-------------------------10-10-10-12------|
D#|------------------------------------------------------------|
    1 + 2 + 3 + 1 + 2 + 3 + 1  +  2  +  3  +  1  +  2  +  3 +

F#|-------------------------------------------------------------------------------------------------|
C#|-------------------------------------------------------------------------------------------------|
G#|-3-3-3-3-3-3-3-3-3-3-3-3-3-3-3-3-3-3-3-3-3-3-3-3-5-5-5-5-5-5-5-5-5-5-5-5-0-0-0-0-0-0-2-----------|
D#|-------------------------------------------------------------------------------------------------|
    1 + 2 + 3 + 1 + 2 + 3 + 1 + 2 + 3 + 1 + 2 + 3 + 1 + 2 + 3 + 1 + 2 + 3 + 1 + 2 + 3 + 1 + 2 + 3 + 

Rest

Chorus 1:56
F#|-------------------------------------------------------------------------------------------------|
C#|-------------------------------------------------------------------------------------------------|
G#|-------------------------3-------3---3-------3---------------------------0---0---0---2---0-------|
D#|-0-------0---0-------0---------------------------3-------3---3---3---3-----------------------3---|
    1 + 2 + 3 + 1 + 2 + 3 + 1 + 2 + 3 + 1 + 2 + 3 + 1 + 2 + 3 + 1 + 2 + 3 + 1 + 2 + 3 + 1 + 2 + 3 + 

F#|-------------------------------------------------------------------------------------------------|
C#|-------------------------------------------------------------------------------------------------|
G#|-------------------------3---3---3---3---3---3---5---5---5---5---5---5---0-------0---2---0-------|
D#|-0-------0---0---0---0-------------------------------------------------------3---------------3---|
    1 + 2 + 3 + 1 + 2 + 3 + 1 + 2 + 3 + 1 + 2 + 3 + 1 + 2 + 3 + 1 + 2 + 3 + 1 + 2 + 3 + 1 + 2 + 3 + 

F#|-------------------------------------------------------------------------------------------------|
C#|---------2---2---0-------------------------------------------------------------------------------|
G#|---------------------2---3-------3---2---3---5---------------------------0---0---0---2---0-------|
D#|-0-----------------------------------------------3-------3---3---0---3-----------------------3---|
    1 + 2 + 3 + 1 + 2 + 3 + 1 + 2 + 3 + 1 + 2 + 3 + 1 + 2 + 3 + 1 + 2 + 3 + 1 + 2 + 3 + 1 + 2 + 3 + 

F#|-------------------------------------------------------------------------------------------------|
C#|-------------2---4---5---------------------------------------------------------------------------|
G#|-------------------------3-------3---3---2---3---5---5---5---5---5---5---0-----------------------|
D#|-0-------0---------------------------------------------------------------------------------------|
    1 + 2 + 3 + 1 + 2 + 3 + 1 + 2 + 3 + 1 + 2 + 3 + 1 + 2 + 3 + 1 + 2 + 3 + 1 + 2 + 3 + 1 + 2 + 3 + 

Rest

Solo 2:28
F#|-------------------------------------------------------------------------------------------------|
C#|-------------------------------------------------5-----------------------------------------------|
G#|-------------------------------------------------3-----------------------------------------------|
D#|-0---0-0-----0---0-0-----0---0-0-----0---0-0-----------------------------------------------------|
    1 + 2 + 3 + 1 + 2 + 3 + 1 + 2 + 3 + 1 + 2 + 3 + 1 + 2 + 3 + 1 + 2 + 3 + 1 + 2 + 3 + 1 + 2 + 3 + 

F#|-------------------------------------------------------------------------------------------------|
C#|-7-----------------------------------------------9-----------------------------------------------|
G#|-5-----------------------------------------------7-----------------------------------------------|
D#|-------------------------------------------------------------------------------------------------|
    1 + 2 + 3 + 1 + 2 + 3 + 1 + 2 + 3 + 1 + 2 + 3 + 1 + 2 + 3 + 1 + 2 + 3 + 1 + 2 + 3 + 1 + 2 + 3 + 

F#|-------------------------------------------------------------------------------------------------|
C#|-------------------------------------------------5-----------------------------------------------|
G#|-------------------------------------------------3-----------------------------------------------|
D#|-0-----------------------------------------------------------------------------------------------|
    1 + 2 + 3 + 1 + 2 + 3 + 1 + 2 + 3 + 1 + 2 + 3 + 1 + 2 + 3 + 1 + 2 + 3 + 1 + 2 + 3 + 1 + 2 + 3 + 

F#|-------------------------------------------------|
C#|-7-----------------------------------------------|
G#|-5-----------------------------------------------|
D#|-------------------------------------------------|
    1 + 2 + 3 + 1 + 2 + 3 + 1 + 2 + 3 + 1 + 2 + 3 +  

2:53
F#|---------------------------------------------------------------------------------------------------|
C#|o-------------------------------------------------------------------------------------------------o|
G#|o-------------5-7-7-7-7-7-------------4-5-5-5-5-5-------------3-4-4-4-4-4-------------2-3-3-3-2-0-o|
D#|--0---0-0-0-0-------------0---0-0-0-0-------------0---0-0-0-0-------------0---0-0-0-0--------------|
     1 + 2 + 3 + 1 + 2 + 3 + 1 + 2 + 3 + 1 + 2 + 3 + 1 + 2 + 3 + 1 + 2 + 3 + 1 + 2 + 3 + 1 + 2 + 3 + 

3:06
F#|-------------------------------------------------------------------------11-----------12----11------|
C#|-------------------------------------5-----4--------------------------------------------------------|
G#|-0---0-0-0-0-0---0-0---0-0---0-0---0-------------5---5-5-5-5-5---5-5--------------------------------|
D#|----------------------------------------------------------------------------------------------------|
    1 + 2 + 3 + 1 + 2 + 3 + 1 + 2 + 3 + 1 + 2 + 3 + 1 + 2 + 3 + 1 + 2 + 3 + 1  + 2 + 3 + 1  + 2  + 3 + 

F#|-------------------------------------------------|
C#|-------------------------------------------------|
G#|-3-----------------------------------------------|
D#|-------------------------------------------------|
    1 + 2 + 3 + 1 + 2 + 3 + 1 + 2 + 3 + 1 + 2 + 3 + 

Rest

3:50
F#|-------------------------------------------------|
C#|-------------------------------------------------|
G#|-7---7-7-7-7-7-7-7-7-7-7-7-7-7-7-7-7-2---0-------|
D#|---------------------------------------------3---|
    1 + 2 + 3 + 1 + 2 + 3 + 1 + 2 + 3 + 1 + 2 + 3 + 

Chorus 3:53
F#|-------------------------------------------------------------------------------------------------|
C#|-------------------------------------------------------------------------------------------------|
G#|-------------------------3---3---3---3---3---3---------------------------0---0---0---2---0-------|
D#|-0---0---0---0---0---0---------------------------3---3---3---3---3---3-----------------------3---|
    1 + 2 + 3 + 1 + 2 + 3 + 1 + 2 + 3 + 1 + 2 + 3 + 1 + 2 + 3 + 1 + 2 + 3 + 1 + 2 + 3 + 1 + 2 + 3 + 

F#|-------------------------------------------------------------------------------------------------|
C#|-------------------------------------------------------------------------------------------------|
G#|-------------------------3---3---3---3---3---3---5---5---5---5---5---5---0-------0---2---0-------|
D#|-0---0---0---0---0---0-------------------------------------------------------3---------------3---|
    1 + 2 + 3 + 1 + 2 + 3 + 1 + 2 + 3 + 1 + 2 + 3 + 1 + 2 + 3 + 1 + 2 + 3 + 1 + 2 + 3 + 1 + 2 + 3 + 

F#|-------------------------------------------------------------------------------------------------|
C#|-----2---2---2---0-------------------------------------------------------------------------------|
G#|---------------------2---3-------3---2---3---5---------------------------0---0---0---2---0-------|
D#|-0-----------------------------------------------3---3---3---3---0---3-----------------------3---|
    1 + 2 + 3 + 1 + 2 + 3 + 1 + 2 + 3 + 1 + 2 + 3 + 1 + 2 + 3 + 1 + 2 + 3 + 1 + 2 + 3 + 1 + 2 + 3 + 

F#|-------------------------------------------------------------------------------------------------|
C#|-------------2---4---5---------------------------------------------------------------------------|
G#|-------------------------3-------3---3---2---3---5---5---5---5---5---5---2---0-----------0-------|
D#|-0---0---0-----------------------------------------------------------------------3---3-------3---|
    1 + 2 + 3 + 1 + 2 + 3 + 1 + 2 + 3 + 1 + 2 + 3 + 1 + 2 + 3 + 1 + 2 + 3 + 1 + 2 + 3 + 1 + 2 + 3 + 

F#|-------------------------------------------------|
C#|-------------------------------------------------|
G#|-3-----------------------------------------------|
D#|-------------------------------------------------|
    1 + 2 + 3 + 1 + 2 + 3 + 1 + 2 + 3 + 1 + 2 + 3 + 
Tabbed by Dave Vucko

=============================================================================================

Awake Too Long

Intro 0:08
F#|-----------------------------------------------------------------|
C#|-----------------------------------------------------------------|
G#|-2-22-22-5-55-55-----------------2-22-22-5-55-55---------0-0-0-0-|
D#|-----------------3-33-33-0-00-00-----------------3-33-33---------|
    1 + 2 + 3 + 4 + 1 + 2 + 3 + 4 + 1 + 2 + 3 + 4 + 1 + 2 + 3 + 4 +

F#|-----------------------------------------------------------------|
C#|-----------------5-55-55-----------------------------------------|
G#|-2-22-22-5-55-55---------7-77-77-2-22-22-5-55-55----5-5--7-5-4-5-|
D#|-------------------------------------------------3-3---3---------|
    1 + 2 + 3 + 4 + 1 + 2 + 3 + 4 + 1 + 2 + 3 + 4 + 1 + 2 + 3 + 4 +

F#|---------------------------------|
C#|----------------/4--5--4---------|
G#|-2-22-22-2-22-22---------4-5-4-0-|
D#|---------------------------------|
    1 + 2 + 3 + 4 + 1 + 2 + 3 + 4 + 

Verse 0:24
F#|-----------------------------------------------------------------|
C#|-----------------------------------------------------------------|
G#|-2-22-22-2-22-22-2-22-22-2-22-22-----------------5-55-55-0-00-00-|
D#|---------------------------------3-33-33-3-33-33-----------------|
    1 + 2 + 3 + 4 + 1 + 2 + 3 + 4 + 1 + 2 + 3 + 4 + 1 + 2 + 3 + 4 +

F#|-----------------------------------------------------------------|
C#|---------------------------------------------------------5-4-----|
G#|-2-22-22-2-22-22---------------------------------------------5-4-|
D#|-----------------3-33-33-3-33-33-0-00-00-0-00-00-0-00-00---------|
    1 + 2 + 3 + 4 + 1 + 2 + 3 + 4 + 1 + 2 + 3 + 4 + 1 + 2 + 3 + 4 +

F#|-----------------------------------------------------------------|
C#|-----------------------------------------------------------------|
G#|-2-22-22-2-22-22-2-22-22-2-22-22-----------------5-55-55-0-00-00-|
D#|---------------------------------3-33-33-3-33-33-----------------|
    1 + 2 + 3 + 4 + 1 + 2 + 3 + 4 + 1 + 2 + 3 + 4 + 1 + 2 + 3 + 4 +

F#|-----------------------------------------------------------------|
C#|-----------------------------------------------------------------|
G#|-2-22-22-2-22-22-----------------------------0-0-2-2-2-2-2---4---|
D#|-----------------3-33-33-3-33-33-0-00-00-2-2---------------------|
    1 + 2 + 3 + 4 + 1 + 2 + 3 + 4 + 1 + 2 + 3 + 4 + 1 + 2 + 3 + 4 +

Pre Chorus 0:50
F#|-----------------------------------------------------------------|
C#|-5-55-55-5-55-55-4-44-44-4-4-5-4-2-22-22-2-22-22-----------------|
G#|-------------------------------------------------2-22-22-0-00-00-|
D#|-----------------------------------------------------------------|
    1 + 2 + 3 + 4 + 1 + 2 + 3 + 4 + 1 + 2 + 3 + 4 + 1 + 2 + 3 + 4 +

F#|---------------------------------|
C#|---------------------------------|
G#|-----------------0-0-0-0-0-------|
D#|-3-33-33-3-33-33-----------3-2-0-|
    1 + 2 + 3 + 4 + 1 + 2 + 3 + 4 + 

Chorus 0:59
F#|-----------------------------------------------------------------|
C#|-----------------------------------------------------------------|
G#|-2-22-22-5-55-55-----------------2-22-22-5-55-55---------0-0-0-0-|
D#|-----------------3-33-33-0-00-00-----------------3-33-33---------|
    1 + 2 + 3 + 4 + 1 + 2 + 3 + 4 + 1 + 2 + 3 + 4 + 1 + 2 + 3 + 4 +

F#|-----------------------------------------------------------------|
C#|-----------------5-55-55-----------------------------------------|
G#|-2-22-22-5-55-55---------7--5--4-----------------0-00-00-0-------|
D#|---------------------------------3-33-33-3-30-03-----------3-2-0-|
    1 + 2 + 3 + 4 + 1 + 2 + 3 + 4 + 1 + 2 + 3 + 4 + 1 + 2 + 3 + 4 +

Verse 1:12
F#|-----------------------------------------------------------------|
C#|-----------------------------2-4-5-5-5-5-5-5-5-5-----------------|
G#|-2-2-2-2-2-2-2-2-2-2-2-2-2-2---------------------5-5-5-5-0-0-0-0-|
D#|-----------------------------------------------------------------|
    1 + 2 + 3 + 4 + 1 + 2 + 3 + 4 + 1 + 2 + 3 + 4 + 1 + 2 + 3 + 4 +

F#|-----------------------------------------------------------------|
C#|---------------------------------2-2-2-2-2-2-2-2-4-4-4-4-4-2-0---|
G#|-2-2-2-2-2-2-2-2-----------------------------------------------4-|
D#|-----------------3-3-3-3-3-3-3-3---------------------------------|
    1 + 2 + 3 + 4 + 1 + 2 + 3 + 4 + 1 + 2 + 3 + 4 + 1 + 2 + 3 + 4 +

F#|-----------------------------------------------------------------|
C#|-----------------------------------------------------------------|
G#|-2-2-2-2-2-2-2-2-2-2-2-2-2-2---------------------5-5-5-5-0-0-0-0-|
D#|-----------------------------0-2-3-3-3-3-3-3-3-3-----------------|
    1 + 2 + 3 + 4 + 1 + 2 + 3 + 4 + 1 + 2 + 3 + 4 + 1 + 2 + 3 + 4 +

F#|-----------------------------------------------------------------|
C#|-----------------------------------------------------------------|
G#|-2-2-2-2-2-2-2-2-------------------------------0-2-2-2-2-2---0---|
D#|-----------------3-3-3-3-3-3-3-3-0-0-0-0-2-2-3-------------------|
    1 + 2 + 3 + 4 + 1 + 2 + 3 + 4 + 1 + 2 + 3 + 4 + 1 + 2 + 3 + 4 +

Pre Chorus 1:37
F#|-----------------------------------------------------------------|
C#|-----------------------------------------------------------------|
G#|-----------------------------------------------------------------|
D#|-3---------------2---------------0-------------------------------|
    1 + 2 + 3 + 4 + 1 + 2 + 3 + 4 + 1 + 2 + 3 + 4 + 1 + 2 + 3 + 4 +

F#|---------------------------------|
C#|---------------/-7-7-7-7-7-5-----|
G#|---------------------------------|
D#|-3-------------------------------|
    1 + 2 + 3 + 4 + 1 + 2 + 3 + 4 + 

Chorus 1:47
F#|-----------------------------------------------------------------|
C#|-------------------------------------------------5--4--2---------|
G#|-2-22-22-5-55-55-----------------2-22-22-5-55-55---------0-0-5-4-|
D#|-----------------3-33-33-0-00-00---------------------------------|
    1 + 2 + 3 + 4 + 1 + 2 + 3 + 4 + 1 + 2 + 3 + 4 + 1 + 2 + 3 + 4 +

F#|-----------------------------------------------------------------|
C#|-----------------5-55-55---------5-54-44-----------------7-7-9-9-|
G#|-2-22-22-5-55-55---------7-7-5-4---------7-75-55-0-05-57---------|
D#|-----------------------------------------------------------------|
    1 + 2 + 3 + 4 + 1 + 2 + 3 + 4 + 1 + 2 + 3 + 4 + 1 + 2 + 3 + 4 +

Interlude 2:01
F#|-----------------------------------------------------------------|
C#|-----------------------------------------------------------------|
G#|---------------------------------2-2-2-2-2-2-2-2-0-0-0-0-0-0-0-0-|
D#|-3---3-3-3-3-3-3-0-0-0-0-0-0-0-0---------------------------------|
    1 + 2 + 3 + 4 + 1 + 2 + 3 + 4 + 1 + 2 + 3 + 4 + 1 + 2 + 3 + 4 +

F#|-----------------------------------------------------------------|
C#|-----------------------------------------------------------------|
G#|---------------------------------2-2-2-2-2-2-2-2-----------0-2---|
D#|-3-3-3-3-3-3-3-3-0-0-0-0-0-0-0-0-----------------0-2-2-3-3-----2-|
    1 + 2 + 3 + 4 + 1 + 2 + 3 + 4 + 1 + 2 + 3 + 4 + 1 + 2 + 3 + 4 +

Bridge 2:13
F#|-----------------------------------------------------------------|
C#|-----------------------------------------------------------------|
G#|---------------------------------2-2-2-2-2-2-2-2-4-4-4-5-5-5-4-4-|
D#|-3---3---3-3-3-3-0---0---0-0-0-0---------------------------------|
    1 + 2 + 3 + 4 + 1 + 2 + 3 + 4 + 1 + 2 + 3 + 4 + 1 + 2 + 3 + 4 +

F#|-------------------------------------------------6-------6-7-6---|
C#|-----------------------------5-7-9-9-9-9-9-9-9-9---9-9-9-------9-|
G#|-5-5-5-5-5-5-5-5-7-7-7-7-7-7-------------------------------------|
D#|-----------------------------------------------------------------|
    1 + 2 + 3 + 4 + 1 + 2 + 3 + 4 + 1 + 2 + 3 + 4 + 1 + 2 + 3 + 4 +

2:26
F#|-----------------------------------------------------------------|
C#|-----------------------------------------------------------------|
G#|---------------------------------2---2---2-2-2-2-0-0-0-0-0-0-0-0-|
D#|-3---3-3-3-3-3-3-0---0---0-0-0-0---------------------------------|
    1 + 2 + 3 + 4 + 1 + 2 + 3 + 4 + 1 + 2 + 3 + 4 + 1 + 2 + 3 + 4 +

F#|-----------------------------------------------------------------|
C#|-----------------------------------------------------------------|
G#|---------------------------------0---0-0-0-0-0-0-0-0-0-0-0-0-0-0-|
D#|-3---3-3-3-3-3-3-3-3-3-3-3-3-3-3---------------------------------|
    1 + 2 + 3 + 4 + 1 + 2 + 3 + 4 + 1 + 2 + 3 + 4 + 1 + 2 + 3 + 4 +

Pre Chorus 2:39
F#|-----------------------------------------------------------------|
C#|-----------------------------------------------------------------|
G#|-2---------------------------------------------------------------|
D#|-----------------------------------------------------------------|
    1 + 2 + 3 + 4 + 1 + 2 + 3 + 4 + 1 + 2 + 3 + 4 + 1 + 2 + 3 + 4 +

F#|-----------------------------------------------------------------|
C#|------------------------------------------------/9-9-9-9-9-9-9-9-|
G#|-2-------------------------------2-2-2-2-2-2-2-2-----------------|
D#|-----------------------------------------------------------------|
    1 + 2 + 3 + 4 + 1 + 2 + 3 + 4 + 1 + 2 + 3 + 4 + 1 + 2 + 3 + 4 +

Chorus 2:53
F#|-----------------------------------------------------------------|
C#|-------------------------------------------------5-5-5-5-7-7-7-7-|
G#|-2-2-2-2-5-5-5-5-----------------2-2-2-2-5-5-5-5-----------------|
D#|-----------------3-3-3-3-0-0-0-0---------------------------------|
    1 + 2 + 3 + 4 + 1 + 2 + 3 + 4 + 1 + 2 + 3 + 4 + 1 + 2 + 3 + 4 +

F#|-4-4-4-----------------------------------------------------------------|
C#|-------4-------4-5-5-5-4-----------------------------------------------|
G#|---------5-5-5-----------7-7-7-7-2-2-2-2-5-5-5-5---------0-0-0-0-2-----|
D#|-------------------------------------------------3-3-3-3---------------|
    1 + 2 + 3 + 4 + 1 + 2 + 3 + 4 + 1 + 2 + 3 + 4 + 1 + 2 + 3 + 4 +
Tabbed by Dave Vucko

===========================================================================

People Live Here 

This song doesn't have a bass part, so I wrote one out to play along to.

F#|----------------------------------------------------|
C#|o-7-----------------------10-----------------------o|
G#|o-------------8------------------------------------o|
D#|----------------------------------------------------|
     1 + 2 + 3 + 1 + 2 + 3 + 1  + 2 + 3 + 1 + 2 + 3 + 

Verse 0:08
F#|--------------------------------------------------|
C#|-7-------7---------------10-----------------------|
G#|-------------8-------8----------------------------|
D#|--------------------------------------------------|
    1 + 2 + 3 + 1 + 2 + 3 + 1  + 2 + 3 + 1 + 2 + 3 + 

F#|------------------------------------------------------|
C#|-7-------7---------------10-------10------------------|
G#|-------------8-------8-----------------10---10---10---|
D#|------------------------------------------------------|
    1 + 2 + 3 + 1 + 2 + 3 + 1  + 2 + 3  + 1  + 2  + 3  +

0:17
F#|-----------------------------------------------------|
C#|-10-----------10-----------12------------------------|
G#|-8-------------------------10-----------12-----------|
D#|-----------------------------------------------------|
    1  + 2 + 3 + 1  + 2 + 3 + 1  + 2 + 3 + 1  + 2 + 3 + 

F#|--------------------------------------------------------|
C#|-10-----------10----------12-----------12h14-12p10-10---|
G#|-8------------------------10----------------------------|
D#|--------------------------------------------------------|
    1  + 2 + 3 + 1 + 2 + 3 + 1  + 2 + 3 + 1  +  2  +  3  + 

F#|-----------------------------------------------------|
C#|-10-----------10-----------12------------------------|
G#|-8-------------------------10-----------12-----------|
D#|-----------------------------------------------------|
    1  + 2 + 3 + 1  + 2 + 3 + 1  + 2 + 3 + 1  + 2 + 3 + 

F#|--------------------------------------------------------------------------|
C#|-10-----------------------12----------------------------------------------|
G#|-8------------------------10----------------------------------------------|
D#|--------------------------------------------------------------------------|
    1  + 2 + 3 + 1 + 2 + 3 + 1 + 2 + 3 + 1 + 2 + 3 + 1 + 2 + 3 + 1 + 2 + 3 + 

Verse 0:36
F#|-----------------------------------------------------|
C#|-7-----------------------10-----------10h12-10---9---|
G#|-------------8---8---8-------------------------------|
D#|-----------------------------------------------------|
    1 + 2 + 3 + 1 + 2 + 3 + 1  + 2 + 3 + 1  +  2  + 3 + 

F#|------------------------------------------------------|
C#|-7-------7---------------10-------10------------------|
G#|-------------8-------8-----------------10--------10---|
D#|------------------------------------------------------|
    1 + 2 + 3 + 1 + 2 + 3 + 1  + 2 + 3  + 1  + 2  + 3  +

0:45
F#|-----------------------------------------------------|
C#|-10-----------10-----------12------------------------|
G#|-8-------------------------10-----------12-----------|
D#|-----------------------------------------------------|
    1  + 2 + 3 + 1  + 2 + 3 + 1  + 2 + 3 + 1  + 2 + 3 + 

F#|--------------------------------------------------------|
C#|-10-----------10----------12-----------12h14-12p10-10---|
G#|-8------------------------10----------------------------|
D#|--------------------------------------------------------|
    1  + 2 + 3 + 1 + 2 + 3 + 1  + 2 + 3 + 1  +  2  +  3  + 

F#|-----------------------------------------------------|
C#|-10-----------10-----------12------------------------|
G#|-8-------------------------10-----------12-----------|
D#|-----------------------------------------------------|
    1  + 2 + 3 + 1  + 2 + 3 + 1  + 2 + 3 + 1  + 2 + 3 + 

F#|---------------------------------------------------------------------------------|
C#|-10-----------------------12-----------12-----------12-----12---12-12-----12-----|
G#|-8------------------------10-----------10-----------10-----10---10-10-----10-----|
D#|---------------------------------------------------------------------------------|
    1  + 2 + 3 + 1 + 2 + 3 + 1  + 2 + 3 + 1  + 2 + 3 + 1  + 2 +  3 +  1  + 2 +  3 + 

Pre Chorus 1:04
F#|---------------14t-------------------------------------|
C#|----------14t---------------10----------10---12---10---|
G#|-12----------------------------------------------------|
D#|-------------------------------------------------------|
    1  + 2 + 3  + 1  + 2 + 3 + 1 + 2 + 3 + 1  + 2  + 3  + 

F#|-12---------------------------------------------------|
C#|-10---------------10---9---12-----------10---9--------|
G#|---------------------------10--------------------12---|
D#|------------------------------------------------------|
    1  + 2 + 3 + 1 + 2  + 3 + 1  + 2 + 3 + 1  + 2 + 3  + 

1:14
F#|----------------------------------------------12---|
C#|--------------9-----------10-----------------------|
G#|-12------------------------------------------------|
D#|---------------------------------------------------|
    1  + 2 + 3 + 1 + 2 + 3 + 1 + 2 + 3 + 1 + 2 + 3  + 

F#|--------------12t-----------------------------------|
C#|---------------------------12t----------------------|
G#|-10-------------------------------------------------|
D#|----------------------------------------------------|
    1  + 2 + 3 + 1  + 2 + 3 + 1  + 2 + 3 + 1 + 2 + 3 + 

Chorus 1:22
F#|--------------------------------------------------|
C#|--------------------------7-----------7---9---7---|
G#|-8-----------10-----------------------------------|
D#|--------------------------------------------------|
    1 + 2 + 3 + 1  + 2 + 3 + 1 + 2 + 3 + 1 + 2 + 3 + 

F#|------------------------------------------------------|
C#|-10---------------12---10---12-----------9------------|
G#|----------------------------10-----------10-----------|
D#|------------------------------------------------------|
    1  + 2 + 3 + 1 + 2  + 3  + 1  + 2 + 3 + 1  + 2 + 3 + 

1:32
F#|---------------------------------------------------------------------------|
C#|-10------------------------------------------------------------------------|
G#|-8------------------------------------------------10r----------------------|
D#|---------------------------------------------------------------------------|
    1  + 2 + 3 + 1 + 2 + 3 + 1 + 2 + 3 + 1 + 2 + 3 + 1  + 2 + 3 + 1 + 2 + 3 + 

Interlude 1:37
F#|--------------------------------------------------|
C#|-7-----------------------10-----------------------|
G#|-------------8------------------------------------|
D#|--------------------------------------------------|
    1 + 2 + 3 + 1 + 2 + 3 + 1  + 2 + 3 + 1 + 2 + 3 + 

F#|-----------------------------------------------------|
C#|-7-----------------------10-----------10--/12\--10---|
G#|-------------8---------------------------------------|
D#|-----------------------------------------------------|
    1 + 2 + 3 + 1 + 2 + 3 + 1  + 2 + 3 + 1  + 2  + 3 + 

Verse 1:46
F#|-----------14t-----------10-------------12t------------12t--|
C#|------14t-----------10t-------10---14t-------10---14t-------|
G#|-12-------------8-------------------------------------------|
D#|------------------------------------------------------------|
    1  + 2  + 3  + 1 + 2  + 3  + 1  + 2  + 3  + 1  + 2  + 3  + 

F#|-----------14t-----------10-------------12t-----------------|
C#|------14t-----------10t-------10---14t-------9----9----9----|
G#|-12-------------8----------------------------10---10---10---|
D#|------------------------------------------------------------|
    1  + 2  + 3  + 1 + 2  + 3  + 1  + 2  + 3  + 1  + 2  + 3  + 

1:55
F#|-----------------------------------------------------|
C#|-10-----------10-----------12------------------------|
G#|-8-------------------------10-----------12-----------|
D#|-----------------------------------------------------|
    1  + 2 + 3 + 1  + 2 + 3 + 1  + 2 + 3 + 1  + 2 + 3 + 

F#|--------------------------------------------------------|
C#|-10-----------10----------12-----------12h14-12p10-10---|
G#|-8------------------------10----------------------------|
D#|--------------------------------------------------------|
    1  + 2 + 3 + 1 + 2 + 3 + 1  + 2 + 3 + 1  +  2  +  3  + 

2:03
F#|-----------------------------------------------------|
C#|-10-----------10-----------12------------------------|
G#|-8-------------------------10-----------12-----------|
D#|-----------------------------------------------------|
    1  + 2 + 3 + 1  + 2 + 3 + 1  + 2 + 3 + 1  + 2 + 3 + 

F#|--------------------------------------------------------------------------------|
C#|-10-----------------------12-----------12-----------12-----------12-----12-12---|
G#|-8------------------------10-----------10-----------10-----------10-----10-10---|
D#|--------------------------------------------------------------------------------|
    1  + 2 + 3 + 1 + 2 + 3 + 1  + 2 + 3 + 1  + 2 + 3 + 1  + 2 + 3 + 1  + 2 +  3  + 

Pre Chorus 2:14
F#|---------------14t----------------------------------|
C#|----------14t---------------10----------------------|
G#|-12-------------------------------------------------|
D#|----------------------------------------------------|
    1  + 2 + 3  + 1  + 2 + 3 + 1 + 2 + 3 + 1 + 2 + 3 + 

F#|-12---------------------------------------------------|
C#|-10---------------10---9---12-----------10---9--------|
G#|---------------------------10--------------------12---|
D#|------------------------------------------------------|
    1  + 2 + 3 + 1 + 2  + 3 + 1  + 2 + 3 + 1  + 2 + 3  + 

1:14
F#|--------------------------9-------------------12---|
C#|--------------9-----------10-----------------------|
G#|-12------------------------------------------------|
D#|---------------------------------------------------|
    1  + 2 + 3 + 1 + 2 + 3 + 1 + 2 + 3 + 1 + 2 + 3  + 

F#|---------------------------------------------------------|
C#|-12---10---9---10---9--------9-------------9-------------|
G#|------------------------12-------12---10-------12---10---|
D#|---------------------------------------------------------|
    1  + 2  + 3 + 1  + 2 + 3  + 1 + 2  + 3  + 1 + 2  + 3  + 

Chorus 2:32
F#|--------------------------------------------------|
C#|--------------------------7---------------7---9---|
G#|-8-----------10-----------------------------------|
D#|---------------------------------------=----------|
    1 + 2 + 3 + 1  + 2 + 3 + 1 + 2 + 3 + 1 + 2 + 3 + 

F#|------------------------------------------------------|
C#|-10---------------12---10---12-----------9------------|
G#|----------------------------10-----------10-----------|
D#|------------------------------------------------------|
    1  + 2 + 3 + 1 + 2  + 3  + 1  + 2 + 3 + 1  + 2 + 3 + 

F#|---------------------------------------------------|
C#|-10-----------------------10-----------------------|
G#|-8-------------------------------------------------|
D#|---------------------------------------------------|
    1  + 2 + 3 + 1 + 2 + 3 + 1  + 2 + 3 + 1 + 2 + 3 + 

F#|--------------------------------------------------------|
C#|--------------------------------------------------------|
G#|-10r----------------------10---10---10---10---10---10---|
D#|--------------------------------------------------------|
    1  + 2 + 3 + 1 + 2 + 3 + 1  + 2  + 3  + 1  + 2  + 3  + 

Bridge  2:49
F#|---------------------------------------------------|
C#|-7-----------10-----------10-----------7-------7---|
G#|--------------------------8------------0-----------|
D#|---------------------------------------------------|
    1 + 2 + 3 + 1  + 2 + 3 + 1  + 2 + 3 + 1 + 2 + 3 + 

F#|-------------------------------------------------------|
C#|-7---9---10--------------------------------------------|
G#|--------------10-------10-/-12---10-------8---10-------|
D#|-------------------------------------------------------|
    1 + 2 + 3  + 1  + 2 + 3  + 1  + 2  + 3 + 1 + 2  + 3 + 

2:58
F#|-------------------------9---10--------9-------------|
C#|-7-----------10-------------------12-------12---10---|
G#|-----------------------------------------------------|
D#|-----------------------------------------------------|
    1 + 2 + 3 + 1 + 2 + 3 + 1 + 2  + 3  + 1 + 2  + 3  + 

F#|---------------------------------------------9---10---|
C#|-7-----------10-----------10-------10---12------------|
G#|------------------------------------------------------|
D#|------------------------------------------------------|
    1 + 2 + 3 + 1  + 2 + 3 + 1  + 2 + 3  + 1  + 2 + 3  + 

3:07
F#|-------------------------9---10---9---9-------------|
C#|-7-----------10---------------------------12---10---|
G#|----------------------------------------------------|
D#|----------------------------------------------------|
    1 + 2 + 3 + 1 + 2 + 3 + 1 + 2  + 3 + 1 + 2  + 3  + 

F#|----------------------------------------------9---10---|
C#|-7-----------10-----------10--------10---12------------|
G#|-------------------------------------------------------|
D#|-------------------------------------------------------|
    1 + 2 + 3 + 1 + 2 + 3  + 1  + 2  + 3  + 1  + 2 + 3  + 
 
3:15
F#|-------------------------9---10---12---9-------------|
C#|-7-----------10----------------------------12---10---|
G#|-----------------------------------------------------|
D#|-----------------------------------------------------|
    1 + 2 + 3 + 1 + 2 + 3 + 1 + 2  + 3  + 1 + 2  + 3  + 

F#|-----------------------------------------------------|
C#|-7-----------9-----------10-----------10-------------|
G#|-------------------------------------------12---10---|
D#|-----------------------------------------------------|
    1 + 2 + 3 + 1 + 2 + 3 + 1  + 2 + 3 + 1  + 2  + 3  + 

3:25
F#|-------------------------9---10---12---9-------------|
C#|-7-----------10----------------------------12---10---|
G#|-----------------------------------------------------|
D#|-----------------------------------------------------|
    1 + 2 + 3 + 1 + 2 + 3 + 1 + 2  + 3  + 1 + 2  + 3  + 

F#|-----------------------------------------------------|
C#|-7-----------9-----------10--------------------------|
G#|-----------------------------------------------------|
D#|-----------------------------------------------------|
    1 + 2 + 3 + 1 + 2 + 3 + 1  + 2 + 3 + 1  + 2  + 3  +

F#|-------------------------------------------------------------|
C#|-------------------------------------------------------------|
G#|-10---10---10---10---10---10---10---10---10---10---10---10---|
D#|-------------------------------------------------------------|
    1  + 2  + 3  + 1  + 2  + 3  + 1  + 2  + 3  + 1  + 2  + 3  + 

3:37
Rest

Chorus 3:47
F#|-------------------------------------------------------------|
C#|-10---10---10---10---10---10---10---10---10---10---10---10---|
G#|-8----8----8----8----8----8----8----8----8----8----8----8----|
D#|-------------------------------------------------------------|
    1  + 2  + 3  + 1  + 2  + 3  + 1  + 2  + 3  + 1  + 2  + 3  + 

F#|-------------------------------------------------------------|
C#|-12---12---12---12---12---12---12---12---12---12---12---12---|
G#|-10---10---10---10---10---10---10---10---10---10---10---10---|
D#|-------------------------------------------------------------|
    1  + 2  + 3  + 1  + 2  + 3  + 1  + 2  + 3  + 1  + 2  + 3  +  

F#|-------------------------------------------------------------|
C#|-10---10---10---10---10---10---10---10---10---10---10---10---|
G#|-8----8----8----8----8----8----8----8----8----8----8----8----|
D#|-------------------------------------------------------------|
    1  + 2  + 3  + 1  + 2  + 3  + 1  + 2  + 3  + 1  + 2  + 3  + 

F#|--------------------------------------------------|
C#|-12-----------------------------------------------|
G#|-10-r---------------------------------------------|
D#|------------------------3h5-----------------------|
    1  + 2 + 3 + 1 + 2 + 3 + 1 + 2 + 3 + 1 + 2 + 3 + 
Created by Dave Vucko

===============================================================================

Bridges

Intro 0:03
F#|-------------------------------------------------------------------------|
C#|-----------------------------------------------------------------2-2-2---|
G#|-2-2-2-4---4-4-4-4-4-4-4-4-4-4-4-4-4-4-4-4-4-4-4-4-4-4-4-4-4-4-4-------2-|
D#|-------------------------------------------------------------------------|
    3 + 4 + 1 + 2 + 3 + 4 + 1 + 2 + 3 + 4 + 1 + 2 + 3 + 4 + 1 + 2 + 3 + 4 +

F#|-----------------------------------------------------------------|
C#|---------------------------------------------------------2-2-2-4-|
G#|---2-2-2-2-2-2-2-2-2-2-2-2-2-2-2-2-2-2-2-2-2-2-2-2-2-2-2---------|
D#|-----------------------------------------------------------------|
    1 + 2 + 3 + 4 + 1 + 2 + 3 + 4 + 1 + 2 + 3 + 4 + 1 + 2 + 3 + 4 +

F#|-----------------------------------------------------------------|
C#|-4-4-4-4-4-4-4-4-4-4-4-4-4-4-4-4-4-4-4-4-4-4-4-4-4-4-4-4-4-4-4-4-|
G#|-----------------------------------------------------------------|
D#|-----------------------------------------------------------------|
    1 + 2 + 3 + 4 + 1 + 2 + 3 + 4 + 1 + 2 + 3 + 4 + 1 + 2 + 3 + 4 +

F#|-----------------------------------------------------------------|
C#|-2---2-2-2-2-2-2-1-1-1-1-----------------------------------------|
G#|-------------------------4-4-4-4-2---2-2-2-2-2-2-2-2-2-2-----2-2-|
D#|---------------------------------------------------------4-4-----|
    1 + 2 + 3 + 4 + 1 + 2 + 3 + 4 + 1 + 2 + 3 + 4 + 1 + 2 + 3 + 4 +

Verse 0:20 Slower
F#|-----------------------------------------------------------------|
C#|-----------------------------------------------------------------|
G#|-4---------------------------------------------------------------|
D#|-----------------------------------------------------------------|
    1 + 2 + 3 + 4 + 1 + 2 + 3 + 4 + 1 + 2 + 3 + 4 + 1 + 2 + 3 + 4 +

F#|-----------------------------------------------------------------|
C#|-2---2-2-2-2-2-2-2-2-2-2-2-2-2-2---------------------------------|
G#|---------------------------------2-2-2-2-2-2-2-2-------------2---|
D#|-------------------------------------------------2-2-2-2-2-4---4-|
    1 + 2 + 3 + 4 + 1 + 2 + 3 + 4 + 1 + 2 + 3 + 4 + 1 + 2 + 3 + 4 +

F#|-----------------------------------------------------------------|
C#|-----------------------------------------------------------------|
G#|-4-4-4-4-4-4-4-4-4-4-4-4-4-4-4-4-4-4-4-4-4-4-4-4-4-4-4-4-4-4-4-4-|
D#|-----------------------------------------------------------------|
    1 + 2 + 3 + 4 + 1 + 2 + 3 + 4 + 1 + 2 + 3 + 4 + 1 + 2 + 3 + 4 +

F#|-----------------------------------------------------------------|
C#|-2-2-2-2-2-2-2-2-2-2-2-2-2-2-2-4---------------------------------|
G#|---------------------------------2-2-2-2-2-2-2-2-----------------|
D#|-------------------------------------------------2-2-2-2-2-4-5-2-|
    1 + 2 + 3 + 4 + 1 + 2 + 3 + 4 + 1 + 2 + 3 + 4 + 1 + 2 + 3 + 4 +

Pre Chorus 0:42
F#|-----------------------------------------------------------------|
C#|-----------------------------------------------------------------|
G#|-0-0-0-0-0-0-0-0-----------------4-4-4-4-4-4-4-4-2-2-2-2-2-2-2-2-|
D#|-----------------2-2-2-2-2-2-2-2---------------------------------|
    1 + 2 + 3 + 4 + 1 + 2 + 3 + 4 + 1 + 2 + 3 + 4 + 1 + 2 + 3 + 4 +

F#|-----------------------------------------------------------------|
C#|-----------------------------------------------------------------|
G#|-0-0-0-0-0-0-0-0---------------------------------2-2-2-2-2-2-2-2-|
D#|-----------------2-2-2-2-2-2-2-2-4-4-4-4-4-4-4-4-----------------|
    1 + 2 + 3 + 4 + 1 + 2 + 3 + 4 + 1 + 2 + 3 + 4 + 1 + 2 + 3 + 4 +

Chorus 0:53 Faster
F#|-----------------------------------------------------------------|
C#|---------------------------------------------------------2-2-2---|
G#|-4-------------------------------------------------------------2-|
D#|-----------------------------------------------------------------|
    1 + 2 + 3 + 4 + 1 + 2 + 3 + 4 + 1 + 2 + 3 + 4 + 1 + 2 + 3 + 4 +

F#|-----------------------------------------------------------------|
C#|---------------------------------------------------------2-2-2-4-|
G#|---2-2-2-2-2-2-2-2-2-2-2-2-2-2-2-2-2-2-2-2-2-2-2-2-2-2-2---------|
D#|-----------------------------------------------------------------|
    1 + 2 + 3 + 4 + 1 + 2 + 3 + 4 + 1 + 2 + 3 + 4 + 1 + 2 + 3 + 4 +

F#|-----------------------------------------------------------------|
C#|-4-4-4-4-4-4-4-4-4-4-4-4-4-4-4-4-4-4-4-4-4-4-4-4-4-4-4-4-4-4-4-4-|
G#|-----------------------------------------------------------------|
D#|-----------------------------------------------------------------|
    1 + 2 + 3 + 4 + 1 + 2 + 3 + 4 + 1 + 2 + 3 + 4 + 1 + 2 + 3 + 4 +

F#|-----------------------------------------------------------------|
C#|-2---2-2-2-2-2-2-1-1-1-1-----------------------------------------|
G#|-------------------------4-4-4-4-2---2-2-2-2-2-2-2-2-2-2-----2-4-|
D#|---------------------------------------------------------4-4-----|
    1 + 2 + 3 + 4 + 1 + 2 + 3 + 4 + 1 + 2 + 3 + 4 + 1 + 2 + 3 + 4 +

1:11
F#|-----------------------------------------------------------------|
C#|---------------------------------------------------------2-2-2---|
G#|---4-4---4-4-------------0---2---4-4-4-4-4-4-4-4-4---4---------2-|
D#|-------------0---2---4-------------------------------------------|
    1 + 2 + 3 + 4 + 1 + 2 + 3 + 4 + 1 + 2 + 3 + 4 + 1 + 2 + 3 + 4 +

F#|-----------------------------------------------------------------|
C#|---------------------------------------------------------2-2-2-4-|
G#|---2-2---2-2-2---2---2---2-2-2---2---2---2-2-2---2---2-----------|
D#|-----------------------------------------------------------------|
    1 + 2 + 3 + 4 + 1 + 2 + 3 + 4 + 1 + 2 + 3 + 4 + 1 + 2 + 3 + 4 +

F#|-----------------------------------------------------------------|
C#|-4-4-4-4-4-4-4-4-4---4---4-4-4-4-4---4---4-4-4-4-4---------------|
G#|-----------------------------------------------------------------|
D#|-----------------------------------------------------------------|
    1 + 2 + 3 + 4 + 1 + 2 + 3 + 4 + 1 + 2 + 3 + 4 + 1 + 2 + 3 + 4 +

Slower
F#|-----------------------------------------------------------------|
C#|-----------------------------------------------6-7-7-6-6-4-------|
G#|-----------------2---2-2-2-2-----0---0---0---0-------------2-2-2-|
D#|-0---0-0-0-0-0-0-------------2-4---------------------------------|
    1 + 2 + 3 + 4 + 1 + 2 + 3 + 4 + 1 + 2 + 3 + 4 + 1 + 2 + 3 + 4 +

1:30
F#|---------------------------------|
C#|---------------------------------|
G#|-4-------------------------------|
D#|---------------------------2---2-|
    1 + 2 + 3 + 4 + 1 + 2 + 3 + 4 + 

Verse 1:33
F#|-----------------------------------------------------------------|
C#|-----------------------------------------------------------------|
G#|-4-4-4-4-4-4-4-4-4-4-4-4-4-4-4-4-4-4-4-4-4-4-4-4-4-4-4-4-4-4-4-4-|
D#|-----------------------------------------------------------------|
    1 + 2 + 3 + 4 + 1 + 2 + 3 + 4 + 1 + 2 + 3 + 4 + 1 + 2 + 3 + 4 +

F#|-----------------------------------------------------------------|
C#|-----------------------------------------------------------------|
G#|---------------------------------2-2-2-2-2-2-2-2-----------------|
D#|-0-0-0-0-0-0-0-0-0-0-0-0-0-0-0-0-----------------2-2-2-2-2-4-5-2-|
    1 + 2 + 3 + 4 + 1 + 2 + 3 + 4 + 1 + 2 + 3 + 4 + 1 + 2 + 3 + 4 +

F#|-----------------------------------------------------------------|
C#|-----------------------------------------------------------------|
G#|-4-4-4-4-4-4-4-4-4-4-4-4---------4-4-4-4-4-4-4-4-4-4-4-4-4-4-4-4-|
D#|-------------------------2-4-5-2---------------------------------|
    1 + 2 + 3 + 4 + 1 + 2 + 3 + 4 + 1 + 2 + 3 + 4 + 1 + 2 + 3 + 4 +

F#|-----------------------------------------------------------------|
C#|-----------------------------------------------------------------|
G#|---------------------------------2-2-2-2-2-2-2-2-----------------|
D#|-0-0-0-0-0-0-0-0-0-0-0-0-0-0-0-0-----------------2-2-2-2-2-2-4-4-|
    1 + 2 + 3 + 4 + 1 + 2 + 3 + 4 + 1 + 2 + 3 + 4 + 1 + 2 + 3 + 4 +

Pre Chorus 1:55
F#|-----------------------------------------------------------------|
C#|-----------------------------------------------------------------|
G#|-0-0-0-0-0-0-0-0-----------------4-4-4-4-4-4-4-4-2-2-2-2-2-2-2-2-|
D#|-----------------2-2-2-2-2-2-2-2---------------------------------|
    1 + 2 + 3 + 4 + 1 + 2 + 3 + 4 + 1 + 2 + 3 + 4 + 1 + 2 + 3 + 4 +

F#|-----------------------------------------------------------------|
C#|-----------------------------------------------------------------|
G#|-0-0-0-0-0-0-0-0---------------------------------2-r-------------|
D#|-----------------2-2-2-2-2-2-2-2-4-------------------------------|
    1 + 2 + 3 + 4 + 1 + 2 + 3 + 4 + 1 + 2 + 3 + 4 + 1 + 2 + 3 + 4 +

Chorus 2:06 Faster 
F#|-----------------------------------------------------------------|
C#|---------------------------------------------------------2-2-2---|
G#|-4-------------------------------------------------------------2-|
D#|-----------------------------------------------------------------|
    1 + 2 + 3 + 4 + 1 + 2 + 3 + 4 + 1 + 2 + 3 + 4 + 1 + 2 + 3 + 4 +

F#|-----------------------------------------------------------------|
C#|---------------------------------------------------------2-2-2-4-|
G#|---2-2-2-2-2-2-2-2-2-2-2-2-2-2-2-2-2-2-2-2-2-2-2-2-2-2-2---------|
D#|-----------------------------------------------------------------|
    1 + 2 + 3 + 4 + 1 + 2 + 3 + 4 + 1 + 2 + 3 + 4 + 1 + 2 + 3 + 4 +

F#|-----------------------------------------------------------------|
C#|-4-4-4-4-4-4-4-4-4-4-4-4-4-4-4-4-4-4-4-4-4-4-4-4-4-4-4-4-4-4-4-4-|
G#|-----------------------------------------------------------------|
D#|-----------------------------------------------------------------|
    1 + 2 + 3 + 4 + 1 + 2 + 3 + 4 + 1 + 2 + 3 + 4 + 1 + 2 + 3 + 4 +

F#|-----------------------------------------------------------------|
C#|-2---2-2-2-2-2-2-1-1-1-1-----------------------------------------|
G#|-------------------------4-4-4-4-2---2-2-2-2-2-2-2-2-2-2-----2-4-|
D#|---------------------------------------------------------4-4-----|
    1 + 2 + 3 + 4 + 1 + 2 + 3 + 4 + 1 + 2 + 3 + 4 + 1 + 2 + 3 + 4 +

2:23
F#|-----------------------------------------------------------------|
C#|---------------------------------------------------------2-2-2---|
G#|---4-4---4-4-------------0---2---4-4-4-4-4-4-4-4-4---4---------2-|
D#|-------------0---2---4-------------------------------------------|
    1 + 2 + 3 + 4 + 1 + 2 + 3 + 4 + 1 + 2 + 3 + 4 + 1 + 2 + 3 + 4 +

F#|-----------------------------------------------------------------|
C#|---------------------------------------------------------2-2-2-4-|
G#|---2-2---2-2-2---2---2---2-2-2---2---2---2-2-2---2---2-----------|
D#|-----------------------------------------------------------------|
    1 + 2 + 3 + 4 + 1 + 2 + 3 + 4 + 1 + 2 + 3 + 4 + 1 + 2 + 3 + 4 +

F#|-----------------------------------------------------------------|
C#|-4-4-4-4-4-4-4-4-4---4---4-4-4-4-4---4---4-4-4-4-4---------------|
G#|-----------------------------------------------------------------|
D#|-----------------------------------------------------------------|
    1 + 2 + 3 + 4 + 1 + 2 + 3 + 4 + 1 + 2 + 3 + 4 + 1 + 2 + 3 + 4 +

2:35 Slower 
F#|---------------------------------|
C#|---------------------------------|
G#|-----------------2-2-2-2-2-2-----|
D#|-0---0-0-0-0-0-0-------------2-4-|
    1 + 2 + 3 + 4 + 1 + 2 + 3 + 4 + 

Solo 2:39
F#|-------------------------------------------------------6-----4---|
C#|-----7-7-7---------------------------7-7-7-----------6-----4---4-|
G#|-0---------7-7-7-4-4-4---4---4---0---------7-7-7-4-------2-------|
D#|-----------------------------------------------------------------|
    1 + 2 + 3 + 4 + 1 + 2 + 3 + 4 + 1 + 2 + 3 + 4 + 1 + 2 + 3 + 4 +

F#|---------------------6-------------------4-----4-4-4-4---4-4-4-4-|
C#|-----7-7-7---------6---6-------------4-------4-------------------|
G#|-0---------7-7-7-4-------7-7-7-7-2-------------------------------|
D#|-----------------------------------------------------------------|
    1 + 2 + 3 + 4 + 1 + 2 + 3 + 4 + 1 + 2 + 3 + 4 + 1 + 2 + 3 + 4 +

Bridge 2:52
F#|-------------------------6-6---------------------------6---------|
C#|---------------------6-6-----6-----------------------6-----------|
G#|-0---0---0-7-7-7-4-4-----------4-0---0---0-7-7-7-4-4-----2-2-2-2-|
D#|-----------------------------------------------------------------|
    1 + 2 + 3 + 4 + 1 + 2 + 3 + 4 + 1 + 2 + 3 + 4 + 1 + 2 + 3 + 4 +

F#|-----------------------------------------------------------------|
C#|---------------------6-6-2---2---------2-4---4---7-7-7-7-7-7-7-7-|
G#|-0---0---0-7-7-7-4-4-------------2---2---------------------------|
D#|-----------------------------------------------------------------|
    1 + 2 + 3 + 4 + 1 + 2 + 3 + 4 + 1 + 2 + 3 + 4 + 1 + 2 + 3 + 4 +

Chorus 3:04  
F#|-----------------------------------------------------------------|
C#|-----------------------------------------------------------------|
G#|-4---------------------------------------------------------------|
D#|-----------------------------------------------------------------|
    1 + 2 + 3 + 4 + 1 + 2 + 3 + 4 + 1 + 2 + 3 + 4 + 1 + 2 + 3 + 4 +

F#|-----------------------------------------------------------------|
C#|-----------------------------------------------------------------|
G#|-----------------------------------------------------------------|
D#|-----------------------------------------------------------------|
    1 + 2 + 3 + 4 + 1 + 2 + 3 + 4 + 1 + 2 + 3 + 4 + 1 + 2 + 3 + 4 +

3:20
F#|-----------------------------------------------------------------|
C#|-6-------------------------------4-------------------------------|
G#|-4-------------------------------2-------------------------------|
D#|-----------------------------------------------------------------|
    1 + 2 + 3 + 4 + 1 + 2 + 3 + 4 + 1 + 2 + 3 + 4 + 1 + 2 + 3 + 4 +

F#|-----------------------------------------------------------------|
C#|-----------------------------------------------------------------|
G#|-------------------------------------------------2-2-2-2-2-------|
D#|-2-2-2-2-2-2-2-2-2-2-2-2-2-2-2-2-0-0-0-0-0-0-0-0-----------------|
    1 + 2 + 3 + 4 + 1 + 2 + 3 + 4 + 1 + 2 + 3 + 4 + 1 + 2 + 3 + 4 +

3:35
F#|-----------------------------------------------------------------|
C#|-------------------------2-2-2-2-------------------------2-2-2-2-|
G#|-4-4-4-4-4-4-4-4-4-4-4-4---------2-2-2-2-2-2-2-2-2-2-2-2---------|
D#|-----------------------------------------------------------------|
    1 + 2 + 3 + 4 + 1 + 2 + 3 + 4 + 1 + 2 + 3 + 4 + 1 + 2 + 3 + 4 +

F#|-----------------------------------------------------------------|
C#|-4-4-4-4-4-4-6-6-7-7-7-6-6-6-4-----------------------------------|
G#|---------------------------------7-7-7-6-6-6-4-4-2-2-2-------2---|
D#|-------------------------------------------------------4-4-4-----|
    1 + 2 + 3 + 4 + 1 + 2 + 3 + 4 + 1 + 2 + 3 + 4 + 1 + 2 + 3 + 4 +

3:49
F#|-----------------------------------------------------------------|
C#|---------------------------------------------------------2-2-2-2-|
G#|-4-4-4-4-4-4-4-4-4-4-6-6-7-7-2-2-2-2-2-2-2-2-2-2-2-2-2-2---------|
D#|-----------------------------------------------------------------|
    1 + 2 + 3 + 4 + 1 + 2 + 3 + 4 + 1 + 2 + 3 + 4 + 1 + 2 + 3 + 4 +

F#|-----------------------------------------------------------------|
C#|-4-4-4-4-4-4-6-6-7-7-7-6-6-6-4-4---------------------------------|
G#|---------------------------------------7-7-6-4-0-2-2-2-2-2-\-----|
D#|---------------------------------0-0-0---------------------------|
    1 + 2 + 3 + 4 + 1 + 2 + 3 + 4 + 1 + 2 + 3 + 4 + 1 + 2 + 3 + 4 +
Tabbed by Dave Vucko

=======================================================================

End Of Regular Album

=======================================================================

Escape Artists (Bonus Track) 


Intro 0:13
F#|---------------------------------------------------------------------------------------------------|
C#|---------------------------------------------------------------------------------------------------|
G#|-----------------2---2-2-2-2-2-2-----------------5---5-5-5-5-5-5-0---0-0-0-0-0-0-0-0-0-0-0-0-0-0-7-|
D#|-0---0-0---0-0-0-----------------3---3-3-3-3-3-3---------------------------------------------------|
    + 1 + 2 + 3 + 4 + 1 + 2 + 3 + 4 + 1 + 2 + 3 + 4 + 1 + 2 + 3 + 4 + 1 + 2 + 3 + 4 + 1 + 2 + 3 + 4 +

F#|-----------------------------------------------------------------|
C#|------------------------------/5---5-5-5-5-5-5-------------------|
G#|---7-7-7-7-7-7-2---2-2-2-2-2-2-----------------5---5-5-5-5-5-5-0-|
D#|-----------------------------------------------------------------|
    1 + 2 + 3 + 4 + 1 + 2 + 3 + 4 + 1 + 2 + 3 + 4 + 1 + 2 + 3 + 4 +

F#|-----------------------------------------------------------------|
C#|-----------------------------------------------------------------|
G#|---0-0-0-0-0-0-0-0-0-0-0-0-0-0-----------------5---5-5-5-5-5-5---|
D#|-------------------------------3---3-3-3-3-3-3-----------------0-|
    1 + 2 + 3 + 4 + 1 + 2 + 3 + 4 + 1 + 2 + 3 + 4 + 1 + 2 + 3 + 4 +

Verse 0:30
F#|-----------------------------------------------------------------|
C#|-----------------------------------------------------------------|
G#|---------------------------------------------------------------5-|
D#|---0-0-0-0-0-0-0-0-0-0-0-0-0-0-3---3-3-3-3-3-3-3-3-3-3-3-3-3-3---|
    1 + 2 + 3 + 4 + 1 + 2 + 3 + 4 + 1 + 2 + 3 + 4 + 1 + 2 + 3 + 4 +

F#|-----------------------------------------------------------------|
C#|-----------------------------0-2---2-----------2---2-----------2-|
G#|---5-5-5-5-5-5-5-5-5-5-5-2-3-------------------------------------|
D#|-------------------------------------0-0-0-0-0-------0-0-0-0-0---|
    1 + 2 + 3 + 4 + 1 + 2 + 3 + 4 + 1 + 2 + 3 + 4 + 1 + 2 + 3 + 4 +

F#|-----------------------------------------------------------------|
C#|---2-2-2-2-2-2-2-4-4-4-4-5-5-5-----------------------------------|
G#|-------------------------------5---5-5-5-5-5-5-5-5-5-5-5-5-5-5-5-|
D#|-----------------------------------------------------------------|
    1 + 2 + 3 + 4 + 1 + 2 + 3 + 4 + 1 + 2 + 3 + 4 + 1 + 2 + 3 + 4 +

F#|-----------------------------------------------------------------|
C#|-------------------4---5---4-------------------------------------|
G#|---5-5-5-5-5-5-5-5-------------7---7-7-7-7-7-7-7-7-7-7-7-7-7-7-5-|
D#|-----------------------------------------------------------------|
    1 + 2 + 3 + 4 + 1 + 2 + 3 + 4 + 1 + 2 + 3 + 4 + 1 + 2 + 3 + 4 +

Pre Chorus 0:48
F#|-----7-7-------------6---------------5---------------------------|
C#|---7-----7-7-------7---7---7-7-----5---5---4-4-5---4---2---------|
G#|---------------4---------4-----3---------3-----------------5---0-|
D#|-----------------------------------------------------------------|
    1 + 2 + 3 + 4 + 1 + 2 + 3 + 4 + 1 + 2 + 3 + 4 + 1 + 2 + 3 + 4 +

F#|-----------------------------------------------------------------|
C#|-----------------------------------------------------------------|
G#|---0-0-0-0-0-0-0-0-0-0-0-0-0-0-0-2-2-2-2-2-2-2-2-2-2-2-2-2-0-----|
D#|-------------------------------------------------------------3-0-|
    1 + 2 + 3 + 4 + 1 + 2 + 3 + 4 + 1 + 2 + 3 + 4 + 1 + 2 + 3 + 4 +

Chorus 0:58
F#|-----------------------------------------------------------------|
C#|-----------------------------------------------------------------|
G#|---------------2---2-2-2-2-2-2-----------------5---5-5-5-5-5-5-0-|
D#|---0-0-0-0-0-0-----------------3---3-3-3-3-3-3-------------------|
    1 + 2 + 3 + 4 + 1 + 2 + 3 + 4 + 1 + 2 + 3 + 4 + 1 + 2 + 3 + 4 +

F#|-----------------------------------------------------------------|
C#|---------------------------------------------------------------2-|
G#|---0-0-0-0-0-0-0-0-0-0-0-2-2-2-3---3-3-3-3-3-3-3-3-3-3-3-3-3-3---|
D#|-----------------------------------------------------------------|
    1 + 2 + 3 + 4 + 1 + 2 + 3 + 4 + 1 + 2 + 3 + 4 + 1 + 2 + 3 + 4 +

F#|-----------------------------------------------------------------|
C#|---2-2-2-0-2---4---4-4-4-2-4---5---5-5-5-5-4---------------------|
G#|---------------------------------------------7-5---5-5-5-5-5-5-0-|
D#|-----------------------------------------------------------------|
    1 + 2 + 3 + 4 + 1 + 2 + 3 + 4 + 1 + 2 + 3 + 4 + 1 + 2 + 3 + 4 +

F#|-----------------------------------------------------------------|
C#|-----------------------------------------------------------------|
G#|---0-0-0-0-0-0-0-0-0-0-0-2-2-2-----------------5---5-5-5---5---7-|
D#|-------------------------------3---3-3-3-3-3-3-----------7-------|
    1 + 2 + 3 + 4 + 1 + 2 + 3 + 4 + 1 + 2 + 3 + 4 + 1 + 2 + 3 + 4 +

Interlude 1:17
F#|-------------------------------------------------------------------------|
C#|---------7-9-9-----------7-9-9---------------9-10-9-7------7-------------|
G#|---7-7-7-------9---9-9-9-------10---10-10-10------------10---10-9-10-9-7-|
D#|-------------------------------------------------------------------------|
    1 + 2 + 3 + 4 + 1 + 2 + 3 + 4 +  1 +  2  +  3 +  4 + 1 +  2 +  3 +  4 +

Verse 1:21
F#|-----------------------------------------------------------------|
C#|-----------------------------------------------------------------|
G#|---7-7-7-7-7-7-7-7-7-7-7-7-7-7---------------------------------5-|
D#|-------------------------------3---3-3-3-3-3-3-3-3-3-3-3-3-3-3---|
    1 + 2 + 3 + 4 + 1 + 2 + 3 + 4 + 1 + 2 + 3 + 4 + 1 + 2 + 3 + 4 +

F#|-----------------------------------------------------------------|
C#|-----------------------------0-2---2-----------2---0---------0-2-|
G#|---5-5-5-5-5-5-5-5-5-5-5-2-3-------------------------2-0-2-3-----|
D#|-------------------------------------0-0-0-0-0-------------------|
    1 + 2 + 3 + 4 + 1 + 2 + 3 + 4 + 1 + 2 + 3 + 4 + 1 + 2 + 3 + 4 +

F#|-----------------------------------------------------------------|
C#|---2-2-2-2-2-2-2-4-4-4-4-5-5-5-----------------------------------|
G#|-------------------------------5---5-5-5-5-5-5-5-5-5-5-5-5-5-5-5-|
D#|-----------------------------------------------------------------|
    1 + 2 + 3 + 4 + 1 + 2 + 3 + 4 + 1 + 2 + 3 + 4 + 1 + 2 + 3 + 4 +

F#|-----------------------------------------------------------------|
C#|-------------------4---5---4-------------------------------------|
G#|---5-5-5-5-5-5-5-5-------------7---7-7-7-7-7-7-7-7-7-7-7-7-7-7-5-|
D#|-----------------------------------------------------------------|
    1 + 2 + 3 + 4 + 1 + 2 + 3 + 4 + 1 + 2 + 3 + 4 + 1 + 2 + 3 + 4 +

Pre Chorus 1:40
F#|-----7-7-------------6---------------5---------------------------|
C#|---7-----7-7-7-----7-----7---------5-----4-----5---4---2---------|
G#|---------------4-----------4-4-3-----------3-3-------------5---0-|
D#|-----------------------------------------------------------------|
    1 + 2 + 3 + 4 + 1 + 2 + 3 + 4 + 1 + 2 + 3 + 4 + 1 + 2 + 3 + 4 +

F#|-----------------------------------------------------------------|
C#|-----------------------------------------------------------------|
G#|---0-0-0-0-0-0-0-0-0-0-0-0-0-0-0-2-2-2-2-2-2-2-2-2---------------|
D#|---------------------------------------------------------------0-|
    1 + 2 + 3 + 4 + 1 + 2 + 3 + 4 + 1 + 2 + 3 + 4 + 1 + 2 + 3 + 4 +

Chorus 1:50
F#|-----------------------------------------------------------------|
C#|-----------------------------------------------------------------|
G#|---------------2---2-2-2-2-2-2-----------------5---5-5-5-5-5-5-0-|
D#|---0-0-0-0-0-0-----------------3---3-3-3-3-3-3-------------------|
    1 + 2 + 3 + 4 + 1 + 2 + 3 + 4 + 1 + 2 + 3 + 4 + 1 + 2 + 3 + 4 +

F#|-----------------------------------------------5-------5---------|
C#|---------------------4-4-5-5-5---------------------5-----------2-|
G#|---0-0-0-0-0-0/7-7-7-----------3---3-3-3-3-3-3-------------3-----|
D#|-----------------------------------------------------------------|
    1 + 2 + 3 + 4 + 1 + 2 + 3 + 4 + 1 + 2 + 3 + 4 + 1 + 2 + 3 + 4 +

F#|-----------------------------------------------------------------|
C#|---2-2-2-0-2---4---4-4-4-2-4---5---5-5-5-5-4---------------------|
G#|---------------------------------------------7-5---5-5-5-5-7---0-|
D#|-----------------------------------------------------------------|
    1 + 2 + 3 + 4 + 1 + 2 + 3 + 4 + 1 + 2 + 3 + 4 + 1 + 2 + 3 + 4 +

F#|-----------------------------------------------------------------|
C#|---------------------4---5-4-------------------------------------|
G#|---0-0-0-0-0-0-7-7-7---7-----5-----------------5---5-5-5---5---3-|
D#|-------------------------------3---3-3-3-3-3-3-----------7-------|
    1 + 2 + 3 + 4 + 1 + 2 + 3 + 4 + 1 + 2 + 3 + 4 + 1 + 2 + 3 + 4 +

Bridge 2:08
F#|-----------------------------------------------------------------|
C#|-----------------------------------------------------------------|
G#|-----3-------------------------5-----5---------------------------|
D#|---------------------------------------------------------------0-|
    1 + 2 + 3 + 4 + 1 + 2 + 3 + 4 + 1 + 2 + 3 + 4 + 1 + 2 + 3 + 4 +

F#|-----------------------------------------------------------------|
C#|-----------------------------------------------------------------|
G#|---------------------------------------------------------------3-|
D#|-----0---0---0---0---0---0---0-3-----3---3---3---3---3---3---3---|
    1 + 2 + 3 + 4 + 1 + 2 + 3 + 4 + 1 + 2 + 3 + 4 + 1 + 2 + 3 + 4 +

F#|-----------------------------------------------------------------|
C#|-----------------------------------------------------------------|
G#|-----3---3---3---3---3---3---3-5-----5---5---5---5---5---5---5---|
D#|---------------------------------------------------------------0-|
    1 + 2 + 3 + 4 + 1 + 2 + 3 + 4 + 1 + 2 + 3 + 4 + 1 + 2 + 3 + 4 +

F#|-----------------------------------------------------------------|
C#|-----------------------------------------------------------------|
G#|-----------------7---5-------5---------------------------------3-|
D#|-----0---0---0-----------7-----3-----3---3---3---3---3---3---3---|
    1 + 2 + 3 + 4 + 1 + 2 + 3 + 4 + 1 + 2 + 3 + 4 + 1 + 2 + 3 + 4 +

2:28
F#|-----------------------------------------------------------------|
C#|---------------------------------------------------------------2-|
G#|-----3---3---3---3---3---3-2-3-5-----5---5---5---5---5---5-3-5---|
D#|-----------------------------------------------------------------|
    1 + 2 + 3 + 4 + 1 + 2 + 3 + 4 + 1 + 2 + 3 + 4 + 1 + 2 + 3 + 4 +

F#|-----------------------------------------------------------------|
C#|-----2---2---2---2---2---4---4-5-----5---5---5---5---5---5-4-5---|
G#|---------------------------------------------------------------3-|
D#|-----------------------------------------------------------------|
    1 + 2 + 3 + 4 + 1 + 2 + 3 + 4 + 1 + 2 + 3 + 4 + 1 + 2 + 3 + 4 +

F#|-----------------------------------------------------------------|
C#|-----------------------------------------------------------------|
G#|-----3---3---3---3---3---3---3-5-----5---5---5---5---2---0-------|
D#|-------------------------------------------------------------3---|
    1 + 2 + 3 + 4 + 1 + 2 + 3 + 4 + 1 + 2 + 3 + 4 + 1 + 2 + 3 + 4 +

2:41
F#|-----------------------------------------------------------------|
C#|-6-------------------------------6-------------------------------|
G#|-----------------------------------------------------------------|
D#|-4-------------------------------4-------------------------------|
    1 + 2 + 3 + 4 + 1 + 2 + 3 + 4 + 1 + 2 + 3 + 4 + 1 + 2 + 3 + 4 +

F#|-----------------------7-----7---4-----4-----4---7-----7-----7---|
C#|-9---------------7---------7-------5-5---5-5---5---7-7---7-7---7-|
G#|-7---------------5-----------------------------------------------|
D#|-----------------------------------------------------------------|
    1 + 2 + 3 + 4 + 1 + 2 + 3 + 4 + 1 + 2 + 3 + 4 + 1 + 2 + 3 + 4 +

2:54
F#|-----------------------------------------------------------------|
C#|-----------------------------------------------------------------|
G#|-3-3-3-3-3-3-3-3-3-3-3-2-2-------5-5-5-5-5-5-5-5-5-5-5-5-5-5-5-5-|
D#|-----------------------------3-----------------------------------|
    1 + 2 + 3 + 4 + 1 + 2 + 3 + 4 + 1 + 2 + 3 + 4 + 1 + 2 + 3 + 4 +

Chorus 3:02
F#|-----------------------------------------------------------------|
C#|-----------------------------------------------------------------|
G#|---------------2-------------------------------5---5-5-5-5-5-5-0-|
D#|-0-----------------------------3---3-3---3-3-3-------------------|
    1 + 2 + 3 + 4 + 1 + 2 + 3 + 4 + 1 + 2 + 3 + 4 + 1 + 2 + 3 + 4 +

F#|---------------------------------|
C#|---------------------4---5-4-----|
G#|---0-0-0-0-0-0/7-7-7---7-----5---|
D#|-------------------------------0-|
    1 + 2 + 3 + 4 + 1 + 2 + 3 + 4 + 

F#|-----------------------------------------------------------------|
C#|-----------------------------------------------------------------|
G#|---------------2---2-2-2-2-2-2-----------------5---5-5-5-5-5-5-0-|
D#|---0-0-0-0-0-0-----------------3---3-3-3-3-3-3-------------------|
    1 + 2 + 3 + 4 + 1 + 2 + 3 + 4 + 1 + 2 + 3 + 4 + 1 + 2 + 3 + 4 +

F#|-----------------------------------------------------------------|
C#|---------------------4---5-4-------------------------------------|
G#|---0-0-0-0-0-0/7-7-7---7-----5-3---3-3-3-3-3-3-3-3-3-3-3-3-3-3-5-|
D#|-----------------------------------------------------------------|
    1 + 2 + 3 + 4 + 1 + 2 + 3 + 4 + 1 + 2 + 3 + 4 + 1 + 2 + 3 + 4 +

F#|-----------------------------------------------------------------|
C#|-------------------------------5---5-5-5-4-4-4-4-------------5-7-|
G#|---5-5-5-5-5-5-5-5-5-5-5-5-5-5-------------------7-7-7-7-5-7-----|
D#|-----------------------------------------------------------------|
    1 + 2 + 3 + 4 + 1 + 2 + 3 + 4 + 1 + 2 + 3 + 4 + 1 + 2 + 3 + 4 +

F#|---------------------------------|
C#|---------------------------------|
G#|---5-5-5-5-5-5-5-5-2-2-0-0-------|
D#|---------------------------3-3-0-|
    1 + 2 + 3 + 4 + 1 + 2 + 3 + 4 + 

Outro 3:24
F#|-----------------------------------------------------------------|
C#|---------------------------------------------------------------2-|
G#|---------------2-----2---2---2-----------------5-----5---5---5---|
D#|-----0---0---0-----------------3-----3---3---3-------------------|
    1 + 2 + 3 + 4 + 1 + 2 + 3 + 4 + 1 + 2 + 3 + 4 + 1 + 2 + 3 + 4 +

F#|-----------------------------------------------------------------|
C#|-----2---2---2----------------/5-----5---5-5-5-------------------|
G#|---------------2-----2---2---2-----------------5-----5-5-5-5-5---|
D#|---------------------------------------------------------------0-|
    1 + 2 + 3 + 4 + 1 + 2 + 3 + 4 + 1 + 2 + 3 + 4 + 1 + 2 + 3 + 4 +

F#|-----------------------------------------------------------------|
C#|-----------------------------------------------------------------|
G#|---------------2-----2---2---2-----------------5-----5---5-5-5-3-|
D#|-----0---0---0-----------------3-----3---3-2-3-------------------|
    1 + 2 + 3 + 4 + 1 + 2 + 3 + 4 + 1 + 2 + 3 + 4 + 1 + 2 + 3 + 4 +

F#|-----------------------------------------------------------------|
C#|-------------------------------------------------------------4-5-|
G#|-----3---3---3---3---3---3-2-3-5-----5---5---5---5---5---5-7-----|
D#|-----------------------------------------------------------------|
    1 + 2 + 3 + 4 + 1 + 2 + 3 + 4 + 1 + 2 + 3 + 4 + 1 + 2 + 3 + 4 +

F#|-------------------------------------------------------------------|
C#|-----5---4---4---------------7-9-----9---9-------------------------|
G#|-----------------7---7---5-7-----------------10-9-----9---9-10-9-9-|
D#|-------------------------------------------------------------------|
    1 + 2 + 3 + 4 + 1 + 2 + 3 + 4 + 1 + 2 + 3 + 4  + 1 + 2 + 3 + 4 +

F#|-----------------------------------------------------------------|
C#|-----------------------------------------------------------------|
G#|-7---------------------------------------------------------------|
D#|-0---------------------------------------------------------------|
    1 + 2 + 3 + 4 + 1 + 2 + 3 + 4 + 1 + 2 + 3 + 4 + 1 + 2 + 3 + 4 +
Tabbed by Dave Vucko

comments
print report bad tab
3 comments total.
+2 reply
JackMills wrote on July 21 2014, 03:03 pm

This is perfect, and the 'People Live Here' tab is genius!

Wish I could give this 6 stars :]]

+3 reply
TommyGun91 wrote on July 24 2014, 09:03 am

You sir, are the real MVP!

Seriously, legend!

+3 reply
greendaymusic wrote on July 25 2014, 10:19 am

5 stars, awesome tab. thanks for taking the time to do this

I want to post or [tab]
guest
You may want to rate the tab now too:
select rating
Please do not post tabs as comments. Select "correction" instead!