Oops, an error
Loading. Please wait.

The Black Market Tab

3,809 views 218 this week
no commentswrite comment
1 2 3 4 5
excellent!
x 8
Autoscroll
+/-
esc
set tempo
stop
Contributor
Difficulty
Tuning
intermediate
D# G# C# F# A# D#
WARNING: You are trying to view
                                    content from Ultimate-Guitar.com
                                    in an unauthorized application,
                                    which is prohibited.

                                    Please use an official Ultimate
                                    Guitar Tabs application for iPhone,
                                    iPad or Android to access legitimate
                                    chords, guitar, bass, and drum tabs
                                    from Ultimate-Guitar.com database.

                                    Type "ultimate guitar tabs" in Apple
                                    App Store's or Android Market's
                                    search to find the application.
Tabbed by: Joshua Garcia (joshuag523@aol.com)

Tabs for the song: The Black Market by Rise Against
Please rate and let me know if you have any corrections. Thank you.


Tuning: Half-Step Down (D# G# C# F# A# D#)


Intro
Guitar 1:
D#||-----------------------------------------------------------|
A#||--9-------9-------9-------9-------9-------9-------9-9-9-9--|
F#||--x-------x-------x-------x-------x-------x-------x-x-x-x--|
C#||--9-------9-------9-------9-------8-------8-------8-x-x-x--| x3
G#||----------------------------------------------------9-9-9--|
D#||-----------------------------------------------------------|


D#||------------------------------|
A#||--9-------9-------9-9-9-9-9~--|
F#||--x-------x-------x-x-x-x-x---|
C#||--8-------8-------8-x-x-x-9~--|
G#||--------------------9-9-9-----|
D#||------------------------------|



Pre-Verse
Guitar 1:
D#||----------------------------------------------|
A#||----------------------------------------------|
F#||--9--9--9999--99--9999--9--9--9999--66--6666--|
C#||--x--x--xxxx--xx--xxxx--x--x--xxxx--xx--xxxx--|
G#||--7--7--7777--77--7777--7--7--7777--44--4444--|
D#||----------------------------------------------|


D#||-----------------------------------------------------|
A#||-----------------------------------------------------|
F#||--6666-9999-11111111-13131313-----9--9999--66--6666--|
C#||--xxxx-xxxx-x-x-x-x--x-x-x-x------x--xxxx--xx--xxxx--|
G#||--4444-7777-9-9-9-9--11111111-----7--7777--44--4444--|
D#||-----------------------------------------------------|


Guitar 2:
D#||----------------------------------------------|
A#||----------------------------------------------|
F#||--6--6--6666--66--6666------------------------|
C#||--6--6--6666--66--6666--8--8--8888--44--4444--|
G#||--4--4--4444--44--4444--7--7--7777--44--4444--|
D#||------------------------6--6--6666--22--2222--|


D#||----------------------------------------------|
A#||----------------------------------------------|
F#||--6--6--6666--66--6666------------------------|
C#||--6--6--6666--66--6666-----8--8888--44--4444--|
G#||--4--4--4444--44--4444-----7--7777--44--4444--|
D#||---------------------------6--6666--22--2222--|



Verse
Guitar 1:
D#||----------------------------------------------|
A#||--9--9--9999--99--9999--9--9--9999--99--9999--|
F#||--x--x--xxxx--xx--xxxx--x--x--xxxx--xx--xxxx--|
C#||--9--9--9999--99--9999--8--8--8888--xx--xxxx--| x5
G#||------------------------------------99--9999--|
D#||----------------------------------------------|


D#||----------------------------------------------|
A#||--9--9--999--9--99--999-----------------------|
F#||--x--x--xxx--x--xx--xxx--6~--66666666666------|
C#||--8--8--888--x--xx--xxx--x---xxxxxxxxxxx-x-x--|
G#||-------------9--99--999--9~--99999999999-x-x--|
D#||-----------------------------------------x-x--|


Guitar 2:
D#||------|----------|--------|
A#||------|----------|--------|
F#||--6~--|--6-8-6~--|--x66~--|
C#||--x---|--x-x-x---|--xxx---|
G#||--4~--|--4-6-4~--|--x44~--|
D#||------|----------|--------|


D#||---------------------------------------------------------------------|
A#||---------------------------------------------------------------------|
F#||------------------------------------------------6~--66666666666------|
C#||--2--2--222--4--44--444--2--2--222--4--44--444--6~--66666666666-x-x--|
G#||--2--2--222--4--44--444--2--2--222--4--44--444--4~--44444444444-x-x--|
D#||--0--0--000--2--22--222--0--0--000--2--22--222------------------x-x--|



Pre-Chorus
Guitar 1:
D#||----------------------------------------------------------------|
A#||----------------------------------------------------------------|
F#||--6--666-9999-11111111-13-13-13--6--666-9999-11111111-13-13-13--|
C#||--x--xxx-xxxx-x-x-x-x--x--x--x---x--xxx-xxxx-x-x-x-x--x--x--x---|
G#||--4--444-7777-9-9-9-9--11-11-11--4--444-7777-9-9-9-9--11-11-11--|
D#||----------------------------------------------------------------|


D#||--------------------------------------------------------------------|
A#||--------------------------------------------------------------------|
F#||--11----9--11--9--11--9--11-13----11\6-6-6-6-6-6-6-6\4-4-4-4-4-4-4--|
C#||--x-----x--x---x--x---x--x--x-----x-\x-x-x-x-x-x-x-x\x-x-x-x-x-x-x--|
G#||--9-----7--9---7--9---7--9--11----9-\4-4-4-4-4-4-4-4\2-2-2-2-2-2-2--|
D#||--------------------------------------------------------------------|


D#||-------------------------------------------------|
A#||-------------------------------------------------|
F#||--6--666-9999-11111111-13-13-13--6--666-9999-11--|
C#||--x--xxx-xxxx-x-x-x-x--x--x--x---x--xxx-xxxx-x---|
G#||--4--444-7777-9-9-9-9--11-11-11--4--444-7777-9---|
D#||-------------------------------------------------|


Guitar 2:
D#||--------------------------------------------------------------------------------|
A#||--------------------------------------------------------------------------------|
F#||--2--2222222222222-------------------6----6--6--6--6--6--666--4--4444444444444--|
C#||--2--2222222222222-4--4444444444444--6----6--6--6--6--6--666--4--4444444444444--|
G#||--0--0000000000000-4--4444444444444--4----4--4--4--4--4--444--2--2222222222222--|
D#||-------------------2--2222222222222---------------------------------------------|


D#||-------------------------------|
A#||-------------------------------|
F#||--2--2222222222222----------4--|
C#||--2--2222222222222-44444444-4--|
G#||--0--0000000000000-44444444-2--|
D#||-------------------22222222----|



Chorus
Guitar 1:
D#||-------------------------------------------|
A#||--12-9------12-9------12-9------12-9-------|
F#||-------11-9------11-9------11-9------11-9--|
C#||-------------------------------------------| x4
G#||-------------------------------------------|
D#||-------------------------------------------|
      .  . .  . .  . .  . .  . .  . .  . .  .

(release palm mute on 4th repeat)


Guitar 2:
D#||-------------------------------------------------------------------|
A#||-------------------------------------------------------------------|
F#||--2-2-2-2-2-2-2-2-4-4-4-4-4-4-4-4-6-6-6-6-6-6-6-6------------------|
C#||--2-2-2-2-2-2-2-2-4-4-4-4-4-4-4-4-6-6-6-6-6-6-6-6-2-2-2-2-2-2-2-2--|
G#||--0-0-0-0-0-0-0-0-2-2-2-2-2-2-2-2-4-4-4-4-4-4-4-4-2-2-2-2-2-2-2-2--|
D#||--------------------------------------------------0-0-0-0-0-0-0-0--|


D#||-------------------------------------------------------------------|
A#||-------------------------------------------------------------------|
F#||--2-2-2-2-2-2-2-2-4-4-4-4-4-4-4-4-6-6-6-6-6-6-6-6-9-9-9-9-9-9-9-9--|
C#||--2-2-2-2-2-2-2-2-4-4-4-4-4-4-4-4-6-6-6-6-6-6-6-6-9-9-9-9-9-9-9-9--|
G#||--0-0-0-0-0-0-0-0-2-2-2-2-2-2-2-2-4-4-4-4-4-4-4-4-7-7-7-7-7-7-7-7--|
D#||-------------------------------------------------------------------|



Guitar 1:
D#||-------------------------------------------------------------------------|
A#||-------------------------------------------------------------------------|
F#||--9-9-9-9-9-9-9-9-11-13-8-8-8-8-8-8-6-4-6-6-6-6-6-6-6-6-9-9-9\8-8/9-9-9--|
C#||--x-x-x-x-x-x-x-x-x--x--x-x-x-x-x-x-x-x-x-x-x-x-x-x-x-x-x-x-x\x-x/x-x-x--|
G#||--7-7-7-7-7-7-7-7-9--11-6-6-6-6-6-6-4-2-4-4-4-4-4-4-4-4-7-7-7\6-6/7-7-7--|
D#||-------------------------------------------------------------------------|


D#||------------------------------------|
A#||------------------------------------|
F#||--9-9-9-9-9-9-9-9-11-9-9-8-8-9-9-9--|
C#||--x-x-x-x-x-x-x-x-x--x-x-x-x-x-x-x--|
G#||--7-7-7-7-7-7-7-7-9--7-7-6-6-7-7-7--|
D#||------------------------------------|


D#||---------------------------------------------------|
A#||---------------------------------------------------|
F#||--13-13-13-13-13-13-13-13-13-13-13-13-14-14-14\13--|
C#||--x--x--x--x--x--x--x--x--x--x--x--x--x--x--x-\x---|
G#||--11-11-11-11-11-11-11-11-11-11-11-11-12-12-12\11--|
D#||---------------------------------------------------|


Guitar 2:
D#||-------------------------------------------------------------------|
A#||-------------------------------------------------------------------|
F#||--2-2-2-2-2-2-2-2-4-4-4-4-4-4-4-4-6-6-6-6-6-6-6-6------------------|
C#||--2-2-2-2-2-2-2-2-4-4-4-4-4-4-4-4-6-6-6-6-6-6-6-6-2-2-2-2-2-2-2-2--|
G#||--0-0-0-0-0-0-0-0-2-2-2-2-2-2-2-2-4-4-4-4-4-4-4-4-2-2-2-2-2-2-2-2--|
D#||--------------------------------------------------0-0-0-0-0-0-0-0--|


D#||-----------------------------------|
A#||-----------------------------------|
F#||--2-2-2-2-2-2-2-2-4-4-4-4-4-4-4-4--|
C#||--2-2-2-2-2-2-2-2-4-4-4-4-4-4-4-4--|
G#||--0-0-0-0-0-0-0-0-2-2-2-2-2-2-2-2--|
D#||-----------------------------------|


D#||----------------------------------------|
A#||----------------------------------------|
F#||--9-9-9-9-9-9-9-9-8-8-8-8-8-8-8-8---6~--|
C#||--x-x-x-x-x-x-x-x-x-x-x-x-x-x-x-x---x---|
G#||--7-7-7-7-7-7-7-7-6-6-6-6-6-6-6-6-x-4~--|
D#||----------------------------------------|


Pre-Verse
Guitar 1:
D#||----------------------------------------------|
A#||--9--9--9999--99--9999--9--9--9999--99--9999--|
F#||--x--x--xxxx--xx--xxxx--x--x--xxxx--xx--xxxx--|
C#||--9--9--9999--99--9999--8--8--8888--xx--xxxx--| x2
G#||------------------------------------99--9999--|
D#||----------------------------------------------|

Guitar 2:
D#||--------|------|----------|
A#||--------|------|----------|
F#||--(6~)--|--6~--|----------|
C#||--(x-)--|--6~--|--pick----|
G#||--(4~)--|--4~--|---slide--|
D#||--------|------|----------|



Verse
Guitar 1/2:
D#||----------------------------------------------|
A#||----------------------------------------------|
F#||--6--6--6666--66--6666------------------------|
C#||--6--6--6666--66--6666--8--8--8888--44--4444--|
G#||--4--4--4444--44--4444--7--7--7777--44--4444--|
D#||------------------------6--6--6666--22--2222--|


D#||----------------------------------------------|
A#||----------------------------------------------|
F#||--6--6--6666--66--6666------------------------|
C#||--6--6--6666--66--6666-----8--8888--44--4444--|
G#||--4--4--4444--44--4444-----7--7777--44--4444--|
D#||---------------------------6--6666--22--2222--|


D#||------------------------|
A#||------------------------|
F#||--6--6--6666--66--6666--|
C#||--6--6--6666--66--6666--|
G#||--4--4--4444--44--4444--|
D#||------------------------|


D#||---------------------------------------------------------------------|
A#||---------------------------------------------------------------------|
F#||------------------------------------------------6~--66666666666------|
C#||--2--2--222--4--44--444--2--2--222--4--44--444--6~--66666666666-x-x--|
G#||--2--2--222--4--44--444--2--2--222--4--44--444--4~--44444444444-x-x--|
D#||--0--0--000--2--22--222--0--0--000--2--22--222------------------x-x--|



Pre-Chorus
Guitar 1:
D#||----------------------------------------------------------------|
A#||----------------------------------------------------------------|
F#||--6--666-9999-11111111-13-13-13--6--666-9999-11111111-13-13-13--|
C#||--x--xxx-xxxx-x-x-x-x--x--x--x---x--xxx-xxxx-x-x-x-x--x--x--x---|
G#||--4--444-7777-9-9-9-9--11-11-11--4--444-7777-9-9-9-9--11-11-11--|
D#||----------------------------------------------------------------|


D#||--------------------------------------------------------------------|
A#||--------------------------------------------------------------------|
F#||--11----9--11--9--11--9--11-13----11\6-6-6-6-6-6-6-6\4-4-4-4-4-4-4--|
C#||--x-----x--x---x--x---x--x--x-----x-\x-x-x-x-x-x-x-x\x-x-x-x-x-x-x--|
G#||--9-----7--9---7--9---7--9--11----9-\4-4-4-4-4-4-4-4\2-2-2-2-2-2-2--|
D#||--------------------------------------------------------------------|


D#||-------------------------------------------------|
A#||-------------------------------------------------|
F#||--6--666-9999-11111111-13-13-13--6--666-9999-11--|
C#||--x--xxx-xxxx-x-x-x-x--x--x--x---x--xxx-xxxx-x---|
G#||--4--444-7777-9-9-9-9--11-11-11--4--444-7777-9---|
D#||-------------------------------------------------|


Guitar 2:
D#||--------------------------------------------------------------------------------|
A#||--------------------------------------------------------------------------------|
F#||--2--2222222222222-------------------6----6--6--6--6--6--666--4--4444444444444--|
C#||--2--2222222222222-4--4444444444444--6----6--6--6--6--6--666--4--4444444444444--|
G#||--0--0000000000000-4--4444444444444--4----4--4--4--4--4--444--2--2222222222222--|
D#||-------------------2--2222222222222---------------------------------------------|


D#||-------------------------------|
A#||-------------------------------|
F#||--2--2222222222222----------4--|
C#||--2--2222222222222-44444444-4--|
G#||--0--0000000000000-44444444-2--|
D#||-------------------22222222----|



Chorus
Guitar 1:
D#||-------------------------------------------|
A#||--12-9------12-9------12-9------12-9-------|
F#||-------11-9------11-9------11-9------11-9--|
C#||-------------------------------------------| x4
G#||-------------------------------------------|
D#||-------------------------------------------|
      .  . .  . .  . .  . .  . .  . .  . .  .

(release palm mute on 4th repeat)


Guitar 2:
D#||-------------------------------------------------------------------|
A#||-------------------------------------------------------------------|
F#||--2-2-2-2-2-2-2-2-4-4-4-4-4-4-4-4-6-6-6-6-6-6-6-6------------------|
C#||--2-2-2-2-2-2-2-2-4-4-4-4-4-4-4-4-6-6-6-6-6-6-6-6-2-2-2-2-2-2-2-2--|
G#||--0-0-0-0-0-0-0-0-2-2-2-2-2-2-2-2-4-4-4-4-4-4-4-4-2-2-2-2-2-2-2-2--|
D#||--------------------------------------------------0-0-0-0-0-0-0-0--|


D#||-------------------------------------------------------------------|
A#||-------------------------------------------------------------------|
F#||--2-2-2-2-2-2-2-2-4-4-4-4-4-4-4-4-6-6-6-6-6-6-6-6-9-9-9-9-9-9-9-9--|
C#||--2-2-2-2-2-2-2-2-4-4-4-4-4-4-4-4-6-6-6-6-6-6-6-6-9-9-9-9-9-9-9-9--|
G#||--0-0-0-0-0-0-0-0-2-2-2-2-2-2-2-2-4-4-4-4-4-4-4-4-7-7-7-7-7-7-7-7--|
D#||-------------------------------------------------------------------|



Guitar 1:
D#||-------------------------------------------------------------------------|
A#||-------------------------------------------------------------------------|
F#||--9-9-9-9-9-9-9-9-11-13-8-8-8-8-8-8-6-4-6-6-6-6-6-6-6-6-9-9-9\8-8/9-9-9--|
C#||--x-x-x-x-x-x-x-x-x--x--x-x-x-x-x-x-x-x-x-x-x-x-x-x-x-x-x-x-x\x-x/x-x-x--|
G#||--7-7-7-7-7-7-7-7-9--11-6-6-6-6-6-6-4-2-4-4-4-4-4-4-4-4-7-7-7\6-6/7-7-7--|
D#||-------------------------------------------------------------------------|


D#||------------------------------------|
A#||------------------------------------|
F#||--9-9-9-9-9-9-9-9-11-9-9-8-8-9-9-9--|
C#||--x-x-x-x-x-x-x-x-x--x-x-x-x-x-x-x--|
G#||--7-7-7-7-7-7-7-7-9--7-7-6-6-7-7-7--|
D#||------------------------------------|


D#||---------------------------------------------------|
A#||---------------------------------------------------|
F#||--13-13-13-13-13-13-13-13-13-13-13-13-14-14-14\13--|
C#||--x--x--x--x--x--x--x--x--x--x--x--x--x--x--x-\x---|
G#||--11-11-11-11-11-11-11-11-11-11-11-11-12-12-12\11--|
D#||---------------------------------------------------|


Guitar 2:
D#||-------------------------------------------------------------------|
A#||-------------------------------------------------------------------|
F#||--2-2-2-2-2-2-2-2-4-4-4-4-4-4-4-4-6-6-6-6-6-6-6-6------------------|
C#||--2-2-2-2-2-2-2-2-4-4-4-4-4-4-4-4-6-6-6-6-6-6-6-6-2-2-2-2-2-2-2-2--|
G#||--0-0-0-0-0-0-0-0-2-2-2-2-2-2-2-2-4-4-4-4-4-4-4-4-2-2-2-2-2-2-2-2--|
D#||--------------------------------------------------0-0-0-0-0-0-0-0--|


D#||-----------------------------------|
A#||-----------------------------------|
F#||--2-2-2-2-2-2-2-2-4-4-4-4-4-4-4-4--|
C#||--2-2-2-2-2-2-2-2-4-4-4-4-4-4-4-4--|
G#||--0-0-0-0-0-0-0-0-2-2-2-2-2-2-2-2--|
D#||-----------------------------------|


D#||-------------------------------------|
A#||-------------------------------------|
F#||--9-9-9-9-9-9-9-9-8-8-8-8-8-8-8-8----|
C#||--x-x-x-x-x-x-x-x-x-x-x-x-x-x-x-x----|
G#||--7-7-7-7-7-7-7-7-6-6-6-6-6-6-6-6-x--|
D#||-------------------------------------|



Bridge
Guitar 1:
D#||-----------------------------------------------|
A#||-----------------------------------------------|
F#||--13-13-13-13-13-14-14-13-13-11-11-9-9-11-13~--|
C#||--x--x--x--x--x--x--x--x--x--x--x--x-x-x--x----|
G#||--11-11-11-11-11-12-12-11-11-9--9--7-7-9--11~--|
D#||-----------------------------------------------|


D#||--------------------------------------------------|
A#||--------------------------------------------------|
F#||--13~---13-13-13-14-14-13-13-11-11-9-9-11-11/13~--|
C#||--x-----x--x--x--x--x--x--x--x--x--x-x-x--x-/x----|
G#||--11~---11-11-11-12-12-11-11-9--9--7-7-9--9-/11~--|
D#||--------------------------------------------------|


D#||----------------------------------------------------------------------------|
A#||----------------------------------------------------------------------------|
F#||--8~---8-8-8/9-9\8-8\6-6\4-14-14-14-14-14-14-14-14-13-13-13-13-13-13-13-13--|
C#||--x----x-x-x/x-x\x-x\x-x\x-x--x--x--x--x--x--x--x--x--x--x--x--x--x--x--x---|
G#||--6~---6-6-6/7-7\6-6\4-4\2-12-12-12-12-12-12-12-12-11-11-11-11-11-11-11-11--|
D#||----------------------------------------------------------------------------|


Guitar 2:
D#||-------------------------------------------------------------------|
A#||-------------------------------------------------------------------|
F#||--6-6-6-6-6-6-6-6-6-6-6-6-6-6-6-6----------------------------------|
C#||--6-6-6-6-6-6-6-6-6-6-6-6-6-6-6-6-2-2-2-2-2-2-2-2-2-2-2-2-2-2-2-2--|
G#||--4-4-4-4-4-4-4-4-4-4-4-4-4-4-4-4-2-2-2-2-2-2-2-2-2-2-2-2-2-2-2-2--|
D#||----------------------------------0-0-0-0-0-0-0-0-0-0-0-0-0-0-0-0--|


D#||-------------------------------------------------------------------|
A#||-------------------------------------------------------------------|
F#||--4-4-4-4-4-4-4-4-4-4-4-4-4-4-4-4-2-2-2-2-2-2-2-2------------------|
C#||--4-4-4-4-4-4-4-4-4-4-4-4-4-4-4-4-2-2-2-2-2-2-2-2------------------|
G#||--2-2-2-2-2-2-2-2-2-2-2-2-2-2-2-2-0-0-0-0-0-0-0-0---------2--------|
D#||--------------------------------------------------5-4-2-0---4-2-0--|



Guitar 1:
D#||---------------------------------------------------|
A#||---------------------------------------------------|
F#||--16-16-16-16-16-16-16-16-16-16-16-16-16\14-14\13--|
C#||--x--x--x--x--x--x--x--x--x--x--x--x--x-\x--x-\x---|
G#||--14-14-14-14-14-14-14-14-14-14-14-14-14\12-12\11--|
D#||---------------------------------------------------|


D#||---------------------------------------------------|
A#||---------------------------------------------------|
F#||--13-13-13-13-13-13-13-13-13/16-16-16-16\14-14\13--|
C#||--x--x--x--x--x--x--x--x--x-/x--x--x--x-\x--x-\x---|
G#||--11-11-11-11-11-11-11-11-11/14-14-14-14\12-12\11--|
D#||---------------------------------------------------|


D#||---------------------------------------------------|
A#||---------------------------------------------------|
F#||--13\11-11-11-11-11-11-11-11-11-14-14-14-13-13-11--|
C#||--x-\x--x--x--x--x--x--x--x--x--x--x--x--x--x--x---|
G#||--11\9--9--9--9--9--9--9--9--9--12-12-12-11-11-9---|
D#||---------------------------------------------------|


D#||--------------------------------------|
A#||--------------------------------------|
F#||--9-9-9-9-9-9-9-9-8-9-9-8-8-6-6-4-9~--|
C#||--x-x-x-x-x-x-x-x-x-x-x-x-x-x-x-x-x---|
G#||--7-7-7-7-7-7-7-7-6-7-7-6-6-4-4-2-7~--|
D#||--------------------------------------|


Guitar 2:
D#||-------------------------------------------------------------------|
A#||-------------------------------------------------------------------|
F#||--6-6-6-6-6-6-6-6-6-6-6-6-6-6-6-6----------------------------------|
C#||--6-6-6-6-6-6-6-6-6-6-6-6-6-6-6-6-2-2-2-2-2-2-2-2-2-2-2-2-2-2-2-2--|
G#||--4-4-4-4-4-4-4-4-4-4-4-4-4-4-4-4-2-2-2-2-2-2-2-2-2-2-2-2-2-2-2-2--|
D#||----------------------------------0-0-0-0-0-0-0-0-0-0-0-0-0-0-0-0--|


D#||-------------------------------------------------------------------|
A#||-------------------------------------------------------------------|
F#||--4-4-4-4-4-4-4-4-4-4-4-4-4-4-4-4-2-2-2-2-2-2-2-2-4-4-4-4-4-4-4-4--|
C#||--4-4-4-4-4-4-4-4-4-4-4-4-4-4-4-4-2-2-2-2-2-2-2-2-4-4-4-4-4-4-4-4--|
G#||--2-2-2-2-2-2-2-2-2-2-2-2-2-2-2-2-0-0-0-0-0-0-0-0-2-2-2-2-2-2-2-2--|
D#||-------------------------------------------------------------------|



Interlude
Guitar 1:
D#||----------------------------------------------0~--------------------|
A#||----------------------------------------------x---------------------|
F#||--2~--------------------4~---------4~---------2---------------------|
C#||--2~---------4~---------6~---------4~---------2~-----------------4--|
G#||--0~---------4~---------4~---------2~---------0~---------4-4-4-2-2--|
D#||-------------2~------------------------------------------2-2-2-0----|
                                                             . . . . .


Chorus
Guitar 1:
D#||-------------------------------------------|
A#||--12-9------12-9------12-9---------9-------|
F#||-------11-9------11-9------11-9-11---11-9--|
C#||-------------------------------------------| x4
G#||-------------------------------------------|
D#||-------------------------------------------|


Guitar 2:
D#||-------------------------------------------------------------------|
A#||-------------------------------------------------------------------|
F#||--2-2-2-2-2-2-2-2-4-4-4-4-4-4-4-4-6-6-6-6-6-6-6-6-9-9-9-9-9-9-9-9--|
C#||--2-2-2-2-2-2-2-2-4-4-4-4-4-4-4-4-6-6-6-6-6-6-6-6-9-9-9-9-9-9-9-9--| x2
G#||--0-0-0-0-0-0-0-0-2-2-2-2-2-2-2-2-4-4-4-4-4-4-4-4-7-7-7-7-7-7-7-7--|
D#||-------------------------------------------------------------------|



Guitar 1 (Fast strumming):
D#||---------------------------------------------------------------------|
A#||---------------------------------------------------------------------|
F#||--161616161616161616161616161616161616161616161616-1313131313131313--|
C#||--x-x-x-x-x-x-x-x-x-x-x-x-x-x-x-x-x-x-x-x-x-x-x-x--x-x-x-x-x-x-x-x---|
G#||--141414141414141414141414141414141414141414141414-1111111111111111--|
D#||---------------------------------------------------------------------|


D#||-------------------------------------------------------------|
A#||-------------------------------------------------------------|
F#||--161616161616161616161616161616161616161616161616-99999999--|
C#||--x-x-x-x-x-x-x-x-x-x-x-x-x-x-x-x-x-x-x-x-x-x-x-x--xxxxxxxx--|
G#||--141414141414141414141414141414141414141414141414-77777777--|
D#||-------------------------------------------------------------|

D#||-------------------------------------------------------------|
A#||-------------------------------------------------------------|
F#||--161616161616161616161616161616161616161616161616-99999999--|
C#||--x-x-x-x-x-x-x-x-x-x-x-x-x-x-x-x-x-x-x-x-x-x-x-x--xxxxxxxx--|
G#||--141414141414141414141414141414141414141414141414-77777777--|
D#||-------------------------------------------------------------|

D#||--------------------------------------------------------------------|
A#||--------------------------------------------------------------------|
F#||--1313131313131313131313131313131313131313131313131313131313131313--|
C#||--x-x-x-x-x-x-x-x-x-x-x-x-x-x-x-x-x-x-x-x-x-x-x-x-x-x-x-x-x-x-x-x---|
G#||--1111111111111111111111111111111111111111111111111111111111111111--|
D#||--------------------------------------------------------------------|


Guitar 2:
D#||-------------------------------------------------------------------|
A#||-------------------------------------------------------------------|
F#||--2-2-2-2-2-2-2-2-4-4-4-4-4-4-4-4-6-6-6-6-6-6-6-6-6/9-9-9-9-9-9-9--|
C#||--2-2-2-2-2-2-2-2-4-4-4-4-4-4-4-4-6-6-6-6-6-6-6-6-6/9-9-9-9-9-9-9--| x2
G#||--0-0-0-0-0-0-0-0-2-2-2-2-2-2-2-2-4-4-4-4-4-4-4-4-4/7-7-7-7-7-7-7--|
D#||-------------------------------------------------------------------|



Outro
Guitar 1:
D#||----------------------------------------|------------------------------------------|
A#||----------------------------------------|------------------------------------------|
F#||--18\16-16-16-16\11-----9----9-8-8-8-9--|--18\16-16-16-16\11-----9----9-9-9-11-13--|
C#||--x-\x--x--x--x-\x--x-x-x----x-x-x-x-x--|--x-\x--x--x--x-\x--x-x-x----x-x-x-x--x---|
G#||--16\14-14-14-14\9--x-x-7~---7-6-6-6-7--|--16\14-14-14-14\9--x-x-7~---7-7-7-9--11--|
D#||--------------------x-x-----------------|--------------------x-x-------------------|


D#||-----------------------------------------------|
A#||-----------------------------------------------|
F#||--18\16-16-16-16\11-----9----9-9-9-8-8~---9~---|
C#||--x-\x--x--x--x-\x--x-x-x----x-x-x-x-x----x----|
G#||--16\14-14-14-14\9--x-x-7~---7-7-7-6-6~---7~---|
D#||--------------------x-x------------------------|


Guitar 1 (Dub):
D#||-----------------------------------------------|
A#||-----------------------------------------------|
F#||---------------------------------11/13~---13~--|
C#||---------------------------------x-/x-----x----|
G#||---------------------------------9-/11~---11~--|
D#||-----------------------------------------------|


Guitar 2:
D#||-----------------------------------------------------------------|
A#||-----------------------------------------------------------------|
F#||--2---2---2---2---4---4---4---4---6---6---6---6---9---9---9---9--|
C#||--2---2---2---2---4---4---4---4---6---6---6---6---9---9---9---9--| x2
G#||--0---0---0---0---2---2---2---2---4---4---4---4---7---7---7---7--|
D#||-----------------------------------------------------------------|


D#||--------------------------------------|
A#||--------------------------------------|
F#||--2---2---2---2---4---4---4---4---2~--|
C#||--2---2---2---2---4---4---4---4---2~--|
G#||--0---0---0---0---2---2---2---2---0~--|
D#||--------------------------------------|



Guitar 1:
D#||--(0-)----0-----0~-----0-0-0~--0~--0~--0~---0~-----7~--|
A#||--(14)----14-12-9~-----7-5-7/9-7\5-2~--4~---5~---------|
F#||-------------------------------------------------------|
C#||-------------------------------------------------------|
G#||-------------------------------------------------------|
D#||-------------------------------------------------------|


Guitar 2:
D#||-------------------------------------------------------|
A#||-------------------------------------------------------|
F#||--(2~)---------------------4~---------------2~---------|
C#||--(2~)---------------------4~---------------2~---------|
G#||--(0~)---------------------2~---------------0~---------|
D#||-------------------------------------------------------|




Tablature Legend
----------------
 h   hammer-on
 p   pull-off
 b   bend
 pb  pre-bend
 r   release bend
 ~   hold / vibrato
 .   palm mute
 /   slide up
 \   slide down
 *   pinch harmonic
 '   natural harmonic
 x   mute note
 T   tap
comments
print report bad tab
I want to post or [tab]
guest
You may want to rate the tab now too:
select rating
Please do not post tabs as comments. Select "correction" instead!