Oops, an error
Loading. Please wait.

The Sufferer The Witness Bass Tab

12,276 views 6 this week
5 commentsread comments
1 2 3 4 5
excellent!
x 8
add to favorites launch autoscroll
font size
0
reset
Autoscroll
+/-
esc
set tempo
stop
Contributor
WARNING: You are trying to view
                                    content from Ultimate-Guitar.com
                                    in an unauthorized application,
                                    which is prohibited.

                                    Please use an official Ultimate
                                    Guitar Tabs application for iPhone,
                                    iPad or Android to access legitimate
                                    chords, guitar, bass, and drum tabs
                                    from Ultimate-Guitar.com database.

                                    Type "ultimate guitar tabs" in Apple
                                    App Store's or Android Market's
                                    search to find the application.
Album: The Sufferer & The Witness
Artist: Rise Against

This is an absolutely incredible album by an amazing band. At first it may seem like
music, but there is enough there to make it an interesting album to play, what with fast
irregular rhythms and tempos, and some interesting riffs. It is a quite lengthy tab,
I have tabbed out every note I hear, leaving nothing out simply for the purpose of
the tab shorter. I tabbed all the songs in an Eb tuning wherever possible, however two
the songs were much more convenient to play in standard tuning, so I tabbed them that
The notes are, wherever possible, arranged according to the timing of the songs, and if 
use the font Courier New, size 9, every line of tab should end up on the same page.
this might not work with the album tab as I am still figuring it out. I have put a lot
work into creating this tab, so I would appreciate it greatly if anyone could give me
Thank you.

The whole album is played in an Eb tuning  (Eb  Ab  Db  Gb) with the exception of Worth
For and The Good Left Undone, both of which are played in standard tuning  (E  A  D  G).

The album goes as follows:

 1.Chamber The Cartridge        |  3:34
 2.Injection                    |  3:19
 3.Ready To Fall                |  3:47
 4.Bricks                       |  1:30
 5.Under The Knife              |  2:45
 6.Prayer Of The Refugee        |  3:19
 7.Drones                       |  3:01
 8.The Approaching Curve        |  3:44
 9.Worth Dying For              |  3:20
10.Behind Closed Doors          |  3:15
11.Roadside                     |  3:21
12.The Good Left Undone         |  3:02
  -->Segue                      |  1:08
13.Survive                      |  3:40
   The Sufferer & The Witness   | 42:45


Please post any comments or corrections or whatever you want. Enjoy!

*******************************************************************************
*************************   1.Chamber The Cartridge   ************************
*******************************************************************************

This opening track is a great fast song with fast changing chords. I have arranged the
more or less according to the timing of the song, although most of it has a triplet feel
so this timing is not perfect.

INTRO   (0:17)

Gb|----------------|----------------|----------------|----------------|
Db|6~~~~~~~~~~~~~~~|----------------|----------------|----------------|
Ab|4~~~~~~~~~~~~~~~|7~~~~~~~~~~~~~~~|2~~~~~~~~~~~~~~~|9~~~~~~~~~~~~~~~|
Eb|----------------|5~~~~~~~~~~~~~~~|0~~~~~~~~~~~~~~~|7~~~~~~~~~~~~~~~|  x4

Gb|----------------|----------------|
Db|6~~~~~~~~~~~~~~~|(6)-------------|
Ab|4~~~~~~~~~~~~~~~|(4)-------------|
Eb|----------------|----------------|

VERSE 1   (0:43)

Gb|----------------|----------------|----------------|----------------|
Db|4-4-------------|7-77-77---------|4-4-------------|7-7-7-7---------|
Ab|---4-44-4-44-44-|--------7-7-----|---4-44-4-44-44-|--------7-7-----|
Eb|----------------|-----------7-77-|----------------|------------7-7-|  x2

Gb|----------------|----------------|----------------|----------------|
Db|----------------|----------------|----------------|----------------|
Ab|----------------|----------------|----------------|----------------|
Eb|4-44-45-4-44-44-|4-44-45-4-44-44-|4-44-45-4-44-45-|2~~~~~~~~~~~~~~-|

Gb|----------------|----------------|----------------|----------------|
Db|----------------|----------------|----------------|2---------------|
Ab|----------------|----------------|----------------|----2-------2---|
Eb|4-44-45-4-44-44-|4-44-45-4-44-44-|4-44-45-4-44-45-|--------2-------|

CHORUS 1   (1:07)

Gb|----------------|----------------|----------------|----------------|
Db|----------------|----------------|----------------|----------------|
Ab|4-44-44-4-44-44-|----------------|----------------|----------------|
Eb|----------------|5-55-55-5-55-55-|0-00-00-0-00-00-|7-77-77-7-77-77-|

Gb|----------------|----------------|----------------|----------------|
Db|----------------|----------------|----------------|----------------|
Ab|4-44-44-4-44-44-|----------------|7-77-77-7-77-77-|----------------|
Eb|----------------|5-55-55-5-55-55-|----------------|7-77-77-7-7-7-7-|

Gb|--------------------------------|--------------------------------|
Db|----------------11--9-----------|----------------------------9---|
Ab|4---4-4---4-4/----------12--11--|12--1212--1212--12--1212--12----|
Eb|--------------------------------|--------------------------------|

Gb|----------------|----------------|----------------|----------------|
Db|-----------6--7-|9-9-9-9-9-9-9-9-|----------------|----------------|
Ab|7-77-77-9-------|----------------|4-44-44-4-44-44-|----------------|
Eb|----------------|----------------|----------------|5-55-55-5-55-55-|

Gb|----------------|----------------|----------------|----------------|
Db|----------------|----------------|----------------|----------------|
Ab|----------------|----------------|4-------4-~~~~~/|16~~~~~~~~~~~~~\|
Eb|0-00-00-0-00-00-|7-77-77-7-77-77-|----------------|----------------|


VERSE 2   (1:33)  -> Play verse 1

CHORUS 2   (1:57)

Gb|----------------|----------------|----------------|----------------|
Db|----------------|----------------|----------------|----------------|
Ab|4-44-44-4-44-44-|----------------|----------------|----------------|
Eb|----------------|5-55-55-5-55-55-|0-00-00-0-00-00-|7-77-77-7-77-77-|

Gb|----------------|----------------|----------------|----------------|
Db|----------------|----------------|----------------|----------------|
Ab|4-44-44-4-44-44-|----------------|7-77-77-7-77-77-|----------------|
Eb|----------------|5-55-55-5-55-55-|----------------|7-77-77-7-7-7-7-|

Gb|--------------------------------|--------------------------------|
Db|----------------11--9-----------|----------------------------9---|
Ab|4---4-4---4-4/----------12--11--|12--1212--1212--12--1212--12----|
Eb|--------------------------------|--------------------------------|

Gb|----------------|8-8-9-9-11111111|----------------|----------------|
Db|-----------6--7-|9-9-9-9-9-9-9-9-|----------------|----------------|
Ab|7-77-77-9-------|----------------|4-44-44-4-44-44-|----------------|
Eb|----------------|----------------|----------------|5-55-55-5-55-55-|

Gb|----------------|----------------|
Db|----------------|----------------|
Ab|----------------|----------------|
Eb|0-00-00-0-00-00-|7-77-77-7-77-77-|


INTERLUDE   (2:20)

Gb|----------------|----------------|----------------|----------------|
Db|----------------|----------------|----------------|----------------|
Ab|4~~~~~~~~~~~~~~~|(4)~~~~~~~~~~~~~|(4)~~~~~~~~~~~~~|(4)~~~~~~~~~~~~~|
Eb|----------------|----------------|----------------|----------------|

Gb|----------------|----------------|----------------|----------------|
Db|----------------|----------------|----------------|----------------|
Ab|(4)~~~~~~~~~~~~~|(4)~~~~~~~~~~~~~|(4)~~~~~~~~~~~~~|(4)-------------|
Eb|----------------|----------------|----------------|----------------|

Gb|----------------|----------------|----------------|----------------|
Db|----------------|----------------|----------------|2---------------|
Ab|4~~~~~~~~~~~~~~~|(4)~~~~~~~~~~~~~|(4)-------------|---2-------2--3-|
Eb|----------------|----------------|----------------|------4-2-------|

Gb|----------------|----------------|----------------|----------------|
Db|----------------|2-2-2-2---------|----------------|2-2-2-2-4-4-4-4-|
Ab|4-4-4-4-4-4-4-4-|--------2-2-2-2-|----------------|----------------|
Eb|----------------|----------------|2-2-2-2-2-2-2-2-|----------------|  \
                                                                         |  x2
Gb|----------------|----------------|----------------|----------------|  /
Db|----------------|2-2-2-2---------|----------------|2---------------|
Ab|4-4-4-4-4-4-4-4-|--------2-2-2-2-|----------------|---2-------2--3-|
Eb|----------------|----------------|2-2-2-2-2-2-2-2-|------4-2-------|

Gb|----------------|----------------|----------------|----------------|
Db|6~~~~~~~~~~~~~~~|----------------|----------------|----------------|
Ab|4~~~~~~~~~~~~~~~|7~~~~~~~~~~~~~~~|2~~~~~~~~~~~~~~~|9~~~~~~~~~~~~~~~|
Eb|----------------|5~~~~~~~~~~~~~~~|0~~~~~~~~~~~~~~~|7~~~~~~~~~~~~~~~|  x2


CHORUS 3   (3:11)

Gb|----------------|----------------|----------------|----------------|
Db|----------------|----------------|----------------|----------------|
Ab|4-44-44-4-44-44-|----------------|----------------|----------------|
Eb|----------------|5-55-55-5-55-55-|0-00-00-0-00-00-|7-77-77-7-77-77-|

Gb|--------------------------------|--------------------------------|
Db|----------------11--9-----------|--------------------------------|
Ab|4---4-4---4-4/----------12--11--|12--1212--1212--12--1212--1212--|
Eb|--------------------------------|--------------------------------|

Gb|----------------|----------------|----------------|----------------|
Db|-----------6--7-|9-9-9-9-9-9-9-9-|----------------|----------------|
Ab|7-77-77-9-------|----------------|4-44-44-4-44-44-|----------------|
Eb|----------------|----------------|----------------|5-55-55-5-55-55-|

Gb|----------------|----------------|----------------|
Db|----------------|----------------|----------------|
Ab|----------------|------------2---|4---------------|
Eb|0-00-00-0-00-00-|7-77-77-0h2-----|----------------|    -3:34

*******************************************************************************
*******************************   2.Injection   ******************************
*******************************************************************************

This is another great song. One thing to note is that in all parts but the interlude,
chords change on the eighth note pickup instead of on the down beat. Other than that this
is fairly straightforward.


INTRO   (0:01)

Gb|--|----------------|----------------|----------------|----------------|
Db|--|----------------|--------------3-|--3-3-3-3-3-3-3-|3-3-3-3-3-3-3---|
Ab|--|----------------|----------------|----------------|--------------3-|
Eb|5-|--5-5-5-5-5-5-5-|5-5-5-5-5-5-5---|----------------|----------------|

Gb|----------------|--------------7-|--7-7-7-4-4-4-4-|5-5-5-5-4-4-4---|
Db|----------------|--------------5-|--5-5-5---------|--------------7-|
Ab|--3-3-3-3-3-3-3-|3-3-3-3-3-3-3---|----------------|----------------|
Eb|----------------|----------------|----------------|----------------|

Gb|----------------|----------------|----------------|----------------|
Db|----------------|--------------3-|--3-3-3-3-3-3-3-|3-3-3-3-3-3-3---|
Ab|----------------|----------------|----------------|--------------3-|
Eb|--5-5-5-5-5-5-5-|5-5-5-5-5-5-5---|----------------|----------------|

Gb|----------------|----------------|----------------|----------------|
Db|----------------|--------------5-|--5-5-5\--------|----------------|
Ab|--3-3-3-3-3-3-3-|3-3-3-3-3-3-3---|--------2-2-2-2-|3-3-3-3-2-2-2---|
Eb|----------------|----------------|----------------|--------------5~|

Gb|----------------|----------------|----------------|----------------|
Db|----------------|----------------|----------------|----------------|
Ab|----------------|----------------|----------------|----------------|
Eb|(5)~~~~~~~~~~~~~|(5)~~~~~~~~~~~~~|(5)~~~~~~~~~~~~~|(5)-----------5-|


VERSE 1   (0:23)

Gb|----------------|----------------|----------------|----------------|
Db|----------------|----------------|----------------|----------------|
Ab|----------------|----------------|----------------|----------------|
Eb|--5-5-5-5-5-5-5-|--5-5-5-5-5-5-1-|--1-1-1-1-1-1-3-|--3-3-3-3-3-3-5-|

Gb|----------------|----------------|----------------|----------------|
Db|----------------|----------------|----------------|----------------|
Ab|----------------|----------------|--------------3-|--3-3-3-3-3-3---|
Eb|--5-5-5-5-5-5-5-|--5-5-5-5-5-5-1-|--1-1-1-1-1-1---|--------------5-|

Gb|----------------|----------------|----------------|----------------|
Db|----------------|----------------|----------------|----------------|
Ab|----------------|----------------|----------------|----------------|
Eb|--5-5-5-5-5-5-5-|--5-5-5-5-5-5-1-|--1-1-1-1-1-1-3-|--3-3-3-3-3-3-5-|

Gb|----------------|----------------|----------------|----------------|
Db|----------------|----------------|----------------|----------------|
Ab|----------------|----------------|--------------3-|--3-3-3-3-3-3-7-|
Eb|--5-5-5-5-5-5-5-|--5-5-5-5-5-5-1-|--1-1-1-1-1-1---|----------------|

Gb|----------------|----------------|----------------|-----------------|
Db|----------------|----------------|----------------|-----------------|
Ab|--7-7-7-7-7-7-7-|7-7-7-7-7-------|----------------|/7-7-7-7-7-5-----|
Eb|----------------|--------------0~|(0)-------------|-------------8-5-|

CHORUS 1   (0:46)

Gb|----------------|----------------|----------------|----------------|
Db|----------------|--------------3-|--3-3-3-3-3-3-3-|3-3-3-3-3-3-3---|
Ab|----------------|----------------|----------------|--------------3-|
Eb|--5-5-5-5-5-5-5-|5-5-5-5-5-5-5---|----------------|----------------|  \
                                                                         |  x2
Gb|----------------|----------------|----------------|----------------|  /
Db|----------------|--------------5-|--5-5-5-5-5-5-5-|5-5-5-5-5-5-5---|
Ab|--3-3-3-3-3-3-3-|3-3-3-3-3-3-3---|----------------|----------------|
Eb|----------------|----------------|----------------|--------------5~|

Gb|----------------|----------------|----------------|----------------|
Db|----------------|-------------<7>|(7)~~~~~~~~~~~~~|(7)-------------|
Ab|----------------|----------------|----------------|----------------|
Eb|(5)~~~~~~~~~~~~~|(5)-------------|----------------|--------------5-|


VERSE 2   (1:09)

Gb|----------------|----------------|----------------|----------------|
Db|----------------|----------------|----------------|----------------|
Ab|----------------|----------------|----------------|----------------|
Eb|--5-5-5-5-5-5-5-|--5-5-5-5-5-5-1-|--1-1-1-1-1-1-3-|--3-3-3-3-3-3-5-|

Gb|----------------|----------------|----------------|----------------|
Db|----------------|----------------|----------------|----------------|
Ab|----------------|----------------|--------------3-|--3-3-3-3-3-3---|
Eb|--5-5-5-5-5-5-5-|--5-5-5-5-5-5-1-|--1-1-1-1-1-1---|--------------5-|

Gb|----------------|----------------|----------------|----------------|
Db|----------------|----------------|----------------|----------------|
Ab|----------------|----------------|----------------|----------------|
Eb|--5-5-5-5-5-5-5-|--5-5-5-5-5-5-1-|--1-1-1-1-1-1-3-|--3-3-3-3-3-3-5-|

Gb|----------------|----------------|----------------|----------------|
Db|----------------|----------------|----------------|----------------|
Ab|----------------|----------------|--------------3-|--3-3-3-3-3-3---|
Eb|--5-5-5-5-5-5-5-|--5-5-5-5-5-5-1-|--1-1-1-1-1-1---|--------------0~|

Gb|----------------|----------------|----------------|-----------------|
Db|----------------|----------------|----------------|-----------------|
Ab|----------------|--------------3~|(3)-------------|/7-7-7-7-7-5-----|
Eb|(0)~0-----------|--------------0~|(0)-------------|-------------8-5-|


CHORUS 2   (1:32)

Gb|----------------|----------------|----------------|----------------|
Db|----------------|--------------3-|--3-3-3-3-3-3-3-|3-3-3-3-3-3-3---|
Ab|----------------|----------------|----------------|--------------3-|
Eb|--5-5-5-5-5-5-5-|5-5-5-5-5-5-5---|----------------|----------------|

Gb|----------------|----------------|----------------|----------------|
Db|----------------|--------------5-|--5-5-5-5-5-5-5-|5-5-5-5-5-5-5---|
Ab|--3-3-3-3-3-3-3-|3-3-3-3-3-3-3---|----------------|----------------|
Eb|----------------|----------------|----------------|--------------5-|

Gb|----------------|----------------|----------------|----------------|
Db|----------------|--------------3-|--3-3-3-3-3-3-3-|3-3-3-3-3-3-3---|
Ab|----------------|----------------|----------------|--------------3-|
Eb|--5-5-5-5-5-5-5-|5-5-5-5-5-5-5---|----------------|----------------|

Gb|----------------|----------------|----------------|----------------|
Db|----------------|--------------5-|--5-5-5-5-5-5-5-|5-5-------------|
Ab|--3-3-3-3-3-3-3-|3-3-3-3-3-3-3---|----------------|----2-2-3-3-2-2-|
Eb|----------------|----------------|----------------|----------------|


INTERLUDE   (1:50)

Gb|----------------|----------------|----------------|----------------|
Db|----------------|----------------|----------------|----------------|
Ab|----------------|----------------|----------------|----------------|
Eb|5-5-5-5-----5-5-|5-5-------------|1-1-1-1-----1~~~|(1)-------------|  \
                                                                         |  x2
Gb|----------------|----------------|----------------|----------------|  /
Db|----------------|----------------|----------------|----------------|
Ab|----------------|----------------|----------------|----------------|
Eb|3-3-3-3-----3-3-|3-3-------------|1-1-1-1-----1~~~|(1)-------------|

Gb|----------------|----------------|----------------|----------------|
Db|----------------|----------------|----------------|----------------|
Ab|----------------|----------------|----------------|----------------|
Eb|5-5-5-5-5-5-5-5-|5-5-5-5-5-5-5-5-|1-1-1-1-1-1-1-1-|1-1-1-1-1-1-1-1-|  \
                                                                         |  x2
Gb|----------------|----------------|----------------|----------------|  /
Db|----------------|----------------|----------------|----------------|
Ab|----------------|----------------|----------------|----------------|
Eb|3-3-3-3-3-3-3-3-|3-3-3-3-3-3-3-3-|1-1-1-1-1-1-1-1-|1-1-1-1-1-1-1-1-|

Gb|----------------|----------------|----------------|----------------|
Db|----------------|----------------|----------------|----------------|
Ab|----------------|----------------|----------------|----------------|
Eb|0-0-0-0-0-0-0-0-|0-0-0-0-0-0-0-0-|0-0-0-0-0-0-0-0-|0-------------5-|


CHORUS 3   (2:30)

Gb|----------------|----------------|----------------|----------------|
Db|----------------|--------------3-|--3-3-3-3-3-3-3-|3-3-3-3-3-3-3---|
Ab|----------------|----------------|----------------|--------------3-|
Eb|--5-5-5-5-5-5-5-|5-5-5-5-5-5-5---|----------------|----------------|  \
                                                                         |  x3
Gb|----------------|----------------|----------------|----------------|  /
Db|----------------|--------------5-|--5-5-5-5-5-5-5-|5-5-5-5-5-5-5---|
Ab|--3-3-3-3-3-3-3-|3-3-3-3-3-3-3---|----------------|----------------|
Eb|----------------|----------------|----------------|--------------5~|

Gb|----------------|----------------|----------------|----------------|
Db|----------------|----------------|----------------|----------------|
Ab|----------------|----------------|----------------|--------------3~|
Eb|(5)-5---5---5---|5---5---5---5-1~|(1)-1---1---1---|1---1---1---1---|

Gb|----------------|----------------|----------------|----------------|
Db|----------------|----------------|----------------|----------------|
Ab|(3)-3---3---3---|3---3---3---3---|----------------|----------------|
Eb|----------------|--------------3~|(3)-3---3---3---|3---3---3---3-5~|


Gb|----------------|
Db|----------------|
Ab|----------------|
Eb|(5)-------------|    -3:19

*******************************************************************************
*****************************   3.Ready To Fall   ****************************
*******************************************************************************

This is a great fast song. I tabbed it in Eb tuning, although it does not necessarily
to be played that way. It is not too hard to follow but the tab is unfortunately quite
due to minor differences in  the bass line when parts are repeated.


INTRO   (0:07)

Gb|----------------|----------------|----------------|----------------|
Db|----------------|----------------|----------------|----------------|
Ab|5---5---5---5---|----------------|----------------|----------------|
Eb|----------------|3---3---3---3---|6---6---6---6---|6---6---6---6---|  x3

Gb|----------------|----------------|----------------|----------------|
Db|----------------|----------------|----------------|----------------|
Ab|3---3---3---3---|3---3---3---3---|3---3---3---3---|3---3---3---3---|
Eb|----------------|----------------|----------------|----------------|

VERSE 1   (0:21)

Gb|----------------|----------------|----------------|----------------|
Db|----------------|----------------|----------------|----------------|
Ab|5---5---5-5-5-5-|--5-5---5-5-5---|----------------|----------------|
Eb|----------------|----------------|1---1---1-1-1-1-|--1-1---1-1-1---|

Gb|----------------|----------------|----------------|----------------|
Db|----------------|----------------|----------------|----------------|
Ab|1---1---1-1-1---|--------------1-|--1-1---1-1-1-3-|--3-3---3-3-3---|
Eb|--------------3-|--3-3---3-3-3---|----------------|----------------|

Gb|----------------|----------------|----------------|----------------|
Db|----------------|----------------|--------3-------|----3-----------|
Ab|5---5---5-5-5-5-|--5-5---5-5-5---|----------------|----------------|
Eb|----------------|----------------|1---1-----1-1-1-|--1-----1-1-1---|

Gb|----------------|----------------|----------------|----------------|
Db|----------------|----------------|----------------|----------------|
Ab|1---1---1-1-1---|--------------1-|--1-1---1-1-1-3-|--3-3---3---3---|
Eb|--------------3-|--3-3---3-3-3---|----------------|----------------|

Gb|----------------|----------------|----------------|----------------|
Db|----------------|----------------|----------------|----------------|
Ab|5---5---5-5-5-5-|--5-5---5-5-5---|----------------|----------------|
Eb|----------------|----------------|1---1---1-1-1-1-|--1-1---1-1-1---|

Gb|----------------|----------------|----------------|----------------|
Db|----------------|----------------|----------------|----------------|
Ab|1---1---1-1-1---|--------------1-|--1-1---1-1-1-3-|--3-3---3-3-3---|
Eb|--------------3-|--3-3---3-3-3---|----------------|----------------|

Gb|----------------|----------------|----------------|----------------|
Db|----------------|----------------|----------------|----------------|
Ab|5---5---5-5-5-5-|--5-5---5-5-5---|----------------|----------------|
Eb|----------------|----------------|1---1---1-1-1-1-|--1-1---1-1-1---|

Gb|----------------|----------------|----------------|----------------|
Db|----------------|----------------|----------------|----------------|
Ab|1---1---1-1-1---|--------------1-|--1-1---1-1-1-3-|--3-3---3---3-1-|
Eb|--------------3-|--3-3---3-3-3---|----------------|----------------|


PRE-CHORUS 1   (0:51)

Gb|----------------|----------------|----------------|----------------|
Db|----------------|----------------|----------------|----------------|
Ab|---1-1-1-1-1--1-|---1-1-1-1-1----|----------------|--------------1-|
Eb|----------------|--------------3-|---3-3-3-3-3--3-|---3-3-3-3-3----|

Gb|----------------|----------------|----------------|----------------|
Db|----------------|----------------|----------------|----------------|
Ab|---1-1-1-1-1--1-|---1-1-1-1-1--3-|---3-3-3-3-3--3-|---3-3-3-3----1-|
Eb|----------------|----------------|----------------|----------------|

Gb|----------------|----------------|----------------|----------------|
Db|----------------|----------------|----------------|----------------|
Ab|---1-1-1-1-1--1-|---1-1-1-1-1----|----------------|--------------1-|
Eb|----------------|--------------3-|---3-3-3-3-3--3-|---3-3-3-3-3----|

Gb|----------------|----------------|----------------|-----------------|
Db|----------------|----------------|----------------|/10--10----------|
Ab|---1-1-1-1-1--1-|---1-1---1--1---|3--3---3---3----|---------8---7---|
Eb|----------------|----------------|----------------|-----------------|

CHORUS 1   (1:06)

Gb|----------------|----------------|----------------|----------------|
Db|----------------|----------------|----------------|----------------|
Ab|5---5---5---5---|----------------|----------------|----------------|
Eb|----------------|3---3---3---3---|6---6---6---6---|6---6---6---6---|

Gb|----------------|----------------|----------------|----------------|
Db|----------------|----------------|----------------|----------------|
Ab|5---5---5---5---|----------------|----------------|1---0---1---3---|
Eb|----------------|3---3---3---3---|6---5---3---1---|----------------|

Gb|----------------|----------------|----------------|----------------|
Db|----------------|----------------|----------------|----------------|
Ab|5---5---5---5---|----------------|----------------|----------------|
Eb|----------------|3---3---3---3---|6---6---6---6---|6---6---6---6---|  x2

Gb|----------------|----------------|----------------|----------------|
Db|----------------|----------------|----------------|----------------|
Ab|3---3---3---3---|3---3---3---3---|3---3---3---3---|3---3---3---3---|
Eb|----------------|----------------|----------------|----------------|


VERSE 2   (1:25)

Gb|----------------|----------------|----------------|----------------|
Db|----------------|----------------|----------------|----------------|
Ab|5---5---5-5-5-5-|--5-5---5-5-5---|----------------|----------------|
Eb|----------------|----------------|1---1---1-1-1-1-|--1-1---1-1-1---|  \
                                                                         |
Gb|----------------|----------------|----------------|----------------|  |
Db|----------------|----------------|----------------|----------------|  |
Ab|1---1---1-1-1---|--------------1-|--1-1---1-1-1-3-|--3-3---3-3-3---|  |
Eb|--------------3-|--3-3---3-3-3---|----------------|----------------|  |
                                                                         |  x2
Gb|----------------|----------------|----------------|----------------|  |
Db|----------------|----------------|----------------|----------------|  |
Ab|5---5---5-5-5-5-|--5-5---5-5-5---|----------------|----------------|  |
Eb|----------------|----------------|1---1---1-1-1-1-|--1-1---1-1-1---|  |
                                                                         |
Gb|----------------|----------------|----------------|----------------|  /
Db|----------------|----------------|----------------|----------------|
Ab|1---1---1-1-1---|--------------1-|--1-1---1-1-1-3-|--3-3---3---3(1)|
Eb|--------------3-|--3-3---3-3-3---|----------------|----------------|
                                                                  * Play this
                                                                    note 2nd
                                                                    time only

PRE-CHORUS 2   (1:55)  -> Play pre-chorus 1

CHORUS 2   (2:10)

Gb|----------------|----------------|----------------|----------------|
Db|----------------|----------------|----------------|----------------|
Ab|5---5---5---5---|----------------|----------------|----------------|
Eb|----------------|3---3---3---3---|6---6---6---6---|6---6---6---6---|

Gb|----------------|----------------|----------------|----------------|
Db|----------------|----------------|----------------|----------------|
Ab|5---5---5---5---|----------------|----------------|1---0---1---3---|
Eb|----------------|3---3---3---3---|6---5---3---1---|----------------|

Gb|----------------|----------------|----------------|----------------|
Db|----------------|----------------|----------------|----------------|
Ab|5---5---5---5---|----------------|----------------|----------------|
Eb|----------------|3---3---3---3---|6---6---6---6---|6---6---6---6---|  x2


INTERLUDE   (2:25)

Gb|----------------|----------------|----------------|----------------|
Db|----------------|----------------|5---3---2---3---|3---5---3---2---|
Ab|3---3---3---3---|3---3---3---3---|----------------|----------------|
Eb|----------------|----------------|----------------|----------------|  \
                                                                         |  x2
Gb|----------------|----------------|----------------|----------------|  /
Db|3---3---3-------|----------------|----0-------2---|----3---2-------|
Ab|----------------|1---1---1-------|1---------------|------------1---|
Eb|----------------|----------------|----------------|----------------|


Gb|----------------|----------------|----------------|----------------|
Db|----------------|----------------|5---3---2---3---|3---5---3-------|
Ab|3---3---3---3---|3---3---3---3---|----------------|----------------|
Eb|----------------|----------------|----------------|----------------|

Gb|3---3---3---3---|3---3---3---3---|5---3---2---3---|3---2-----------|
Db|----------------|----------------|----------------|--------5---3---|
Ab|----------------|----------------|----------------|----------------|
Eb|----------------|----------------|----------------|----------------|

Gb|----------------|----------------|----------------|----------------|
Db|----------------|----------------|5---3---2---3---|3---5---3---2---|
Ab|3---3---3---3---|3---3---3---3---|----------------|----------------|
Eb|----------------|----------------|----------------|----------------|


Gb|----------------|----------------|----------------|----------------|
Db|3---3---3-------|----------------|0---------------|----------------|
Ab|----------------|1---------------|----1~~~~~~~~~~~|(1)-------------|
Eb|----------------|----------------|----------------|----------------|

Rest 16 bars

CHORUS 3   (3:09)

Gb|----------------|----------------|----------------|----------------|
Db|----------------|----------------|----------------|----------------|
Ab|5---5---5---5---|----------------|----------------|----------------|
Eb|----------------|3---3---3---3---|6---6---6---6---|6---6---6---6---|

Gb|----------------|----------------|----------------|----------------|
Db|----------------|----------------|----------------|----------------|
Ab|5---5---5---5---|----------------|----------------|1---0---1---3---|
Eb|----------------|3---3---3---3---|6---5---3---1---|----------------|

Gb|----------------|----------------|----------------|----------------|
Db|----------------|----------------|----------------|----------------|
Ab|5---5---5---5---|----------------|----------------|----------------|
Eb|----------------|3---3---3---3---|6---6---6---6---|6---6---6---6---|

Gb|----------------|----------------|----------------|----------------|
Db|----------------|----------------|----------------|3---2-----------|
Ab|5---5---5---5---|----------------|----------------|--------5---3---|
Eb|----------------|3---3---3---3---|6---6---6---6---|----------------|


Gb|----------------|----------------|----------------|----------------|
Db|----------------|----------------|----------------|----------------|
Ab|5---5---5---5---|----------------|----------------|----------------|
Eb|----------------|3---3---3---3---|6---6---6---6---|6---6---6---6---|

Gb|----------------|----------------|----------------|----------------|
Db|----------------|----------------|----------------|----------------|
Ab|5---5---5---5---|----------------|----------------|1---1---3---3---|
Eb|----------------|3---3---3---3---|6---5---3---1---|----------------|

Gb|----------------|----------------|----------------|----------------|
Db|----------------|----------------|----------------|----------------|
Ab|5---5---5---5---|----------------|----------------|----------------|
Eb|----------------|3---3---3---3---|6---6---6---6---|6---6---6---6---|

Gb|----------------|----------------|3---2-----------|----------------|
Db|----------------|----------------|--------3---3---|--------3---2---|
Ab|5---5---5---5---|----------------|----------------|5---5-----------|
Eb|----------------|3---3---3---3---|----------------|----------------|

Gb|----------------|
Db|----------------|
Ab|5---------------|
Eb|----------------|    -3:47

*******************************************************************************
*********************************   4.Bricks   ********************************
*******************************************************************************

Short and fast, but a simple pattern.


INTRO   (0:00)

Gb|<5>~~~~~~~~~~~~~|
Db|----------------|
Ab|----------------|
Eb|----------------|

Gb|(5)~~~~~~~~~~~~~|(5)~~~~~~~~~~~~~|(5)~~~~~~~~~~~~~|(5)-------------|
Db|----------------|----------------|----------------|----------------|
Ab|----------------|----------------|----------------|----------------|
Eb|----------------|----------------|----------------|----------------|

VERSE 1   (0:06)

Gb|----------------|----------------|----------------|----------------|
Db|----------------|--------5-55-55-|----------------|----------------|
Ab|5-55-55-5-55-55-|3-33-33---------|5-55-55-5-55-55-|3-33-33---------|
Eb|----------------|----------------|----------------|--------3-3-3-3-|

Gb|----------------|----------------|----------------|------------2-2-|
Db|----------------|--------5-55-55-|----------------|--------5-5-----|
Ab|5-55-55-5-55-55-|3-33-33---------|5-55-55-5-55-55-|3-33-33---------|
Eb|----------------|----------------|----------------|----------------|

CHORUS 1   (0:17)

Gb|3-33-33---------|----------------|----------------|----------------|
Db|--------3-33-33-|----------------|--------3-33-33-|----------------|
Ab|----------------|5-55-55-5-55-55-|----------------|5-55-55-5-55-55-|
Eb|----------------|----------------|6-66-66---------|----------------|

Gb|----------------|----------------|----------------|----------------|
Db|--------3-33-33-|--------5-55-55-|--------3-33-33-|----------------|
Ab|----------------|3-33-33---------|----------------|5-5-5-5-5-5-5-5-|
Eb|6-6---6---------|----------------|6-66-66---------|----------------|

VERSE 2   (0:29)

Gb|----------------|----------------|----------------|----------------|
Db|----------------|----------------|----------------|----------------|
Ab|5-55-55-5-55-55-|3-33-33---------|5-55-55-5-55-55-|3-33-33---------|
Eb|----------------|--------3-33-33-|----------------|--------3-3---3-|

Gb|----------------|----------------|----------------|----------------|
Db|----------------|----------------|----------------|----------------|
Ab|5-55-55-5-55-55-|3-33-33---------|5-55-55-5-55-55-|3-33-33---------|
Eb|----------------|--------3-33-33-|----------------|--------3-3-5-5-|


CHORUS 2   (0:40)

Gb|----------------|----------------|3-35-53---------|----------------|
Db|--------3-33-33-|----------------|--------3-35-53-|----------------|
Ab|----------------|5-55-55-5-55-55-|----------------|5-55-55-5-55-55-|
Eb|6-66-66---------|----------------|----------------|----------------|

Gb|----------------|----------------|----------------|----------------|
Db|--------3-33-33-|--------5-55-55-|--------3-33-33-|----------------|
Ab|----------------|3-33-33---------|----------------|5~~~~~~~~~~~~~~~|
Eb|6-6---6---------|----------------|6-66-66---------|----------------|

Gb|----------------|----------------|----------------|
Db|----------------|----------------|----------------|
Ab|(5)~~~~~~~~~~~~~|(5)~~~~~~~~~~~~~|(5)~~~~~~~~~~~~\|
Eb|----------------|----------------|----------------|


INTERLUDE   (0:55)

Rest 4 bars

Gb|----------------|----------------|----------------|----------------|
Db|--------3-3-3-3-|------5---5-5---|--------3-3-3-3-|------5---5-5---|
Ab|5-5-5-5---------|3-3-3-----------|5-5-5-5---------|3-3-3-----------|
Eb|----------------|----------------|----------------|----------------|

Gb|----------------|----------------|----------------|----------------|
Db|--------3-3-3-3-|----------------|--------3-3-3-3-|----------------|
Ab|5-5-5-5---------|3-3-3-----------|5-5-5-5---------|3-3-3-----------|
Eb|----------------|------3---3-3---|----------------|------3---3-3---|

Gb|----------------|----------------|----------------|----------------|
Db|--------3-3-3-3-|----------------|--------3-3-3-3-|----------------|
Ab|5-5-5-5---------|3-3-3-----------|5-5-5-5---------|3---------------|
Eb|----------------|------3---3-3---|----------------|--------3---5---|


CHORUS 3   (1:17)

Gb|----------------|----------------|3-33-33---------|----------------|
Db|--------3-33-33-|----------------|--------3-33-33-|----------------|
Ab|----------------|5-55-55-5-55-55-|----------------|5-55-55-5-55-55-|
Eb|6-66-66---------|----------------|----------------|----------------|

Gb|----------------|----------------|----------------|----------------|
Db|--------3-33-33-|--------5-55-55-|--------3-33-33-|-------/7-77-77-|
Ab|----------------|3-3--3----------|----------------|5-55-55---------|
Eb|6-6---6---------|----------------|6-66-66---------|----------------|

Gb|/7-77-75-7\------|
Db|-----------------|
Ab|-----------------|
Eb|-----------------|    -1:30


*******************************************************************************
****************************   5.Under The Knife   ***************************
*******************************************************************************

Another great song with slightly unusual rhythm. Watch the eighth note pickups and the
is pretty straightforward.


INTRO   (0:00)

Gb|----|----------------|----------------|----------------|----------------|
Db|----|----------------|----------------|----------------|----------------|
Ab|--2-|----2-----------|--------------2-|----2-----------|--------------2-|
Eb|----|----------------|----------------|----------------|----------------|

Gb|----------------|----------------|----------------|----------------|
Db|----------------|----------------|----------------|----------------|
Ab|--2-2-----------|----------------|----------------|--------------2-|
Eb|----------------|--------------0-|--0-0-0-0-3---2-|--2-2-2-2-2-2---|

Gb|----------------|----------------|----------------|----------------|
Db|----------------|----------------|----------------|----------------|
Ab|----2-----------|--------------2-|----2-----------|----------------|
Eb|----------------|----------------|----------------|--------------3-|

Gb|----------------|----------------|----------------|----------------|
Db|----------------|----------------|----------------|----------------|
Ab|----------------|----------------|----------------|----------------|
Eb|--3-3-----------|--------------0-|--0-0-0-0-3---2-|--2-2-2-2-2-2-2-|

VERSE 1   (0:18)

Gb|----------------|----------------|----------------|----------------|
Db|----------------|----------------|----------------|----------------|
Ab|2---------------|----------------|----------------|----------------|
Eb|----------------|----------------|0-0-0-0-0-0-0-0-|3-3-3-3-3-3-3-3-|

Gb|----------------|----------------|----------------|----------------|
Db|----------------|----------------|----------------|----------------|
Ab|2-2-2-2-2-2-2-2-|2-2-2-2-2-2-2-2-|----------------|----------------|
Eb|----------------|----------------|0-0-0-0-0-0-0-0-|3-3-3-3-3-3-3-3-|  x3

Gb|----------------|----------------|----------------|----------------|
Db|----------------|----------------|----------------|----------------|
Ab|----------------|------------7~~/|1212121212121212|1212121212121212|
Eb|5-5-5-5-5-5-5-5-|5-5-5-5-5-5-----|----------------|----------------|

CHORUS 1   (0:41)

Gb|----------------|----------------|----------------|----------------|
Db|----------------|----------------|----------------|----------------|
Ab|5---5-5-5-5-5---|----------------|2---2-2-2-2-2---|2---2-2-2-2-2---|
Eb|----------------|5---5-5-5-5-5---|----------------|----------------|

Gb|----------------|----------------|----------------|----------------|
Db|----------------|----------------|----------------|----------------|
Ab|----------------|5---5-5-4-4-4---|2-2-2---2-2-2-2-|2-2-2-2-2-2-2-2-|
Eb|3---3-3-3-3-3---|----------------|----------------|----------------|

Gb|----------------|----------------|----------------|----------------|
Db|----------------|----------------|----------------|----------------|
Ab|5---5-5-5-5-5---|----------------|2---2-2-2-2-2---|2---2-2-2-2-2---|
Eb|----------------|5---5-5-5-5-5---|----------------|----------------|

Gb|----------------|----------------|----------------|----------------|
Db|----------------|----------------|----------------|----------------|
Ab|----------------|5---5-5-4-4-4-2-|----2-----------|--------------2-|
Eb|3---3-3-3-3-3---|----------------|----------------|----------------|

Gb|----------------|----------------|----------------|----------------|
Db|----------------|----------------|----------------|----------------|
Ab|----2-----------|----------------|----------------|----------------|
Eb|----------------|--------------3-|----3-----------|--------------0-|

Gb|----------------|----------------|
Db|----------------|----------------|
Ab|----------------|----------------|
Eb|--0-0-0-0-3---2~|(2)-------------|

VERSE 2   (1:06)

Gb|----------------|----------------|----------------|----------------|
Db|----------------|----------------|----------------|----------------|
Ab|2-2-2-2-2-2-2-2-|2-2-2-2-2-2-2-2-|----------------|----------------|
Eb|----------------|----------------|0-0-0-0-0-0-0-0-|3-3-3-3-3-3-3-3-|  x4

Gb|----------------|----------------|----------------|----------------|
Db|----------------|----------------|----------------|----------------|
Ab|----------------|------------7~~/|1212121212121212|1212121212121212|
Eb|5-5-5-5-5-5-5-5-|5-5-5-5-5-5-----|----------------|----------------|

CHORUS 2   (1:29)

Gb|----------------|----------------|----------------|----------------|
Db|----------------|----------------|----------------|----------------|
Ab|5---5-5-5-5-5---|----------------|2---2-2-2-2-2---|2---2-2-2-2-2---|
Eb|----------------|5---5-5-5-5-5---|----------------|----------------|

Gb|----------------|----------------|----------------|----------------|
Db|----------------|----------------|----------------|----------------|
Ab|----------------|5---5-5-4-4-4---|2-2-2---2-2-2-2-|2-2-2-2-2-2-2-2-|
Eb|3---3-3-3-3-3---|----------------|----------------|----------------|

Gb|----------------|----------------|----------------|----------------|
Db|----------------|----------------|----------------|----------------|
Ab|5---5-5-5-5-7---|------------4---|2---2-2-2-2-2---|2---2-2-2-2-2---|
Eb|----------------|5---2---5-------|----------------|----------------|

Gb|----------------|----------------|
Db|----------------|----------------|
Ab|----------------|5---5-5-4-4-4---|
Eb|3---3-3-3-3-3---|----------------|

INTERLUDE   (1:45)

Gb|----------------|----------------|----------------|----------------|
Db|----------------|----------------|----------------|----------------|
Ab|2~~~~~~~~~~~~~~~|(2)~~~~~~~~~~~~~|(2)~~~~~~~~~~~~~|(2)~~~~~~~~~~~~~|
Eb|----------------|----------------|----------------|----------------|

Gb|----------------|----------------|----------------|----------------|
Db|----------------|----------------|----------------|----------------|
Ab|(2)~~~~~~~~~~~~~|(2)~~~~~~~~~~~~~|(2)~~~~~~~~~~~~~|(2)-------------|
Eb|----------------|----------------|----------------|----------------|


Gb|----------------|----------------|----------------|----------------|
Db|----------------|----------------|----------------|----------------|
Ab|2-----------2~~~|(2)-------------|2-----------2~~~|(2)-------------|
Eb|------2---------|----------------|------2---------|----------------|

Gb|----------------|----------------|----------------|----------------|
Db|----------------|----------------|----------------|----------------|
Ab|----------------|----------------|----------------|----------------|
Eb|3----/5-----3~~~|(3)-------------|3----/5-----3~~~|(3)-------------|

Gb|----------------|----------------|----------------|----------------|
Db|----------------|----------------|----------------|----------------|
Ab|2-2-2-2-2-2-2-2-|2-2-2-2-2-2-2-2-|2-2-2-----------|--------2-2-2-2-|
Eb|----------------|----------------|------2-2-2-2-2-|2-2-5-5---------|

Gb|----------------|----------------|----------------|----------------|
Db|----------------|----------------|----------------|----------------|
Ab|----------------|----------------|----------------|5-5-5-5-5-5-5-5-|
Eb|3-3-3-3-3-3-3-3-|3-3-3-3-3-3-3-3-|3-3-3-3-3-3-3-3-|----------------|

Gb|----------------|----------------|----------------|----------------|
Db|----------------|----------------|----------------|----------------|
Ab|----------------|------------7~~/|1212121212121212|1212121212121212|
Eb|5-5-5-5-5-5-5-5-|5-5-5-5-5-5-----|----------------|----------------|

CHORUS 3   (2:17)

Gb|----------------|----------------|----------------|----------------|
Db|----------------|----------------|----------------|----------------|
Ab|5---5-5-5-5-5---|----------------|2---2-2-2-2-2---|2---2-2-2-2-2---|
Eb|----------------|5---5-5-5-5-5---|----------------|----------------|

Gb|----------------|----------------|----------------|----------------|
Db|----------------|----------------|----------------|----------------|
Ab|----------------|5---5---4-4-4-4-|2-2-2---2-2-2-2-|2-2-2-2-2-2-2-2-|
Eb|3---3-3-3-3-3---|----------------|----------------|----------------|

Gb|----------------|----------------|----------------|----------------|
Db|----------------|4---------------|----------------|----------------|
Ab|5---5-5-5-5-7---|----5-----------|2---2-2-2-2-2---|2---2-2-2-2-2---|
Eb|----------------|--------5---2---|----------------|----------------|

Gb|----------------|----------------|----------------|----------------|
Db|----------------|----------------|----------------|----------------|
Ab|----------------|5---5-5-4-4-4-2-|----2-----------|--------------2-|
Eb|3---3-3-3-3-3---|----------------|----------------|----------------|

Gb|----------------|----------------|----------------|----------------|
Db|----------------|----------------|----------------|----------------|
Ab|----2-----------|----------------|----------------|--------------2-|
Eb|----------------|--------------3-|----3-----------|----------------|

Gb|----------------|
Db|----------------|
Ab|----2-----------|
Eb|----------------|    -2:44

*******************************************************************************
*************************   6.Prayer Of The Refugee   ************************
*******************************************************************************

This song has very interesting rhythm. Before the choruses everything stops and the
song speeds up considerably, then after most choruses the note is held, and the song returns
its original tempo. The bass part in itself, however, is quite straightforward.


INTRO   (0:02)

Gb|----------------|----------------|----------------|
Db|----------------|----------------|----------------|
Ab|------------2~~/|7~~~~~~~~~~~~~~~|(7)-------------|
Eb|----------------|----------------|----------------|


VERSE 1   (0:06)

Gb|----------------|----------------|----------------|----------------|
Db|----------------|----------------|----------------|----------------|
Ab|----------------|3-3-3-3-3-3-3-3-|5-5-5-5-5-5-5-5-|----------------|
Eb|0-0-0-0-0-0-0-0-|----------------|----------------|5-5-5-5-5-3---3-|

Gb|----------------|----------------|----------------|----------------|
Db|----------------|----------------|----------------|----------------|
Ab|----------------|3-3-3-3-3-3-3-3-|----------------|----------------|
Eb|0-0-0-0-0-0-0-0-|----------------|3-3-3-3-3-3-3-3-|0-0-0-0-0-0-0-0-|

Gb|----------------|----------------|----------------|----------------|
Db|----------------|----------------|----------------|----------------|
Ab|----------------|3-----3-3-----3-|5-----5-5-----5-|----------------|
Eb|0-----0-0-----0-|----------------|----------------|5-----5-5-0-3-2-|

Gb|----------------|----------------|----------------|----------------|
Db|----------------|----------------|----------------|----------------|
Ab|----------------|3-----3-3-----3-|----------------|----------------|
Eb|0-----0-0-----0-|----------------|3-----3-3-----3-|0---------------|


CHORUS 1   (0:31)

Gb|----------------|----------------|----------------|----------------|
Db|----------------|------------4-4-|5-5-5-5-5-5-5-5-|5-5-5-5-5-5-4-4-|
Ab|7-7-7-7-7-7-7-7-|7-7-7-7-7-7-----|----------------|----------------|
Eb|----------------|----------------|----------------|----------------|

Gb|----------------|----4-4-5-5-4-4-|----------------|----------------|
Db|7-7-7-7---------|----------------|----------------|5-5-4-4---------|
Ab|--------5-5-5-5-|5-5-------------|3-3-3-3-3-3-3-3-|--------7-7-5-5-|
Eb|----------------|----------------|----------------|----------------|

Gb|----------------|----------------|----------------|----------------|
Db|----------------|------------4-4-|5-5-5-5-5-5-5-5-|5-5-5-5-5-5-4-4-|
Ab|7-7-7-7-7-7-7-7-|7-7-7-7-7-7-----|----------------|----------------|
Eb|----------------|----------------|----------------|----------------|

Gb|----------------|----4-4-5-5-4-4-|----------------|----------------|
Db|7-7-7-7---------|----------------|----------------|--------*-------|
Ab|--------5-5-5-5-|5-5-------------|3-3-3-3-3-3-3-3-|3-3-3-3-3~~~2~~/|
Eb|----------------|----------------|----------------|----------------|

Gb|----------------|----------------|----------------|----------------|
Db|----------------|----------------|----------------|----------------|
Ab|7~~~~~~~~~~~~~~~|(7)~~~~~~~~~~~~~|(7)~~~~~~~~~~~~~|(7)-------------|
Eb|----------------|----------------|----------------|------------7\--|


VERSE 2   (0:59)

Gb|----------------|----------------|----------------|----------------|
Db|----------------|----------------|----------------|----------------|
Ab|----------------|3-3-3-3-3-3-3-3-|5-5-5-5-5-5-5-5-|----------------|
Eb|0-0-0-0-0-0-0-0-|----------------|----------------|5-5-5-5-5-3---3-|

Gb|----------------|----------------|----------------|----------------|
Db|----------------|----------------|----------------|----------------|
Ab|----------------|3-3-3-3-3-3-3-3-|----------------|------------5\--|
Eb|0-0-0-0-0-0-0-0-|----------------|3-3-3-3-3-3-3-3-|0-0-0-0-0-------|

Gb|----------------|----------------|----------------|----------------|
Db|----------------|----------------|----------------|----------------|
Ab|----------------|3-----3-3-----3-|5-----5-5-----5-|----------------|
Eb|0-----0-0-----0-|----------------|----------------|5-----5-5-0-5-3-|

Gb|----------------|----------------|----------------|----------------|
Db|----------------|----------------|----------------|----------------|
Ab|----------------|3-----3-3-----3-|----------------|----------------|
Eb|0-----0-0-----0-|----------------|3-----3-3-----3-|0---------------|


CHORUS 2   (1:24)

Gb|----------------|----------------|----------------|----------------|
Db|----------------|------------4-4-|5-5-5-5-5-5-5-5-|5-5-5-5-5-5-4-4-|
Ab|7-7-7-7-7-7-7-7-|7-7-7-7-7-7-----|----------------|----------------|
Eb|----------------|----------------|----------------|----------------|

Gb|----------------|----4-4-5-5-4-4-|----------------|----------------|
Db|7-7-7-7---------|----------------|----------------|5-5-4-4---------|
Ab|--------5-5-5-5-|5-5-------------|3-3-3-3-3-3-3-3-|--------7-7-5-5-|
Eb|----------------|----------------|----------------|----------------|

Gb|----------------|----------------|----------------|----------------|
Db|----------------|------------4-4-|5-5-5-5-5-5-5-5-|5-5-5-5-5-5-4-4-|
Ab|7-7-7-7-7-7-7-7-|7-7-7-7-7-7-----|----------------|----------------|
Eb|----------------|----------------|----------------|----------------|

Gb|----------------|----4-4-5-5-4-4-|----------------|----------------|
Db|7-7-7-7---------|----------------|----------------|----------------|
Ab|--------5-5-5-5-|5-5-------------|3-3-3-3-3-3-3-3-|3-3-3-3-3-3-3-3-|
Eb|----------------|----------------|----------------|----------------|

INTERLUDE   (1:43)

Gb|----------------|----------------|----------------|----------------|
Db|----------------|----------------|----------------|----------------|
Ab|----------------|----------------|----------------|----------------|
Eb|5---5-5-5-5-5-5-|5-5-5-5-5-5-5-5-|3---3-3-3-3-3-3-|3-3-3-3-3-3-3-3-|  x2

Gb|----------------|----------------|----------------|----------------|
Db|----------------|----------------|----------------|----------------|
Ab|----------------|----2-2-3-3-2-2-|----------------|----------------|
Eb|5---5-5-5-5-5-5-|5-5-------------|3---3-3-3-3-3-3-|3-3-3-3-3-3-3-3-|

Gb|----------------|----------------|----------------|----------------|
Db|3---------------|----------------|----------------|----------------|
Ab|----------------|----------------|----------------|----------------|
Eb|----1-1-1-1-1-1-|1-1-1-1-1-1-1-1-|0-0-0-0-0-0-0-0-|0-0-0-0-0-0-0-0-|

Gb|----------------|----------------|
Db|----------------|----------------|
Ab|3---3-3-3-3-3-3-|--------5-5-5-5-|
Eb|----------------|3---3-3---------|

GUITAR SOLO   (2:05)

Gb|----------------|----------------|----------------|----------------|
Db|----------------|----------------|----------------|----------------|
Ab|----------------|----------------|----------------|----------------|
Eb|0-0-0-0-0-0-0-0-|0-0-0-0-0-0-0-0-|3-3-3-3-3-3-3-3-|3-3-3-3-3-3-3-3-|

Gb|----------------|----------------|----------------|----------------|
Db|----------------|----------------|----------------|----------------|
Ab|5-5-5-5-5-5-5-5-|5-5-5-5-5-5-5-5-|3-3-3-3-3-3-3-3-|3-3-2-2---------|
Eb|----------------|----------------|----------------|--------5-5-3-3-|

Gb|----------------|----------------|----------------|----------------|
Db|----------------|----------------|----------------|----------------|
Ab|----------------|----------------|----------------|----------------|
Eb|0-0-0-0-0-0-0-0-|0-0-0-0-0-0-0-0-|3-3-3-3-3-3-3-3-|3-3-3-3-3-3-3-3-|

Gb|----------------|----------------|----------------|----------------|
Db|----------------|----------------|----------------|--------*-------|
Ab|5-5-5-5-5-5-5-5-|5-5-5-5-5-5-5-5-|3-3-3-3-3-3-3-3-|3-3-3-3-3~~~2~~/|
Eb|----------------|----------------|----------------|----------------|

Gb|----------------|----------------|----------------|----------------|
Db|----------------|----------------|----------------|----------------|
Ab|7~~~~~~~~~~~~~~~|(7)~~~~~~~~~~~~~|(7)-------------|7---------------|
Eb|----------------|----------------|----------------|----------------|

CHORUS 3   (2:34)  -> Play chorus 2 then continue to this:

Gb|----------------|----------------|----------------|----------------|
Db|----------------|----------------|----------------|----------------|
Ab|----------------|----------------|----------------|----------------|
Eb|0-0---0-0-0---0-|0-0---0-0-0-0-0-|3-3---3-3-3---3-|3-3---3-3-3-3-3-|

Gb|----------------|----------------|----------------|----------------|
Db|----------------|----------------|----------------|----------------|
Ab|5-5---5-5-5---5-|5-5---5-5-5-5-5-|3-3---3-3-3---3-|3-3-3-3-3-3-3-3-|
Eb|----------------|----------------|----------------|----------------|

Gb|----------------|----------------|----------------|----------------|
Db|----------------|----------------|----------------|----------------|
Ab|----------------|----------------|----------------|----------------|
Eb|0-0-0-0-0-0-0-0-|0-0-0-0-0-0-0-0-|3-3-3-3-3-3-3-3-|3-3-3-3-3-3-3-3-|

Gb|----------------|----------------|----------------|----------------|
Db|----------------|----------------|----------------|----------------|
Ab|5-5-5-5-5-5-5-5-|5-5-5-5-5-5-5-5-|3-3-3-3-3-3-3-3-|3-3-2-2---------|
Eb|----------------|----------------|----------------|--------5-5-3-3-|

Gb|----------------|
Db|----------------|
Ab|----------------|
Eb|0~~~~~~~~~~~~~~~|    -3:18

*******************************************************************************
*********************************   7.Drones   ********************************
*******************************************************************************

This is the fastest, most complex and hardest song to tab on the whole album. There is
specific to mention though, except for the fact that the opening Eb note is held from the
of Prayer Of The Refugee. The interlude is quite long (42 bars) but you should be able
follow; I have made it as easy as possible.


INTRO    (0:00)

Gb|----------------|
Db|----------------|
Ab|-*--------------|
Eb|(0)~~~~~~~~~~~~~|

Gb|----------------|----------------|
Db|----------------|----------------|
Ab|----5h7---------|----5h7-----5---|
Eb|0-0-----0-0-3-3-|0-0-----3-3-----|  x7


VERSE 1   (0:22)

Gb|----------------|----------------|----------------|----------------|
Db|----------------|----------------|----------------|----------------|
Ab|----------------|----------------|----------------|----------------|
Eb|0-0-0-0-0-0-0-0-|0-0-0-0-0-0-0-0-|3-3-3-3-3-3-3-3-|5-5-5-5-5-5-5-5-|

Gb|----------------|----------------|----------------|----------------|
Db|----------------|----------------|----------------|----------------|
Ab|7-7-7-7-7-7-7-7-|7-7-7-7-7-5-----|----------------|5-5-5-5-5-5-5-5-|
Eb|----------------|------------7-5-|3-3-3-3-3-3-3-3-|----------------|

Gb|----------------|----------------|----------------|----------------|
Db|----------------|----------------|----------------|----------------|
Ab|----------------|----------------|----------------|----------------|
Eb|0-0-0-0-0-0-0-0-|0-0-0-0-0-0-0-0-|3-3-3-3-3-3-3-3-|5-5-5-5-5-5-5-5-|

Gb|----------------|----------------|----------------|----------------|
Db|----------------|----------------|----------------|----------------|
Ab|7-7-7-7-7-7-7-7-|7-7-7-7-7-5-----|----------------|5-5-5-5-5-5-2---|
Eb|----------------|------------7-5-|3-3-3-3-3-3-3-3-|----------------|


CHORUS 1   (0:40)

Gb|----------------|----------------|----------------|----------------|
Db|----------------|----------------|----------------|----------------|
Ab|3---3-3-3-3-3-3-|3-3-2-------3---|5---5-5-5-5-5-5-|5-5-5-5-5-5-5-5-|
Eb|----------------|--------5-5-----|----------------|----------------|

Gb|----------------|----------------|----------------|----------------|
Db|----------------|----------------|2-2-2-2---------|----------------|
Ab|2-2-2---2-2-2---|2-2-2---2-2-2---|--------5-5-5-5-|3-3-3-3-2-2-2-2-|
Eb|----------------|----------------|----------------|----------------|

Gb|----------------|----------------|----------------|----------------|
Db|----------------|----------------|----------------|----------------|
Ab|3---3-3-3-3-3-3-|3-3-2-------3---|5---5-5-5-5-5-5-|5-5-5-5-5-5-5-5-|
Eb|----------------|--------5-5-----|----------------|----------------|

Gb|----------------|----------------|----------------|----------------|
Db|----------------|----------------|2-2-2-2-2-2-2-2-|----------------|
Ab|2-2-2---2-2-2---|2-2-2---2-2-2---|----------------|5---------------|
Eb|----------------|----------------|----------------|----------------|

Gb|----------------|----------------|
Db|----------------|----------------|
Ab|----5h7---------|----5h7-----5---|
Eb|0-0-----0-0-3-3-|0-0-----3-3-----|  x3


VERSE 2   (1:06)  -> Play verse 1

CHORUS 2   (1:24)

Gb|----------------|----------------|----------------|----------------|
Db|----------------|----------------|----------------|----------------|
Ab|3---3-3-3-3-3-3-|3-3-2-------3---|5---5-5-5-5-5-5-|5-5-5-5-5-5-5-5-|
Eb|----------------|--------5-5-----|----------------|----------------|

Gb|----------------|----------------|----------------|----------------|
Db|----------------|----------------|2-2-2-2-4-4-4-4-|5-5-5-5-4-4-4-4-|
Ab|2-2-2---2-2-2---|2-2-2---2-2-2---|----------------|----------------|
Eb|----------------|----------------|----------------|----------------|

Gb|----------------|----------------|----------------|----------------|
Db|----------------|----------------|----------------|----------------|
Ab|3---3-3-3-3-3-3-|3-3-2-------3---|5---5-5-5-5-5-5-|5-5-5-5-5-5-5-5-|
Eb|----------------|--------5-5-----|----------------|----------------|

Gb|----------------|----------------|----------------|----------------|
Db|----------------|----------------|2-2-2-2-2-2-2-2-|----------------|
Ab|2-2-2---2-2-2---|2-2-2---2-2-2---|----------------|5-5-5-5-5-5-5-5-|
Eb|----------------|----------------|----------------|----------------|

Gb|----------------|----------------|
Db|----------------|----------------|
Ab|3-3-3-3-3-3-3-3-|3---------------|
Eb|----------------|----------------|


INTERLUDE   (1:45)

Gb|----------------|----------------|----------------|----------------|
Db|----------------|----------------|----------------|----------------|
Ab|----------------|------------3---|----------------|------------5---|
Eb|0---0---0---0---|0---0---0-------|3---3---3---3---|3---3---3-------|

Gb|----------------|----------------|----------------|----------------|
Db|----------------|----------------|----------------|----------------|
Ab|----------------|----------------|----------------|----------------|
Eb|5---5---5---5---|5---5---5---3---|0---0---0---0---|0---0---0---3---|

Gb|----------------|----------------|----------------|----------------|
Db|----------------|----------------|----------------|----------------|
Ab|----------------|------------3---|----------------|------------5---|
Eb|0---0---0---0---|0---0---0-------|3---3---3---3---|3---3---3-------|

Gb|----------------|----------------|----------------|----------------|
Db|----------------|----------------|----------------|----------------|
Ab|----------------|----------------|----------------|----------------|
Eb|5---5---5---5---|5---5---5---3---|0---0---0---0---|0---3~~~~~~~~~~~|

Gb|----------------|----------------|
Db|----------------|----------------|
Ab|----------------|----------------|
Eb|(3)~~~~~~~~~~~~~|(3)-------------|

Gb|----------------|----------------|----------------|----------------|
Db|----------------|----------------|----------------|----------------|
Ab|----------------|------------3-3-|----------------|------------5-5-|
Eb|0-0---0-0-0---0-|0-0---0-0-0-----|3-3---3-3-3---3-|3-3---3-3-3-----|

Gb|----------------|----------------|----------------|----------------|
Db|----------------|----------------|----------------|----------------|
Ab|----------------|----------------|----------------|----------------|
Eb|5-5---5-5-5---5-|5-5---5-5-5-3-3-|0-0---0-0-0---0-|0-0---0-0-0-----|


Gb|----------------|----------------|----------------|----------------|
Db|----------------|----------------|----------------|----------------|
Ab|----7-7-7-7-7-7-|7-7-7-7-7-7-7-7-|7-7-7-7-7-7-7-7-|7-7-7-7-7-7-7-7-|
Eb|0-0-------------|----------------|----------------|----------------|

Gb|----------------|----------------|----------------|----------------|
Db|----------------|----------------|----------------|----------------|
Ab|7-7-7-7-7-7-7-7-|7-7-7-7-7-7-7-7-|7-7-7-7-7-7-7-7-|7-7-7-7-7-7-7-7-|
Eb|----------------|----------------|----------------|----------------|


Gb|----------------|----------------|----------------|----------------|
Db|----------------|----------------|----------------|----------------|
Ab|--------7p5---5-|7-7-7-7---------|--------7p5---5-|7-7-7-7---------|
Eb|0-0-0-0-----7---|--------0-0-0-0-|0-0-0-0-----7---|--------5---7---|

Gb|----------------|----------------|----------------|----------------|
Db|----------------|----------------|----------------|----------------|
Ab|--------7p5---5-|7-7-7-7---------|----------------|7-7-7-7-7-7-2---|
Eb|0-0-0-0-----7---|--------0-0-0-0-|0-0-0-0-0-0-0-0-|----------------|

CHORUS 3   (2:31)

Gb|----------------|----------------|----------------|----------------|
Db|----------------|----------------|----------------|----------------|
Ab|3---3-3-3-3-3-3-|3-3-2-------3---|5---5-5-5-5-5-5-|5-5-5-5-5-5-5-5-|
Eb|----------------|--------5-5-----|----------------|----------------|

Gb|----------------|----------------|----------------|----------------|
Db|----------------|----------------|2-2-2-2-4-4-4-4-|5-5-5-5-4-4-4-4-|
Ab|2-2-2---2-2-2---|2-2-2---2-2-2---|----------------|----------------|
Eb|----------------|----------------|----------------|----------------|

Gb|----------------|----------------|----------------|----------------|
Db|----------------|----------------|----------------|----------------|
Ab|3---3-3-3-3-3-3-|3-3-2-------3---|5---5-5-5-5-5-5-|5-5-5-5-5-5-5-5-|
Eb|----------------|--------5-5-----|----------------|----------------|

Gb|----------------|----------------|----------------|----------------|
Db|----------------|----------------|2---------------|----------------|
Ab|2-2-2---2-2-2---|2-2-2---2-2-2---|----------------|5~~~~~~~~~~~~~~~|
Eb|----------------|----------------|----------------|----------------|


Gb|----------------|----------------|
Db|----------------|----------------|
Ab|----5h7---------|----5h7-----5---|
Eb|0-0-----0-0-3-3-|0-0-----3-3-----|  x3

Gb|----------------|
Db|----------------|
Ab|----------------|
Eb|0---------------|    -3:01


*******************************************************************************
*************************   8.The Approaching Curve   ************************
*******************************************************************************

This is an excellent song in every way, and I have a lot of comments about it. The
are amazing, it is unique, in that the verses are in spoken word form, and it is also
the most creative song musically for them to date. The music speeds up and slows down
a bit throughout the song; the choruses and parts of the interlude are all played in
and parts of the interlude are in 3/4 time. The only way to tell the difference between
sections played in triplets and the sections in 3/4 time is the time signatures I have
whenever it changes, so look for those, although it doesn’t make much of a difference. I 
tabbed this in Eb tuning because it seems like it would have been played that way,
though it can be played in standard.

VERSE 1   (0:13)


Gb|----------------|----------------|----------------|----------------|
Db|----------------|----------------|----------------|----------------|
Ab|----------------|----------------|----------------|----------------|
Eb|7-7-7-7-7-7-7-7-|7-7-7-7-7-7-7-7-|5-5-5-5-5-5-5-5-|5-5-5-5-5-5-5-5-|

Gb|----------------|----------------|----------------|----------------|
Db|----------------|----------------|----------------|----------------|
Ab|----------------|----------------|----------------|----4-4-5-5-4-4-|
Eb|7-7-7-7-7-7-7-7-|7-7-7-7-7-7-7-7-|5-5-5-5-5-5-5-5-|5-5-------------|

Gb|----------------|----------------|----------------|----------------|
Db|----------------|----------------|----------------|----------------|
Ab|----------------|----------------|----------------|----------------|
Eb|7-7-7-7-7-7-7-7-|7-7-7-7-7-7-7-7-|5-5-5-5-5-5-5-5-|5-5-5-5-5-5-5-5-|

Gb|----------------|----------------|----------------|----------------|
Db|----------------|----------------|----------------|----------------|
Ab|----------------|------------5~~/|1010101010101010|1010101010101010|
Eb|3-3-3-3-3-3-3-3-|3-3-3-3-3-3-----|----------------|----------------|


Gb|----------------|----------------|----------------|----------------|
Db|----------------|----------------|----------------|----------------|
Ab|----------------|----------------|----------------|----------------|
Eb|7-7-7-7-7-7-7-7-|7-7-7-7-7-7-7-7-|5-5-5-5-5-5-5-5-|5-5-5-5-5-5-5-5-|

Gb|----------------|----------------|----------------|----------------|
Db|----------------|----------------|----------------|----------------|
Ab|----------------|----------------|----------------|----4-4-5-5-4-4-|
Eb|7-7-7-7-7-7-7-7-|7-7-7-7-7-7-7-7-|5-5-5-5-5-5-5-5-|5-5-------------|

Gb|----------------|----------------|----------------|----------------|
Db|----------------|----------------|----------------|----------------|
Ab|----------------|----------------|----------------|----------------|
Eb|7-7-7-7-7-7-7-7-|7-7-7-7-7-7-7-7-|5-5-5-5-5-5-5-5-|5-5-5-5-5-5-5-5-|

Gb|----------------|----------------|----------------|------------|
Db|----------------|----------------|----------------|------------|
Ab|----------------|------------5~~/|1010101010101010|12109-109-7-|
Eb|3-3-3-3-3-3-3-3-|3-3-3-3-3-3-----|----------------|------------|

CHORUS 1   (0:54)

Gb|------------|------------|------------|------------|
Db|------------|------------|------------|------------|
Ab|5-5-5-5-5-5-|------------|------------|------------|
Eb|------------|5-5-5-5-5-5-|7-7-7-7-7-7-|7-7-7-7-7-7-|  x2

Gb|------------|------------|------------|------------|
Db|------------|------------|------------|------------|
Ab|5-5-5-5-5-5-|------------|------------|------------|
Eb|------------|5-5-5-5-5-5-|2-2-2-2-2-2-|3-3-3-3-3-3-|

Gb|------------|------------|-------------|
Db|------------|------------|-------------|
Ab|5-5-5-5-5-5-|------------|*------------|
Eb|------------|5-5-5-5-5-5-|7~~~~~~~~~~~~|


VERSE 2   (1:19)  -> Play verse 1

CHORUS 2   (1:59)

Gb|------------|------------|------------|------------|
Db|------------|------------|------------|------------|
Ab|5-5-5-5-5-5-|------------|------------|------------|
Eb|------------|5-5-5-5-5-5-|7-7-7-7-7-7-|7-7-7-7-7-7-|  x2

Gb|------------|------------|------------|------------|
Db|------------|------------|------------|------------|
Ab|5-5-5-5-5-5-|7-7-7-7-7-7-|9-9-9-9-7-9-|101010101010|
Eb|------------|------------|------------|------------|

Gb|------------|------------|
Db|------------|------------|
Ab|5-5-5-5-5-5-|------------|
Eb|------------|5-5-5-5-5-5-|


INTERLUDE   (2:22)

Gb|-|-------------|
Db|3|-------------|
Ab|4|-------------|
Eb|-|7-7----------|

Rest 7 bars

Gb|------------|------------|------------|------------|
Db|------------|------------|------------|------------|
Ab|2-2---------|------------|------------|------------|
Eb|----------2-|3-3---------|5-5-------2-|3-3-----5---|

Gb|------------|------------|------------|------------|
Db|------------|------------|------------|------------|
Ab|2-2---------|------------|------------|------------|
Eb|----------2-|3-3---------|5-5-------2-|3-----------|


Gb|------------|------------|------------|------------|
Db|------------|------------|------------|------------|
Ab|2-2---2-----|------------|------------|------------|
Eb|----------2-|3---3---3---|5-5---5---2-|3---3---5---|  x2

Gb|------------|------------|------------|------------|
Db|------------|------------|------------|------------|
Ab|2-2---2-----|------------|------------|------------|
Eb|----------2-|3---3---3---|5-5---5---2-|3-----------|

Gb|------------|------------|------------|------------|
Db|------------|------------|------------|------------|
Ab|2-2---2-----|------------|------------|------------|
Eb|----------2-|3---3---3---|5-5---5---2-|3---3---5---|

Gb|-|------------|------------|------------|------------|
Db|4|------------|------------|------------|------------|
Ab|4|------------|----------5/|101010101010|12109-109-7-|
Eb|-|3-3-3-3-3-3-|3-3-3-3-3---|------------|------------|


CHORUS 3   (2:59)

Gb|------------|------------|------------|------------|
Db|------------|------------|------------|------------|
Ab|5-5-5-5-5-5-|------------|------------|------------|
Eb|------------|5-5-5-5-5-5-|7-7-7-7-7-7-|7-7-7-7-7-7-|  x2

Gb|------------|------------|------------|------------|
Db|------------|------------|------------|------------|
Ab|5-5-5-5-5-5-|7-7-7-7-7-7-|9-9-9-9-7-9-|101010109-7-|
Eb|------------|------------|------------|------------|

Gb|------------|------------|-------------|
Db|------------|------------|-------------|
Ab|5-5-5-5-5-5-|------------|*------------|
Eb|------------|5-5-5-5-5-5-|7~~~~~~~~~~~~|    -3:44


*******************************************************************************
****************************   9.Worth Dying For   ***************************
*******************************************************************************

The only thing really to note is that the tempo slows down after the first eight bars.


VERSE 1   (0:00)

G|----------------|----------------|----------------|----------------|
D|----------------|----------------|----------------|----------------|
A|4---------------|----------------|----------------|----------------|
E|----------------|5---------------|0~~~~~~~~~~~~~~~|7---------------|  x2

G|----------------|----------------|----------------|----------------|
D|----------------|----------------|----------------|----------------|
A|4-44-44-4-44-44-|----------------|7-77-77-7-77-77-|----------------|
E|----------------|5-55-55-5-55-55-|----------------|7-77-77-7-77-77-|

G|----------------|----------------|----------------|----------------|
D|----------------|----------------|----------------|----------------|
A|4-44-44-4-44-44-|----------------|7-77-77-7-77-77-|----------------|
E|----------------|5-55-55-5-55-55-|----------------|7-7-7-7-7-7-7-7-|


PRE-CHORUS 1   (0:20)

G|----------------|----------------|----------------|----------------|
D|----------------|----------------|----------------|----------------|
A|----------------|----------------|----------------|2-22-22-2-22-22-|
E|5-55-55-5-55-55-|2-22-22-2-22-22-|5-55-55-5-55-55-|----------------|

G|----------------|----------------|----------------|----------------|
D|----------------|----------------|----------------|----------------|
A|----------------|----------------|----------------|2-2-2-2-2-2-2-2-|
E|5-55-55-5-55-55-|2-22-22-2-22-22-|5-55-55-5-55-55-|----------------|


CHORUS 1   (0:32)

G|----------------|----------------|----------------|----------------|
D|----------------|----------------|----------------|----------------|
A|4---4---4---4---|----------------|----------------|----------------|
E|----------------|5---5-5-5-5-5---|0---0---0---0---|7---7-7-7-7-7---|

G|----------------|----------------|----------------|----------------|
D|----------------|----------------|----------------|----------------|
A|4---4---4---4---|----------------|----------------|----------------|
E|----------------|5---5-5-5-5-5---|0---0-0-0-0-0-0-|7-7-7-7-7-7-7-7-|

G|----------------|----------------|----------------|----------------|
D|----------------|----------------|----------------|----------------|
A|4-4-4-4-4-4-4-4-|----------------|----------------|----------------|
E|----------------|5-5-5-5-5-5-5-5-|0-0-0-0-0-0-0-0-|7-7-7-7-7-7-7-7-|  x2


PRE-VERSE   (0:54)

G|----------------|----------------|----------------|----------------|
D|----------------|----------------|----------------|----------------|
A|4-444-4---4-4-4-|4-444-4---4-4-4-|4-444-4---4-4-4-|4---------------|
E|----------------|----------------|----------------|----------------|


VERSE 2   (0:58)

G|----------------|----------------|----------------|----------------|
D|----------------|----------------|----------------|----------------|
A|4-44-44-4-44-44-|----------------|7-77-77-7-77-77-|----------------|
E|----------------|5-55-55-5-55-55-|----------------|7-77-77-7-77-77-|

G|----------------|----------------|----------------|----------------|
D|----------------|----------------|----------------|----------------|
A|4-44-44-4-44-44-|----------------|7-77-77-9-7-6-7-|----------------|
E|----------------|5-55-55-5-55-55-|----------------|7-77-77-7-7-7-7-|

G|----------------|----------------|----------------|----------------|
D|----------------|----------------|----------------|----------------|
A|4-44-44-4-44-44-|----------------|7-77-77-7-77-77-|----------------|
E|----------------|5-55-55-5-55-55-|----------------|7-77-77-7-77-77-|

G|----------------|----------------|----------------|----------------|
D|----------------|----------------|----------------|----------------|
A|4-44-44-4-44-44-|----------------|7-77-77---------|----------------|
E|----------------|5-55-55-5-55-55-|--------4-4-5-5-|7-7-7-7-7-7-7-7-|


PRE-CHORUS 2   (1:21)  -> Play pre-chorus 1


CHORUS 2   (1:32)  -> Play chorus 1


INERLUDE   (1:54)

G|----------------|----------------|----------------|----------------|
D|----6-----4-----|7-----6-----4---|----------------|4---------------|
A|4-------4-----4-|----4-----4-----|----7-----6-----|------7-----6---|
E|----------------|----------------|5-------5-----7-|----7-----7-----|  x5

G|----------------|----------------|----------------|----------------|
D|----6-----4-----|7-----6-----4---|----------------|----------------|
A|4-------4-----4-|----4-----4-----|----7-----6-----|----------------|
E|----------------|----------------|5-------5-----5-|7-7-7-7-7-7-7-7-|


PRE-CHORUS 3   (2:26)

G|----------------|----------------|----------------|----------------|
D|----------------|----------------|----------------|----------------|
A|----------------|----------------|----------------|----------------|
E|5-5-5-5-5-5-5-5-|2-2-2-2-2-2-2-2-|5-5-5-5-5-5-5-5-|-2-2-2-2-2-2-2-2|

G|----------------|----------------|----------------|----------------|
D|----------------|----------------|----------------|----------------|
A|----------------|----------------|----------------|2-2-2-2-2-2-2-2-|
E|5-5-5-5-5-5-5-5-|2-2-2-2-2-2-2-2-|5---------------|----------------|

G|4-4-4-2-4-4-4-4-|
D|----------------|
A|----------------|
E|----------------|

CHORUS 3   (2:38)

G|----------------|----------------|----------------|----------------|
D|----------------|----------------|----------------|----------------|
A|4---4---4---4---|----------------|----------------|----------------|
E|----------------|5---5-5-5-5-5---|0---0---0---0---|7---7-7-7-7-7---|

G|----------------|----------------|----------------|----------------|
D|----------------|----------------|----------------|----------------|
A|4---4---4---4---|----------------|----------------|----------------|
E|----------------|5---5-5-5-5-5---|0---0-0-0-0-0-0-|7-7-7-7-7-7-7-7-|

G|----------------|----------------|----------------|----------------|
D|----------------|----------------|----------------|----------------|
A|4-4-4-4-4-4-4-4-|----------------|----------------|----------------|
E|----------------|5-5-5-5-5-5-5-5-|0-0-0-0-0-0-0-0-|7-7-7-7-7-7-7-7-|

G|----------------|----------------|----------------|----------------|
D|----6-----4-----|7-----6-----4---|----------------|----------------|
A|4-4-----4-----4-|----------------|----------------|----------------|
E|----------------|----5-----5-----|0-0-0-0-0-0-0-0-|7-7-7-7-7-7-7-7-|

G|----------------|----------------|----------------|----------------|
D|----------------|----------------|----------------|----------------|
A|4-4-4-4-4-4-4-4-|----------------|----------------|----------------|
E|----------------|5-5-5-5-5-5-5-5-|0-0-0-0-0-0-0-0-|7-7-7-7-7-7-7-7-|

G|----------------|----------------|----------------|----------------|
D|----------------|----------------|----------------|----------------|
A|4-4-4-4-4-4-4-4-|----------------|----------------|2-2-2-------2-2-|
E|----------------|5-5-5-5-5-5-5-5-|0-0-0-0-0-0-0-0-|------2-4-5-----|

G|----------------|
D|----------------|
A|4---------------|
E|----------------|    -3:20


*******************************************************************************
**************************  10.Behind Closed Doors   *************************
*******************************************************************************

This is a really cool yet straightforward song. There is just one riff in the final
that I have trouble hearing, but other than that the song is easy.

VERSE 1   (0:09)

Gb|----------------|----------------|----------------|----------------|
Db|----------------|----------------|----------------|----------------|
Ab|2-2-2-2-2-2-2-2-|2-2-2-2-2-------|----------------|----------5-5-5-|
Eb|----------------|----------5-5-5-|3-3-3-3-3-3-3-3-|3-3-3-3-3-------|  \
                                                                         |  x4
Gb|----------------|----------------|----------------|----------------|  /
Db|----------------|----------------|----------------|----------------|
Ab|----------------|----------------|----------------|----------------|
Eb|0-0-0-0-0-0-0-0-|0-0-0-0-0-5-5-5-|3-3-3-3-3-3-3-3-|5-5-5-5-5-5-5-5-|

Gb|----------------|----------------|
Db|----------------|----------------|
Ab|2-2-2-2-2-2-2-2-|2---------------|
Eb|----------------|----------------|

CHORUS 1   (0:51)

Gb|----------------|----------------|----------------|----------------|
Db|----------------|----------------|----------------|----------------|
Ab|----------------|----------------|2-2-2-2-2-2-2-2-|2-2-2-2-5-5-5-5-|
Eb|3---3-3-3-3-3-3-|5-5-5-5-5-5-5-5-|----------------|----------------|

Gb|----------------|----------------|----------------|----------------|
Db|5---5-5-4-------|------------4\--|----------------|----------------|
Ab|----------7-5---|7-7-7---5-7-----|2-2-2-2-2-2-2-2-|2-2-2-2-5-5-5-5-|
Eb|----------------|----------------|----------------|----------------|

Gb|----------------|----------------|----------------|----------------|
Db|----------------|----------------|----------------|----------------|
Ab|----------------|----------------|2-2-2-2-2-2-2-2-|2-2-2-2-5-5-5-5-|
Eb|3---3-3-3-3-3-3-|5-5-5-5-5-5-5-5-|----------------|----------------|

Gb|----------------|----------------|
Db|----------------|----------------|
Ab|----------------|----------------|
Eb|3-3-3-3-3-3-3-3-|5-5-5-5-5-5-5-5-|

VERSE 2   (1:08)  -> Play verse 1, but repeat the first eight bars only twice


CHORUS 2   (1:31)  -> Play chorus 1, then play this:

Gb|----------------|----------------|
Db|----------------|----------------|
Ab|2-2-2-2-2-2-2-2-|2---------------|
Eb|----------------|----------------|


INTERLUDE   (1:50)

Gb|----------------|----------------|----------------|----------------|
Db|----------------|----------------|----------------|----------------|
Ab|----------------|----------------|----------------|----------------|
Eb|3-3-3-3-3-------|--------5-5-5-5-|3-3-3-3-3-------|--------5-5-5-5-|  \
                                                                         |  x3
Gb|----------------|----------------|----------------|----------------|  /
Db|----------------|----------------|----------------|----------------|
Ab|2-2-2-2-2-2-2-2-|2-2-2-2-2-------|2-2-2-2-2-2-2-2-|2-2-2-2-2-------|
Eb|----------------|----------5-5-5-|----------------|----------5-5-5-|


CHORUS 3   (2:20)

Gb|----------------|
Db|----------------|
Ab|----------------|
Eb|3---------------|

Rest 7 bars


Gb|----------------|----------------|----------------|----------------|
Db|----------------|----------------|----------------|----------------|
Ab|----------------|----------------|2-2-2-2-2-2-2-2-|2-2-2-2-5-5-5-5-|
Eb|3---3-3-3-3-3-3-|5-5-5-5-5-5-5-5-|----------------|----------------|

Gb|----------------|----------------|----------------|----------------|
Db|----------------|----------------|------------4---|4-2---4/9\------|
Ab|----------------|----------------|2-2-2-2-2-2-----|----5-----------|
Eb|3---3-3-3-3-3-3-|5-5-5-5-5-5-5-5-|----------------|----------------|


Gb|----------------|----------------|----------------|----------------|
Db|----------------|----------------|----------------|----------------|
Ab|----------------|----------------|2-2-2-2-2-2-2-2-|2-2-2-2-5-5-5-5-|
Eb|3---3-3-3-3-3-3-|5-5-5-5-5-5-5-5-|----------------|----------------|  x3

Gb|----------------|----------------|----------------|
Db|5-5-5---4-------|------------4---|4---------------|
Ab|----------7-5---|7-7-7---5-7-----|----------------|
Eb|----------------|----------------|----------------|    -3:15

*******************************************************************************
********************************  11.Roadside   *******************************
*******************************************************************************

This song does not actually have any electric bass, although it sounds like there is a
bass somewhere in the mix. I have not tabbed out that part, as there doesn’t seem to be
point, but I suppose if anyone really would like it I could give it a try.
*******************************************************************************
**************************  12.The Good Left Undone   *************************
*******************************************************************************

This song is fairly simple. The song slows down for the choruses, then picks up again
the verses. The only tricky thing is the rhythm at the beginning of each verse; the accent
not placed on the downbeat in the guitar intro, which confuses the rhythm slightly. I
put in the rhythm for the guitar intro, before the first verse, to give you an idea.

~~~~~~~~~~~~~~~~~~~~~~~~~~~~~~~~~~~~~~~~~~~~~~~~~~~~~~~~~~~~~~~~~~~~~~~~~~~~~~~

GUITAR INTRO   (0:00)

(G|--6-6-6-6-6-6-6-|--6-6-6-6-6-6-6-|--6-6-6-6-6-6-6-|--6-6-6-6-6-6-6-|)
(D|----------------|----------------|----------------|----------------|)
(A|--4-4-4-4-4-4-4-|--4-4-4-4-4-4-4-|--4-4-4-4-4-4-4-|--4-4-4-4-4-4-4-|)
(E|----------------|----------------|----------------|----------------|)

~~~~~~~~~~~~~~~~~~~~~~~~~~~~~~~~~~~~~~~~~~~~~~~~~~~~~~~~~~~~~~~~~~~~~~~~~~~~~~~

VERSE 1   (0:04)

G|----------------|----------------|----------------|----------------|
D|----------------|----------------|----------------|----------------|
A|--4-4-4-4-4-4-4-|4-4-4-4-4-4-4-4-|----------------|----------------|
E|----------------|----------------|--5-5-5-5-5-5-5-|5-5-5-5-5-5-5-5-|  \
                                                                        |  x2
G|----------------|----------------|----------------|----------------|  /
D|----------------|----------------|----------------|----------------|
A|--7-7-7-7-7-7-7-|----------------|--9-9-9-9-9-9-9-|6---6---7p6-6-6-|
E|----------------|--7-7-7-7-7-7-7-|----------------|----------------|

G|-----------------|----------------|
D|-----------------|--------9-9-9---|
A|/1212121211111111|9-9-9-9-------4-|
E|-----------------|----------------|


PRE-CHORUS 1   (0:26)

G|----------------|----------------|----------------|----------------|
D|----------------|----------------|----------------|----------------|
A|--4-4-4-4-4-4-4-|4-4-4-4-4-4-4~~/|1212121211111111|9-9-9-9-------4-|
E|----------------|----------------|----------------|--------7-7-7---|

G|----------------|----------------|----------------|----------------|
D|----------------|----------------|----------------|----------------|
A|--4-4-4-4-4-4-4-|4-4-4-4-4-4-4-4/|1212121211111111|9-9-9-9---------|
E|----------------|----------------|----------------|--------7-7-7-0-|

G|----------------|----------------|----------------|----------------|
D|----------------|----------------|----------------|----------------|
A|----------------|----------------|----------------|----------------|
E|--0-0-0-0-0-0-2-|--2-2-2-2-2-2-2-|5-5-5-5-4-4-4-4-|2---------------|

CHORUS 1   (0:40)

G|----------------|----------------|----------------|----------------|
D|----------------|----------------|----------------|----------------|
A|4-4-4-4-4-4-4-4-|----------------|2-2-2-2-2-2-2-2-|----------------|
E|----------------|0-0-0-0-0-0-0-0-|----------------|5-5-5-5-5-5-5-5-|

G|----------------|----------------|----------------|----------------|
D|----------------|----------------|----------------|----------------|
A|4-4-4-4-4-4-4-4-|----------------|2-2-2-2-2-2-2-2-|----------------|
E|----------------|0-0-0-0-0-0-0-0-|----------------|5-5-5-5-5-------|

Rest 4 bars

VERSE 2   (1:01)  -> Play verse 1

PRE-CHORUS 2   (1:23)

G|----------------|----------------|----------------|----------------|
D|----------------|----------------|----------------|----------------|
A|--4-4-4-4-4-4-4-|--4-4-4-4-4-4-4/|1212121211111111|9-9-9-9-------4-|
E|----------------|----------------|----------------|--------7-7-7---|

G|----------------|----------------|----------------|----------------|
D|----------------|----------------|----------------|----------------|
A|--4-4-4-4-4-4-4-|--4-4-4-4-4-4-4/|1212121211111111|9-9-9-9---------|
E|----------------|----------------|----------------|--------7-7-7-0-|

G|----------------|----------------|----------------|----------------|
D|----------------|----------------|----------------|----------------|
A|----------------|----------------|----------------|----------------|
E|--0-0-0-0-0-0-2-|--2-2-2-2-2-2-2-|5-5-5-5-4-4-4-4-|2---------------|

CHORUS 2   (1:37)

G|----------------|----------------|----------------|----------------|
D|----------------|----------------|----------------|----------------|
A|4-4-4-4-4-4-4-4-|----------------|2-2-2-2-2-2-2-2-|----------------|
E|----------------|0-0-0-0-0-0-0-0-|----------------|5-5-5-5-5-5-5-5-|  x2

GUITAR SOLO   (1:54)

G|----------------|----------------|----------------|----------------|
D|----------------|----------------|----------------|----------------|
A|4-4-4-4-4-4-4-4-|----------------|2-2-2-2-4-4-2-2-|----------------|
E|----------------|0-0-0-0-0-2-4-5-|----------------|5-5-5-5-5-5-5-5-|  x2

BASS INTERLUDE/SOLO   (2:10)

G|----------------|----------------|----------------|----------------|
D|----------------|----------------|----------------|----------------|
A|4-4---4-4-4---4-|----------------|2-2---2-2-2---2-|----------------|
E|----------------|0-0---0-0-0---0-|----------------|5-5---5-5-5---5-|

G|----------------|----------------|----------------|----------------|
D|----------------|----------------|----------------|----------------|
A|4-4---4-4-4---4-|----------------|2-2---2-2-2---2-|----------------|
E|----------------|0-0---0-0-0---0-|----------------|5~~~~~~~~-------|

CHORUS 3   (2:25)  -> Play chorus 2 then:

G|----------------|----------------|----------------|----------------|
D|----------------|----------------|----------------|----------------|
A|4-4-4-4-4-4-4-4-|----------------|2-2-2-2-4-4-2-2-|----------------|
E|----------------|0-0-0-0-0-2-4-5-|----------------|5-5-5-5-5-5-5-5-|

G|----------------|----------------|----------------|----------------|
D|----------------|----------------|----------------|----------------|
A|4-4-4-4-4-4-4-4-|----------------|2-2-2-2-4-4-2-2-|----------------|
E|----------------|0-0-0-0-0-2-4-5-|----------------|5-5-5-5-5-------|    -3:02

*******************************************************************************
**********************************   Segue   *********************************
*******************************************************************************

This is not really a song, but is the mini segue between The Good Left Undone and
located in the “track” between the songs (a.k.a. the “countdown” to Survive). The positioning
rather awkward in this “song”; I would appreciate any alternate ideas.

SEGUE   (-1:08)

Gb|----------------|----------------|----------------|----------------|
Db|6~~~~~~~~~~~~~~~|----------------|----------------|----------------|
Ab|4~~~~~~~~~~~~~~~|7~~~~~~~~~~~~~~~|9~~~~~~~~~~~~~~~|4~~~~~~~~~~~~~~~|
Eb|----------------|5~~~~~~~~~~~~~~~|7~~~~~~~~~~~~~~~|2~~~~~~~~~~~~~~~|  x2

Gb|----------------|----------------|8~~~~/9~~~~\8~~~|----------------|
Db|6~~~~~~~~~~~~~~~|----------------|----------------|----------------|
Ab|4~~~~~~~~~~~~~~~|7~~~~~~~~~~~~~~~|----------------|4~~~~~~~~~~~~~~~|
Eb|----------------|5~~~~~~~~~~~~~~~|7~~~~~~~~~~~~~~~|2~~~~~~~~~~~~~~~|  x6

Gb|----------------|----------------|8~~~~/9~~~~\8~~~|----------------|
Db|6~~~~~~~~~~~~~~~|----------------|----------------|*---------------|
Ab|4~~~~~~~~~~~~~~~|7~~~~~~~~~~~~~~~|----------------|4~~~~~~~~~~~~~~~|
Eb|----------------|5~~~~~~~~~~~~~~~|7~~~~~~~~~~~~~~~|2~~~~~~~~~~~~~~~|   -0:00


*******************************************************************************
********************************  13.Survive   *******************************
*******************************************************************************

This song is probably one of the most complex on this album in terms of the bass part,
the rhythm is fairly standard, except for the interlude, which is slower than the rest of
song. Note the chord held over from the Segue track.

INTRO   (0:00)

Gb|----------------|
Db|----------------|
Ab|(4)-------------|
Eb|(2)-------------|

Rest three bars

Gb|----------------|----------------|----------------|----------------|
Db|----------------|----------------|----------------|----------------|
Ab|2-2-2-2---2-2-2-|----------------|----------------|2-2-2-2---2-2-2-|
Eb|----------------|2-2-2-2---2-2-2-|5-5-5-5---5-5-5-|----------------|

VERSE 1   (0:09)

Gb|----------------|----------------|----------------|----------------|
Db|----------------|----------------|----------------|----------------|
Ab|4-4-4-4-4-4-4-4-|4-4-4-4-4-4-4-4-|----------------|----------------|
Eb|----------------|----------------|5-5-5-5-5-5-5-5-|5-5-5-5-5-5-5-5-|

Gb|----------------|----------------|----------------|----------------|
Db|----------------|----------------|----------------|----------------|
Ab|2-2-2-2-2-2-2-2-|----------------|----------------|2-2-2-2-2-2-2-2-|
Eb|----------------|2-2-2-2-2-2-2-2-|5-5-5-5-5-5-5-5-|----------------|

Gb|----------------|----------------|----------------|----------------|
Db|----------------|----------------|----------------|----------------|
Ab|4-4-4-4-4-4-4-4-|4-4-4-4-4-4-4-4-|----------------|----------------|
Eb|----------------|----------------|5-5-5-5-5-5-5-5-|5-5-5-5-5-5-5-5-|

Gb|----------------|----------------|----------------|----------------|
Db|----------------|----------------|----------------|----------------|
Ab|2-2-2-2-2-2-2-2-|----------------|----------------|2---2---------4-|
Eb|----------------|2-2-2-2-2-2-2-2-|5-5-5-5-5-5-5-5-|--------4-4-4---|


CHORUS 1   (0:27)

Gb|----------------|----------------|----------------|----------------|
Db|----------------|--------2-2-2---|----------------|----------------|
Ab|--4-4-------4---|----4---------2-|--2-2---2-2-2-2-|2-2-2-2---------|
Eb|----------------|----------------|----------------|--------2-2-2-5-|

Gb|----------------|----------------|----------------|----------------|
Db|----------------|----------------|----------------|----------------|
Ab|----------------|--------------2-|--2-2-2-2-2-2-2-|2-2-2-2-------4-|
Eb|--5-5---5-5-5---|5-5-5---0-0-0---|----------------|--------4-4-4---|

Gb|----------------|----------------|----------------|----------------|
Db|----------------|--------2-2-2---|----------------|----------------|
Ab|--4-4-------4---|----4---------2-|--2-2---2-2-2-2-|2-2-2-2---------|
Eb|----------------|----------------|----------------|--------2-2-2-5-|

Gb|----------------|----------------|----------------|----------------|
Db|----------------|----------------|----------------|----------------|
Ab|----------------|--------------2-|--2-2-2-2-2-2-2-|2-2-2-2---------|
Eb|--5-5---5-5-5---|5-5-5---0-0-0---|----------------|--------4-4-4-5-|


Gb|----------------|----------------|----------------|----------------|
Db|----------------|----------------|----------------|----------------|
Ab|----------------|----------------|----------------|2~~~~~~~--------|
Eb|----------------|--------4-4-4-5-|----------------|--------4-4-4-5\|

Gb|----------------|----------------|----------------|----------------|
Db|----------------|----------------|----------------|----------------|
Ab|----------------|----------------|----------------|2~~~~~~~--------|
Eb|----------------|--------4-4-4-5-|----------------|--------4~~~~~~~|


VERSE 2   (0:56)

Gb|----------------|----------------|----------------|----------------|
Db|----------------|----------------|----------------|----------------|
Ab|4-4-4-4-4-4-4-4-|4-4-4-4-4-4-4-4-|----------------|----------------|
Eb|----------------|----------------|5-5-5-5-5-5-5-5-|5-5-5-5-5-5-5-5-|

Gb|----------------|----------------|----------------|----------------|
Db|----------------|----------------|----------------|----------------|
Ab|2-2-2-2-2-2-2-2-|----------------|----------------|2-2-2-2-2-2-2-2-|
Eb|----------------|2-2-2-2-2-2-2-2-|5-5-5-5-5-5-5-5-|----------------|

Gb|----------------|----------------|----------------|----------------|
Db|----------------|----------------|----------------|----------------|
Ab|4-4-4-4-4-4-4-4-|4-4-4-4-4-4-4-4-|----------------|----------------|
Eb|----------------|----------------|5-5-5-5-5-5-5-5-|5-5-5-5-5-5-5-5-|

Gb|----------------|----------------|----------------|----------------|
Db|----------------|----------------|----------------|----------------|
Ab|2-2-2-2-2-2-2-2-|----------------|----------------|2---------------|
Eb|----------------|2-2-2-2-2-2-2-2-|5-5-5-5-5-5-5-5-|----------------|


Gb|----------------|----------------|----------------|
Db|----------------|----------------|----------------|
Ab|----------------|----------------|--------------4-|
Eb|----------------|----------------|----------------|

CHORUS 2   (1:18)  -> Play chorus 1

INTERLUDE   (1:46)

Gb|----------------|----------------|----------------|----------------|
Db|6-6-------------|--------------4-|6-6-------------|--------------4-|
Ab|4-4-------------|--------------2-|4-4-------------|--------------2-|
Eb|----------------|----------------|----------------|----------------|  x4

Gb|----------------|----------------|----------------|----------------|
Db|6-6-------------|--------------4-|2-2-----------2-|4-4-------------|
Ab|4-4-------------|--------------2-|0-0-----------0-|2-2-------------|
Eb|----------------|----------------|----------------|----------------|

Gb|----------------|----------------|----------------|----------------|
Db|----------------|----------------|----------------|----------------|
Ab|4-4-4-4-4-4-4-4-|----------------|2-2-2-2-2-2-2-2-|------------2---|
Eb|----------------|5-5-5-5-5-5-5-5-|----------------|2-2-2-2-2-5---5-|  x3

Gb|----------------|----------------|----------------|----------------|
Db|----------------|----------------|----------------|----------------|
Ab|4-4-4-4-4-4-4-4-|----------------|2-2-2-2-2-2-2-2-|2---2---------4-|
Eb|----------------|5-5-5-5-5-5-5-5-|----------------|--------4-4-4---|

CHORUS 3   (2:47)

Gb|----------------|----------------|----------------|----------------|
Db|----------------|--------2-2-2---|----------------|----------------|
Ab|--4-4-4-4-4-4-4-|4-4-4-4-------2-|--2-2-2-2-2-2-2-|2-2-2-2---------|
Eb|----------------|----------------|----------------|--------2-2-2-5-|  \
                                                                         |  x2
Gb|----------------|----------------|----------------|----------------|  /
Db|----------------|----------------|----------------|----------------|
Ab|----------------|--------------2-|--2-2-2-2-2-2-2-|2-2-2-2-------4-|
Eb|--5-5-5-5-5-5-5-|5-5-5-5-0-0-0---|----------------|--------4-4-4---|

Gb|----1-1-----1-1-|2-2-1-1---------|----1-1-4-4-2-2-|1-1-------------|
Db|--------2-2-----|--------2-2-1---|----------------|----4-4---------|
Ab|--4-------------|--------------2-|--2-------------|----------------|
Eb|----------------|----------------|----------------|--------2-2-2-5-|  \
                                                                         |  x2
Gb|----------------|----------------|----------------|----------------|  /
Db|----------------|----------------|----------------|----------------|
Ab|----------------|--------------2-|--2-2-2-2-2-2-2-|2-2-2-2-------4~|
Eb|--5-5-5-5-5-5-5-|5-5-5-5-0-0-0---|----------------|--------4-4-4---|   -3:40

Symbol Legend:

~    = Let note ring
x4   = Play this section four times
(6)  = Let note ring into next bar
/    = Slide up
~/   = Let note ring then slide up
~\   = Let note ring then slide down
h    = Hammer on
\    = Slide down
<7>  = Harmonic on the seventh fret
*    = Fermata - pause; hold note for longer than its original value
p    = Pull off


That’s it. Any questions, comments, suggestions or corrections would be appreciated.
comments
print report bad tab
5 comments total. Showing first comments.
0 reply
Fusanti_RHCP wrote on May 8 2009, 08:10 pm

Very good job with this tab, only problem I had was arranging them all for a half step down, but thats only cause i was too lazy to find my tuner to tune back up. Kudos, man.

0 reply
erb6bassist wrote on December 6 2009, 09:40 pm

pretty much spot on, though the good left undone was off in some places, and i know that it's played in half step cuz i've watched him play lit live twice in person.

5 stars though

0 reply
FBassman wrote on December 6 2009, 10:48 pm

fair enough. I'm pretty sure he probably plays them all in Eb (that would only make sense) but since I always keep my bass in standard tuning I tabbed the ones in standard that didn't use the low Eb.

I want to post or [tab]
guest
You may want to rate the tab now too:
select rating
Please do not post tabs as comments. Select "correction" instead!