Oops, an error
Loading. Please wait.

This Is Letting Go Tab

ver3
ver3

Intro

Whole song

Interactive

More versions @911Tabs.com
2,154 views 15 this week
no commentswrite comment
1 2 3 4 5
excellent!
x 3
Autoscroll
+/-
esc
set tempo
stop
Contributor
Difficulty
Tuning
intermediate
D# G# C# F# A# D#
Hey! There's an official Ultimate Guitar app which is ideal
for learning songs when you're away from computer. Get the app
WARNING: You are trying to view
                                    content from Ultimate-Guitar.com
                                    in an unauthorized application,
                                    which is prohibited.

                                    Please use an official Ultimate
                                    Guitar Tabs application for iPhone,
                                    iPad or Android to access legitimate
                                    chords, guitar, bass, and drum tabs
                                    from Ultimate-Guitar.com database.

                                    Type "ultimate guitar tabs" in Apple
                                    App Store's or Android Market's
                                    search to find the application.
Tabbed by: Joshua Garcia (joshuag523@aol.com)

Tabs for the song: This Is Letting Go by Rise Against
Please rate and let me know if you have any corrections. Thank you.


I decided to make my own tab of this song (my favorite) since most of the 
stuff on the other tabs wasn't as accurate, detailed, or had the wrong 
tuning. I'm fairly certain every bit of this is correct. Do note, however, I 
did pick up on a smaller second lead (Guitar 2) in the Chorus, so there are 
3 guitars. The rhythm guitar becomes Guitar 3. I think the second lead is a 
little clearer to hear on the left headphone. I don't think it's played near 
the Outro.


Tuning: Half-Step Down (D# G# C# F# A# D#)


Intro
Guitar 2:
D#||------|
A#||------|
F#||--6~--|
C#||--4~--|
G#||------|
D#||------|


Guitar 2:
D#||----------------------------------------------|------------------------------------------|
A#||----------------------------------------------|------------------------------------------|
F#||--6--6666-44-99997777--6--6666-44-------------|--6--6666-44-99997766---------------------|
C#||--4--4444-44-xxxxxxxx--7--7777-77--9--977766--|--4--4444-44-xxxxxxxx--9--99999999999999--| x2
G#||-------------55555555--------------7--777777--|-------------55555555--7--77777777777777--|
D#||----------------------------------------------|------------------------------------------|
                                                                             .........

Guitar 1:
D#||-------|-----------------------------------------------|
A#||-------|-------10--9-------------10--------------------|
F#||-------|--9h11--------11------9------9~----------------|
C#||--11~--|------------------11---------------9h10-9------|
G#||-------|-------------------------------------------12--|
D#||-------|-----------------------------------------------|


D#||-----------------------------------------------------------|
A#||-----------------------------------------------------------|
F#||--9/11-111111111111-9/11-111111111111-9/11-111111111111-9--|
C#||--x/x--x-x-x-x-x-x--x/x--x-x-x-x-x-x--x/x--x-x-x-x-x-x--x--|
G#||--7/9--9-9-9-9-9-9--7/9--9-9-9-9-9-9--7/9--9-9-9-9-9-9--7--|
D#||-----------------------------------------------------------|


D#||---------------------------------------------------------------|
A#||-------10--9----------/10---12--------10---10---10---10---10\--|
F#||--9/11--------11----------------9~----9--9-9--9-9--9-9--9-9-\--|
C#||------------------11---------------------9----9----9----9------|
G#||---------------------------------------------------------------|
D#||---------------------------------------------------------------|



Verse
Guitar 2:
D#||------------------------------------------------------------------|
A#||------------------------------------------------------------------|
F#||--6--6-6-6-6-6-6-----------------6-6-6-6-6-6-6-6------------------|
C#||--4--4-4-4-4-4-4-7-7-7-7-7-7-7-7-7-7-7-7-7-7-7-7-9-9-9-9-7-7-6-6--|
G#||-----------------5-5-5-5-5-5-5-5-----------------7-7-7-7-7-7-7-7--|
D#||------------------------------------------------------------------|
         . . . . . . . . . . . . . . . . . . . . . . . . . . . . . .

D#||------------------------------------------------------------------|
A#||------------------------------------------------------------------|
F#||--6--6-6-6-6-6-6--------------------------------------------------|
C#||--4--4-4-4-4-4-4-7-7-7-7-7-7-7-7--9--9-9-9-9-9-9-9-9-9-9-9-9-9-9--|
G#||-----------------5-5-5-5-5-5-5-5--7--7-7-7-7-7-7-7-7-7-7-7-7-7-7--|
D#||------------------------------------------------------------------|
         . . . . . . . . . . . . . .     . . . . . .


Guitar 1:
D#||------|
A#||------|
F#||--6~--|
C#||--4~--|
G#||------|
D#||------|




Guitar 2:
D#||------------------------------------------------------------------|
A#||------------------------------------------------------------------|
F#||--6--6-6-6-6-6-6-----------------6-6-6-6-6-6-6-6------------------|
C#||--4--4-4-4-4-4-4-7-7-7-7-7-7-7-7-7-7-7-7-7-7-7-7-9-9-9-9-7-7-6-6--|
G#||-----------------5-5-5-5-5-5-5-5-----------------7-7-7-7-7-7-7-7--|
D#||------------------------------------------------------------------|
         . . . . . . . . . . . . . . . . . . . . . . . . . . . . . .


Guitar 1:
D#||---------------------------------------------------|
A#||--------------------------9~-----------------------|
F#||--6~---------9~-----------9~-----------------------|
C#||------7~---------12~--11----------9-9-9-9-9-9-9-9--|
G#||---------------------------------------------------|
D#||---------------------------------------------------|


Guitar 2:
D#||------------------------------------------------------------------|
A#||------------------------------------------------------------------|
F#||--6--6-6-6-6-6-6--------------------------------------------------|
C#||--4--4-4-4-4-4-4-7-7-7-7-7-7-7-7--9--9-9-9-9-9-9-9-9-9-9-9-9-9-9--|
G#||-----------------5-5-5-5-5-5-5-5--7--7-7-7-7-7-7-7-7-7-7-7-7-7-7--|
D#||------------------------------------------------------------------|
         . . . . . . . . . . . . . .     . . . . . .



Pre-Chorus
Guitar 1/2:
D#||--------------------------------------------------|
A#||--------------------------------------------------|
F#||--7-----66----------------------------------------|
C#||--7--x--66-----99-----77------2~------------------|
G#||--5--x--44--x--99--x--77------2~----///pick////---|
D#||------------x--77--x--55----0-0~----////slide///--|
                                .


Chorus
Guitar 1:
D#||--------------------|-----------------------|----------------------|----------------------|
A#||--------------------|-----------------------|----------------------|----------------------|
F#||-99-14-13----14-14--|--9-13-14----13-13--9--|----------------------|--11--9--7--77777777--|
C#||-xx-x--x-----x--x---|--x-x--x-----x--x---x--|-4--4--4444--44--4444-|--x---x--x--xxxxxxxx--| x2
G#||-77-12-11----12-12--|--7-11-12----11-11--7--|-4--4--4444--44--4444-|--9---7--5--55555555--|
D#||--------------------|-----------------------|-2--2--2222--22--2222-|----------------------|


Guitar 2 (Starts when Guitar 1 repeats):
D#||------------------|---------------------|----------------------|---------------------|
A#||------------------|---------------------|----------------------|---------------------|
F#||------6-4----6-6--|------4-6----4-4-----|----------------------|---------------------|
C#||--2-2-------------|--2-2-------------6--|-4--4--4444--44--4444-|---------------------|
G#||------------------|---------------------|-4--4--4444--44--4444-|--4--2--0--00--0000--|
D#||------------------|---------------------|-2--2--2222--22--2222-|---------------------|


Guitar 3:
D#||------------------------------------------------------------------------------------------|
A#||------------------------------------------------------------------------------------------|
F#||--------------------------------------------------------------------7--7--7777--77--7777--|
C#||--7--7--7777--77--7777--2--2--2222--22--2222--4--4--4444--44--4444--7--7--7777--77--7777--| x2
G#||--7--7--7777--77--7777--2--2--2222--22--2222--4--4--4444--44--4444--5--5--5555--55--5555--|
D#||--5--5--5555--55--5555--0--0--0000--00--0000--2--2--2222--22--2222------------------------|


Guitar 1/2:
D#||---------------------------|
A#||---------------------------|
F#||--7--77--777---9--99--999--|
C#||--7--77--777---9--99--999--|
G#||--5--55--555---7--77--777--|
D#||---------------------------|



Pre-Verse
Guitar 1:
D#||----------------------------------------------------------------------|
A#||-------10-10-10-9-9-10-12---12--10---10-10-10---10---10-10-10p0---12--|
F#||--/11--11-11-11-111111-11---11--9----9--9--9--------------------------|
C#||----------------------------------------------------------------------|
G#||----------------------------------------------------------------------|
D#||----------------------------------------------------------------------|


D#||-------------------------------------------------------------|
A#||-------10--9----------10---10/12--9----h10p9h10p9h10p9h10p9--|
F#||--9h11--------11---------------------------------------------|
C#||------------------11-----------------------------------------|
G#||-------------------------------------------------------------|
D#||-------------------------------------------------------------|


Guitar 2:
D#||----------------------------------------------|------------------------------------------|
A#||----------------------------------------------|------------------------------------------|
F#||--6--6666-44-99997777--6--6666-44-------------|--6--6666-44-99997766---------------------|
C#||--4--4444-44-xxxxxxxx--7--7777-77--9--977766--|--4--4444-44-xxxxxxxx--9--99999999999999--|
G#||-------------55555555--------------7--777777--|-------------55555555--7--77777777777777--|
D#||----------------------------------------------|------------------------------------------|



Verse
Guitar 2:
D#||------------------------------------------------------------------|
A#||------------------------------------------------------------------|
F#||--6--6-6-6-6-6-6--------------------------------------------------|
C#||--4--4-4-4-4-4-4-7-7-7-7-7-7-7-7-----------------9-9-9-9-7-7-6-6--|
G#||-----------------5-5-5-5-5-5-5-5-7-7-7-7-7-7-7-7-7-7-7-7-7-7-7-7--|
D#||---------------------------------5-5-5-5-5-5-5-5------------------|
         . . . . . . . . . . . . . . . . . . . . . . . . . . . . . .

D#||------------------------------------------------------------------|
A#||------------------------------------------------------------------|
F#||--6--6-6-6-6-6-6--------------------------------------------------|
C#||--4--4-4-4-4-4-4-7-7-7-7-7-7-7-7--9--9-9-9-9-9-9-9-9-9-9-9-9-9-9--|
G#||-----------------5-5-5-5-5-5-5-5--7--7-7-7-7-7-7-7-7-7-7-7-7-7-7--|
D#||------------------------------------------------------------------|
         . . . . . . . . . . . . . .     . . . . . .

Guitar 1:
D#||------------------------------------------------------------------|
A#||------------------------------------------------------------------|
F#||--6~--------------------------------------------------------------|
C#||--4~--------------------------------------------------------------|
G#||-------------------------------------------------------------'9~--|
D#||------------------------------------------------------------------|



Guitar 1:
D#||---------------------------------------------------------------|
A#||------------------10-12~-----9---10~---------------------------|
F#||---------------9------------------------------9--11------------|
C#||---------/11-----------------------------11---------9~---\-6~--|
G#||--('9~)--------------------------------------------------------|
D#||---------------------------------------------------------------|


Guitar 2:
D#||--------------------------------------------------------|
A#||--------------------------------------------------------|
F#||--6~----------9~----------11~----------9~-----99999999--|
C#||--4~----------x-----------11~----------9~-----99999999--|
G#||--------------7~----------9-~----------7~-----77777777--|
D#||--------------------------------------------------------|



Pre-Chorus
Guitar 1/2:
D#||--------------------------------------------------|
A#||--------------------------------------------------|
F#||--7-----66----------------------------------------|
C#||--7--x--66-----99-----77------2~------------------|
G#||--5--x--44--x--99--x--77------2~----///pick////---|
D#||------------x--77--x--55----0-0~----////slide///--|
                                .


Chorus
Guitar 1:
D#||--------------------|-----------------------|----------------------|----------------------|
A#||--------------------|-----------------------|----------------------|----------------------|
F#||-99-14-13----14-14--|--9-13-14----13-13--9--|----------------------|--11--9--7--77777777--|
C#||-xx-x--x-----x--x---|--x-x--x-----x--x---x--|-4--4--4444--44--4444-|--x---x--x--xxxxxxxx--| x2
G#||-77-12-11----12-12--|--7-11-12----11-11--7--|-4--4--4444--44--4444-|--9---7--5--55555555--|
D#||--------------------|-----------------------|-2--2--2222--22--2222-|----------------------|


Guitar 2 (Starts when Guitar 1 repeats):
D#||------------------|---------------------|----------------------|---------------------|
A#||------------------|---------------------|----------------------|---------------------|
F#||------6-4----6-6--|------4-6----4-4-----|----------------------|---------------------|
C#||--2-2-------------|--2-2-------------6--|-4--4--4444--44--4444-|---------------------|
G#||------------------|---------------------|-4--4--4444--44--4444-|--4--2--0--00--0000--|
D#||------------------|---------------------|-2--2--2222--22--2222-|---------------------|


Guitar 2:
D#||------------------------------------------------------------------------------------------|
A#||------------------------------------------------------------------------------------------|
F#||--------------------------------------------------------------------7--7--7777--77--7777--|
C#||--7--7--7777--77--7777--2--2--2222--22--2222--4--4--4444--44--4444--7--7--7777--77--7777--| x2
G#||--7--7--7777--77--7777--2--2--2222--22--2222--4--4--4444--44--4444--5--5--5555--55--5555--|
D#||--5--5--5555--55--5555--0--0--0000--00--0000--2--2--2222--22--2222------------------------|



Riff
Guitar 1/2:
D#||---------------------------------------|
A#||---------------------------------------|
F#||------------------9-----9-----9-----9--|
C#||------------------7-----7-----7-----7--|
G#||------------------5--55-5--55-5--55-5--|
D#||--2-4-5-7---5-4------------------------|
                         ..    ..    ..

Guitar 1:
D#||-----------------------------------|
A#||-----------------------------------|
F#||--14-13-11-9----9-11-14~------13~--|
C#||--x--x--x--x----x-x--14~------14~--|
G#||--12-11-9--7----7-9--12~------11~--|
D#||-----------------------------------|


Guitar 2:
D#||----------------------------|
A#||----------------------------|
F#||----------------------------|
C#||----------------4~------2~--|
G#||----------------4~------2~--|
D#||--2-4-5-7---5-4-2~------0~--|



Bridge (Interlude)
Guitar 1:
D#||--------------------------------------------------------------------------|
A#||--------------------------------------------------------------------------|
F#||--11-11-11-11-9-11-11-11-11-11-11-9h11-11-11-11-11-11-9h11p9h11-11-11-11--|
C#||--------------------------------------------------------------------------|
G#||--------------------------------------------------------------------------|
D#||--------------------------------------------------------------------------|
      .  .  .     . .  .     .  .  .       .     .  .  .       .    .  .  .


D#||-----------------------------------------|
A#||-----------------------------------------|
F#||--9h11-9h11-11-11-11-9h11-9h11-11-11-11--|
C#||-----------------------------------------| x6
G#||-----------------------------------------|
D#||-----------------------------------------|
                .  .  .


Guitar 2:
D#||------|-------------------|----------------|
A#||------|-------------------|----------------|
F#||------|-------------------|----------------|
C#||--4~--|-----------4-5-4~--|----------------|
G#||--4~--|--4--('4)----------|--///pick////---|
D#||--2~--|-------------------|--////slide///--|



Bridge
Guitar 1:
D#||------------------------------------------|------------------------------------------|
A#||------------------------------------------|------------------------------------------|
F#||--11---11---9/11---11--1111--9/11\9-------|------------------------------------------|
C#||--x----x----x/x----x---x-x---x/x-\x---x2--|-------11---9------------9----------------|
G#||--9----9----7/9----9---9-9---7/9-\7-------|--7/9-----------12-11-12-----12---11---7--|
D#||------------------------------------------|------------------------------------------|


D#||------------------------------------------|------------------------------------------|
A#||------------------------------------------|------------------------------------------|
F#||--11---11---9/11---11--1111--9/11\9-------|---------------------------------------9--|
C#||--x----x----x/x----x---x-x---x/x-\x---x2--|-------11---9------------9---11---12------|
G#||--9----9----7/9----9---9-9---7/9-\7-------|--7/9-----------12-11-12------------------|
D#||------------------------------------------|------------------------------------------|


Guitar 2:
D#||-----------------------------------------|------------------------------------------|
A#||-----------------------------------------|------------------------------------------|
F#||----------7-77-7777----------------------|----------7-77-7777----------------6-666--|
C#||--4-4-44--7-77-7777--7-77-77--9-99-9999--|--4-4-44--5-55-5555--7-77-77--9-99-6-666--| x2
G#||--4-4-44--5-55-5555--7-77-77--9-99-9999--|--4-4-44--5-55-5555--7-77-77--9-99-4-444--|
D#||--2-2-22-------------5-55-55--7-77-7777--|--2-2-22-------------5-55-55--7-77--------|


Guitar 1/2:
D#||--------------------------------------------|
A#||--------------------------------------------|
F#||--7-7777777777777777-9-9999999999999999-----|
C#||--7-7777777777777777-9-9999999999999999-7~--|
G#||--5-5555555555555555-7-7777777777777777-7~--|
D#||----------------------------------------5~--|



Chorus
Guitar 1:
D#||------------------------|----------------------|
A#||------------------------|----------------------|
F#||------------------------|--11--9--7--77--7777--|
C#||--4--4--4444--44--4444--|--x---x--x--xx--xxxx--|
G#||--4--4--4444--44--4444--|--9---7--5--55--5555--|
D#||--2--2--2222--22--2222--|----------------------|


Guitar 2:
D#||------------------------|--------------------|
A#||------------------------|--------------------|
F#||------------------------|--7--7---7---7---7--|
C#||--4--4--4444--44--4444--|--7--7---7---7---7--|
G#||--4--4--4444--44--4444--|--5--5---5---5---5--|
D#||--2--2--2222--22--2222--|--------------------|



Guitar 1:
D#||--------------------|-----------------------|----------------------|----------------------|
A#||--------------------|-----------------------|----------------------|----------------------|
F#||-99-14-13----14-14--|--9-13-14----13-13--9--|----------------------|--11--9--7--77--7777--|
C#||-xx-x--x-----x--x---|--x-x--x-----x--x---x--|-4--4--4444--44--4444-|--x---x--x--xx--xxxx--| x2
G#||-77-12-11----12-12--|--7-11-12----11-11--7--|-4--4--4444--44--4444-|--9---7--5--55--5555--|
D#||--------------------|-----------------------|-2--2--2222--22--2222-|----------------------|


Guitar 2:
D#||------------------------------------------------------------------------------------------|
A#||------------------------------------------------------------------------------------------|
F#||--------------------------------------------------------------------7--7--7777--77--7777--|
C#||--7--7--7777--77--7777--2--2--2222--22--2222--4--4--4444--44--4444--7--7--7777--77--7777--| x2
G#||--7--7--7777--77--7777--2--2--2222--22--2222--4--4--4444--44--4444--5--5--5555--55--5555--|
D#||--5--5--5555--55--5555--0--0--0000--00--0000--2--2--2222--22--2222------------------------|



Chorus / Outro
Guitar 1:
D#||-----------------------|----------------------|------------------|----------------------|
A#||-----------------------|----------------------|------------------|----------------------|
F#||-9-9-14-13-13-14-14-14-|--9-9-13-14--13-13-9--|------------------|--11--9--7--77777777--|
C#||-x-x-x--x--x--x--x--x--|--x-x-x--x---x--x--x--|-4-4-4-4-4-4-4-4--|--x---x--x--xxxxxxxx--| x2
G#||-7-7-12-11-11-12-12-12-|--7-7-11-12--11-11-7--|-4-4-4-4-4-4-4-4--|--9---7--5--55555555--|
D#||-----------------------|----------------------|-2-2-2-2-2-2-2-2--|----------------------|


Guitar 2:
D#||--------------------------------------------------------------------|
A#||--------------------------------------------------------------------|
F#||---------------------------------------------------7-77-77-77-7777--|
C#||--7-7-7-7-7-7-7-7-2-2-2-2-2-2-2-2-4-4-4-4-4-4-4-4--7-77-77-77-7777--| x2
G#||--7-7-7-7-7-7-7-7-2-2-2-2-2-2-2-2-4-4-4-4-4-4-4-4--5-55-55-55-5555--|
D#||--5-5-5-5-5-5-5-5-0-0-0-0-0-0-0-0-2-2-2-2-2-2-2-2-------------------|



Outro
Guitar 1/2:
D#||----------------------------------------------------|
A#||----------------------------------------------------|
F#||--6--6-6-6-6-6-6------------------------------------|
C#||--4--4-4-4-4-4-4-7-7-7-7-7-7-7-7--------------------|
G#||-----------------5-5-5-5-5-5-5-5-7-7-7-7-7-7-7-7-9--|
D#||---------------------------------5-5-5-5-5-5-5-5-7--|
         . . . . . . . . . . . . . . . . . . . . . .




Tablature Legend
----------------
 h   hammer-on
 p   pull-off
 b   bend
 pb  pre-bend
 r   release bend
 ~   hold / vibrato
 .   palm mute
 /   slide up
 \   slide down
 *   pinch harmonic
 '   natural harmonic
 x   mute note
 T   tap
comments
We did not receive enough feedback on this tab! Please rate:
print report bad tab
1 2 3 4 5
I want to post or [tab]
guest
You may want to rate the tab now too:
select rating
Please do not post tabs as comments. Select "correction" instead!