Oops, an error
Loading. Please wait.

Zero Visibility Bass Tab

371 views 12 this week
no commentswrite comment
1 2 3 4 5
excellent!
x 1
Autoscroll
+/-
esc
set tempo
stop
Contributor
Difficulty
Tuning
intermediate
D# G# C# F# A# D#
Hey! There's an official Ultimate Guitar app which is ideal
for learning songs when you're away from computer. Get the app
WARNING: You are trying to view
                                    content from Ultimate-Guitar.com
                                    in an unauthorized application,
                                    which is prohibited.

                                    Please use an official Ultimate
                                    Guitar Tabs application for iPhone,
                                    iPad or Android to access legitimate
                                    chords, guitar, bass, and drum tabs
                                    from Ultimate-Guitar.com database.

                                    Type "ultimate guitar tabs" in Apple
                                    App Store's or Android Market's
                                    search to find the application.

Intro 0:06
F#|-------------------------------------------------------------------------------------------------|
C#|-------------------------------------------------------------------------------------------------|
G#|-------------5-7-7-7-7-7-------------5-7-7-7-7-7-------------2-0---------------------5-7-7-7-7-7-|
D#|-0---0-0-0-0-------------0---0-0-0-0-------------3-5-5-5-3-2-----3-3-5-3-0---0-0---0-------------|
    1 + 2 + 3 + 1 + 2 + 3 + 1 + 2 + 3 + 1 + 2 + 3 + 1 + 2 + 3 + 1 + 2 + 3 + 1 + 2 + 3 + 1 + 2 + 3 + 

0:13
F#|-------------------------------------------------------------------------------------------------|
C#|-------------------------------------------------------------------------------------------------|
G#|-------------2-0---------------------5-7-7-7-7-7-------------2-0---------2-----------------------|
D#|-3-5-5-5-3-2-----3-3-5-3-0-0-0-0-0-0-------------3-5-5-5-3-2-----3-3-5-3-------------------------|
    1 + 2 + 3 + 1 + 2 + 3 + 1 + 2 + 3 + 1 + 2 + 3 + 1 + 2 + 3 + 1 + 2 + 3 + 1 + 2 + 3 + 1 + 2 + 3 + 

0:22
F#|-------------------------------------------------|
C#|-------------------------------------------------|
G#|-------------------------------------------------|
D#|-0---0-0---0-0---0-0---0-0---0-0---0-0---0-0---0-|
    1 + 2 + 3 + 1 + 2 + 3 + 1 + 2 + 3 + 1 + 2 + 3 +

Verse 0:24
F#|-------------------------------------------------------------------------------------------------|
C#|-------------------------------------------------------------------------------------------------|
G#|-------------------------------------------------------------------------------------------------|
D#|-0---0-0---0-0---0-0---0-0---0-0---0-0-0-0-0-0-0-0---0-0---0-0---0-0---0-0---0-0-0-0-0-0-0-0-0-0-|
    1 + 2 + 3 + 1 + 2 + 3 + 1 + 2 + 3 + 1 + 2 + 3 + 1 + 2 + 3 + 1 + 2 + 3 + 1 + 2 + 3 + 1 + 2 + 3 + 

F#|-------------------------------------------------------------------------------------------------|
C#|-------------------------------------------------------------------------------------------------|
G#|-------------------------------------------------------------2-0---------------------5-7-7-7-7-7-|
D#|-0---0-0---0-0-0-0-0-0-0-0---0-0---0-0-0-0-0-0-0-3-5-5-5-3-2-----3-3-5-3-0---0-0---0-------------|
    1 + 2 + 3 + 1 + 2 + 3 + 1 + 2 + 3 + 1 + 2 + 3 + 1 + 2 + 3 + 1 + 2 + 3 + 1 + 2 + 3 + 1 + 2 + 3 + 

Pre Chorus 0:37
F#|-----------------------------------------------------------------------9-12-12-12-------------------------|
C#|-------------------------------------------------------------------9-9------------12-12-12----------------|
G#|-3-3-3-3-3-3-3-3-3-3-3-3-3-3-3-3-3-3-3-3-3-3-3-3-7-7-7-7-7-7-7-7-7-------------------------10-10-10-9-9-9-|
D#|----------------------------------------------------------------------------------------------------------|
    1 + 2 + 3 + 1 + 2 + 3 + 1 + 2 + 3 + 1 + 2 + 3 + 1 + 2 + 3 + 1 + 2 + 3 + 1  +  2  +  3  +  1  +  2  + 3 + 

F#|-------------------------------------------------------------------------------------------------|
C#|-------------------------------------------------------------------------------------------------|
G#|-3-3-3-3-3-3-3-3-3-3-3-3-3-3-3-3-3-3-3-3-3-3-3-3-5-5-5-5-5-5-5-5-5-5-5-5-0---0-0---0-2---0-------|
D#|---------------------------------------------------------------------------------------------3---|
    1 + 2 + 3 + 1 + 2 + 3 + 1 + 2 + 3 + 1 + 2 + 3 + 1 + 2 + 3 + 1 + 2 + 3 + 1 + 2 + 3 + 1 + 2 + 3 + 

Chorus 0:52
F#|-------------------------------------------------------------------------------------------------|
C#|-------------------------------------------------------------------------------------------------|
G#|-------------------------3-------3---3---3---3---------------------------0---0---0---2---0-------|
D#|-0-------0---0---0---0---------------------------3-------3---3---3---3-----------------------3---|
    1 + 2 + 3 + 1 + 2 + 3 + 1 + 2 + 3 + 1 + 2 + 3 + 1 + 2 + 3 + 1 + 2 + 3 + 1 + 2 + 3 + 1 + 2 + 3 + 

F#|-------------------------------------------------------------------------------------------------|
C#|-------------------------------------------------------------------------------------------------|
G#|-------------------------3-------3---3---3---3---5---5---5---5---5---5---0-0-0-0-0---2---0-------|
D#|-0-------0---0---0---0-------------------------------------------------------------3---------3---|
    1 + 2 + 3 + 1 + 2 + 3 + 1 + 2 + 3 + 1 + 2 + 3 + 1 + 2 + 3 + 1 + 2 + 3 + 1 + 2 + 3 + 1 + 2 + 3 + 

F#|-------------------------------------------------------------------------------------------------|
C#|---------2---2---0-------------------------------------------------------------------------------|
G#|---------------------2---3-------3---2---3---5---------------------------0---0---0---2---0-------|
D#|-0-----------------------------------------------3---3---3---3---0---3-----------------------3---|
    1 + 2 + 3 + 1 + 2 + 3 + 1 + 2 + 3 + 1 + 2 + 3 + 1 + 2 + 3 + 1 + 2 + 3 + 1 + 2 + 3 + 1 + 2 + 3 + 

F#|-------------------------------------------------------------------------------------------------|
C#|-------------2---4---5---------------------------------------------------------------------------|
G#|-------------------------3-------3---3---2---3---5---5---5---5---5---5---0-----------------------|
D#|-0-------0---------------------------------------------------------------------------------------|
    1 + 2 + 3 + 1 + 2 + 3 + 1 + 2 + 3 + 1 + 2 + 3 + 1 + 2 + 3 + 1 + 2 + 3 + 1 + 2 + 3 + 1 + 2 + 3 + 

Interlude 1:23
F#|-------------------------------------------------|
C#|-------------------------------------------------|
G#|-------------------------------------------------|
D#|-0---0-0---0-0---0-0---0-0---0-0---0-0---0-0---0-|
    1 + 2 + 3 + 1 + 2 + 3 + 1 + 2 + 3 + 1 + 2 + 3 +

Verse 1:26
F#|-------------------------------------------------------------------------------------------------|
C#|-------------------------------------------------------------------------------------------------|
G#|-------------------------------------------------------------------------------------------------|
D#|-0---0-0---0-0---0-0---0-0---0-0---0-0-0-0-0-0-0-0---0-0---0-0---0-0---0-0---0-0-0-0-0-0-0-0-0-0-|
    1 + 2 + 3 + 1 + 2 + 3 + 1 + 2 + 3 + 1 + 2 + 3 + 1 + 2 + 3 + 1 + 2 + 3 + 1 + 2 + 3 + 1 + 2 + 3 + 

F#|-------------------------------------------------------------------------------------------------|
C#|-------------------------------------------------------------------------------------------------|
G#|-------------------------------------------------------------2-0---------------------5-7-7-7-7-7-|
D#|-0---0-0---0-0-0-0-0-0-0-0---0-0---0-0-0-0-0-0-0-3-5-5-5-3-2-----3-3-5-3-0---0-0---0-------------|
    1 + 2 + 3 + 1 + 2 + 3 + 1 + 2 + 3 + 1 + 2 + 3 + 1 + 2 + 3 + 1 + 2 + 3 + 1 + 2 + 3 + 1 + 2 + 3 + 

Pre Chorus 1:41
F#|-----------------------------------------------------------------------9-12-12-12---------------------------|
C#|-------------------------------------------------------------------9-9------------12-12-12-------------9-10-|
G#|-3-3-3-3-3-3-3-3-3-3-3-3-3-3-3-3-3-3-3-3-3-3-3-3-7-7-7-7-7-7-7-7-7-------------------------10-10-10-12------|
D#|------------------------------------------------------------------------------------------------------------|
    1 + 2 + 3 + 1 + 2 + 3 + 1 + 2 + 3 + 1 + 2 + 3 + 1 + 2 + 3 + 1 + 2 + 3 + 1  +  2  +  3  +  1  +  2  +  3 + 

F#|-------------------------------------------------------------------------------------------------|
C#|-------------------------------------------------------------------------------------------------|
G#|-3-3-3-3-3-3-3-3-3-3-3-3-3-3-3-3-3-3-3-3-3-3-3-3-5-5-5-5-5-5-5-5-5-5-5-5-0-0-0-0-0-0-2-----------|
D#|-------------------------------------------------------------------------------------------------|
    1 + 2 + 3 + 1 + 2 + 3 + 1 + 2 + 3 + 1 + 2 + 3 + 1 + 2 + 3 + 1 + 2 + 3 + 1 + 2 + 3 + 1 + 2 + 3 + 

Rest

Chorus 1:56
F#|-------------------------------------------------------------------------------------------------|
C#|-------------------------------------------------------------------------------------------------|
G#|-------------------------3-------3---3-------3---------------------------0---0---0---2---0-------|
D#|-0-------0---0-------0---------------------------3-------3---3---3---3-----------------------3---|
    1 + 2 + 3 + 1 + 2 + 3 + 1 + 2 + 3 + 1 + 2 + 3 + 1 + 2 + 3 + 1 + 2 + 3 + 1 + 2 + 3 + 1 + 2 + 3 + 

F#|-------------------------------------------------------------------------------------------------|
C#|-------------------------------------------------------------------------------------------------|
G#|-------------------------3---3---3---3---3---3---5---5---5---5---5---5---0-------0---2---0-------|
D#|-0-------0---0---0---0-------------------------------------------------------3---------------3---|
    1 + 2 + 3 + 1 + 2 + 3 + 1 + 2 + 3 + 1 + 2 + 3 + 1 + 2 + 3 + 1 + 2 + 3 + 1 + 2 + 3 + 1 + 2 + 3 + 

F#|-------------------------------------------------------------------------------------------------|
C#|---------2---2---0-------------------------------------------------------------------------------|
G#|---------------------2---3-------3---2---3---5---------------------------0---0---0---2---0-------|
D#|-0-----------------------------------------------3-------3---3---0---3-----------------------3---|
    1 + 2 + 3 + 1 + 2 + 3 + 1 + 2 + 3 + 1 + 2 + 3 + 1 + 2 + 3 + 1 + 2 + 3 + 1 + 2 + 3 + 1 + 2 + 3 + 

F#|-------------------------------------------------------------------------------------------------|
C#|-------------2---4---5---------------------------------------------------------------------------|
G#|-------------------------3-------3---3---2---3---5---5---5---5---5---5---0-----------------------|
D#|-0-------0---------------------------------------------------------------------------------------|
    1 + 2 + 3 + 1 + 2 + 3 + 1 + 2 + 3 + 1 + 2 + 3 + 1 + 2 + 3 + 1 + 2 + 3 + 1 + 2 + 3 + 1 + 2 + 3 + 

Rest

Solo 2:28
F#|-------------------------------------------------------------------------------------------------|
C#|-------------------------------------------------5-----------------------------------------------|
G#|-------------------------------------------------3-----------------------------------------------|
D#|-0---0-0-----0---0-0-----0---0-0-----0---0-0-----------------------------------------------------|
    1 + 2 + 3 + 1 + 2 + 3 + 1 + 2 + 3 + 1 + 2 + 3 + 1 + 2 + 3 + 1 + 2 + 3 + 1 + 2 + 3 + 1 + 2 + 3 + 

F#|-------------------------------------------------------------------------------------------------|
C#|-7-----------------------------------------------9-----------------------------------------------|
G#|-5-----------------------------------------------7-----------------------------------------------|
D#|-------------------------------------------------------------------------------------------------|
    1 + 2 + 3 + 1 + 2 + 3 + 1 + 2 + 3 + 1 + 2 + 3 + 1 + 2 + 3 + 1 + 2 + 3 + 1 + 2 + 3 + 1 + 2 + 3 + 

F#|-------------------------------------------------------------------------------------------------|
C#|-------------------------------------------------5-----------------------------------------------|
G#|-------------------------------------------------3-----------------------------------------------|
D#|-0-----------------------------------------------------------------------------------------------|
    1 + 2 + 3 + 1 + 2 + 3 + 1 + 2 + 3 + 1 + 2 + 3 + 1 + 2 + 3 + 1 + 2 + 3 + 1 + 2 + 3 + 1 + 2 + 3 + 

F#|-------------------------------------------------|
C#|-7-----------------------------------------------|
G#|-5-----------------------------------------------|
D#|-------------------------------------------------|
    1 + 2 + 3 + 1 + 2 + 3 + 1 + 2 + 3 + 1 + 2 + 3 +  

2:53
F#|---------------------------------------------------------------------------------------------------|
C#|o-------------------------------------------------------------------------------------------------o|
G#|o-------------5-7-7-7-7-7-------------4-5-5-5-5-5-------------3-4-4-4-4-4-------------2-3-3-3-2-0-o|
D#|--0---0-0-0-0-------------0---0-0-0-0-------------0---0-0-0-0-------------0---0-0-0-0--------------|
     1 + 2 + 3 + 1 + 2 + 3 + 1 + 2 + 3 + 1 + 2 + 3 + 1 + 2 + 3 + 1 + 2 + 3 + 1 + 2 + 3 + 1 + 2 + 3 + 

3:06
F#|-------------------------------------------------------------------------11-----------12----11------|
C#|-------------------------------------5-----4--------------------------------------------------------|
G#|-0---0-0-0-0-0---0-0---0-0---0-0---0-------------5---5-5-5-5-5---5-5--------------------------------|
D#|----------------------------------------------------------------------------------------------------|
    1 + 2 + 3 + 1 + 2 + 3 + 1 + 2 + 3 + 1 + 2 + 3 + 1 + 2 + 3 + 1 + 2 + 3 + 1  + 2 + 3 + 1  + 2  + 3 + 

F#|-------------------------------------------------|
C#|-------------------------------------------------|
G#|-3-----------------------------------------------|
D#|-------------------------------------------------|
    1 + 2 + 3 + 1 + 2 + 3 + 1 + 2 + 3 + 1 + 2 + 3 + 

Rest

3:50
F#|-------------------------------------------------|
C#|-------------------------------------------------|
G#|-7---7-7-7-7-7-7-7-7-7-7-7-7-7-7-7-7-2---0-------|
D#|---------------------------------------------3---|
    1 + 2 + 3 + 1 + 2 + 3 + 1 + 2 + 3 + 1 + 2 + 3 + 

Chorus 3:53
F#|-------------------------------------------------------------------------------------------------|
C#|-------------------------------------------------------------------------------------------------|
G#|-------------------------3---3---3---3---3---3---------------------------0---0---0---2---0-------|
D#|-0---0---0---0---0---0---------------------------3---3---3---3---3---3-----------------------3---|
    1 + 2 + 3 + 1 + 2 + 3 + 1 + 2 + 3 + 1 + 2 + 3 + 1 + 2 + 3 + 1 + 2 + 3 + 1 + 2 + 3 + 1 + 2 + 3 + 

F#|-------------------------------------------------------------------------------------------------|
C#|-------------------------------------------------------------------------------------------------|
G#|-------------------------3---3---3---3---3---3---5---5---5---5---5---5---0-------0---2---0-------|
D#|-0---0---0---0---0---0-------------------------------------------------------3---------------3---|
    1 + 2 + 3 + 1 + 2 + 3 + 1 + 2 + 3 + 1 + 2 + 3 + 1 + 2 + 3 + 1 + 2 + 3 + 1 + 2 + 3 + 1 + 2 + 3 + 

F#|-------------------------------------------------------------------------------------------------|
C#|-----2---2---2---0-------------------------------------------------------------------------------|
G#|---------------------2---3-------3---2---3---5---------------------------0---0---0---2---0-------|
D#|-0-----------------------------------------------3---3---3---3---0---3-----------------------3---|
    1 + 2 + 3 + 1 + 2 + 3 + 1 + 2 + 3 + 1 + 2 + 3 + 1 + 2 + 3 + 1 + 2 + 3 + 1 + 2 + 3 + 1 + 2 + 3 + 

F#|-------------------------------------------------------------------------------------------------|
C#|-------------2---4---5---------------------------------------------------------------------------|
G#|-------------------------3-------3---3---2---3---5---5---5---5---5---5---2---0-----------0-------|
D#|-0---0---0-----------------------------------------------------------------------3---3-------3---|
    1 + 2 + 3 + 1 + 2 + 3 + 1 + 2 + 3 + 1 + 2 + 3 + 1 + 2 + 3 + 1 + 2 + 3 + 1 + 2 + 3 + 1 + 2 + 3 + 

F#|-------------------------------------------------|
C#|-------------------------------------------------|
G#|-3-----------------------------------------------|
D#|-------------------------------------------------|
    1 + 2 + 3 + 1 + 2 + 3 + 1 + 2 + 3 + 1 + 2 + 3 + 
Tabbed by Dave Vucko

comments
We did not receive enough feedback on this tab! Please rate:
print report bad tab
1 2 3 4 5
I want to post or [tab]
guest
You may want to rate the tab now too:
select rating
Please do not post tabs as comments. Select "correction" instead!