Oops, an error
Loading. Please wait.

Come On Lets Go Tab

ver2
ver2

Solo

Whole song

More versions @911Tabs.com
11,940 views 30 this week
no commentswrite comment
1 2 3 4 5
excellent!
x 3
Autoscroll
+/-
esc
set tempo
stop
Difficulty
intermediate
Hey! There's an official Ultimate Guitar app which is ideal
for learning songs when you're away from computer. Get the app
WARNING: You are trying to view
                                    content from Ultimate-Guitar.com
                                    in an unauthorized application,
                                    which is prohibited.

                                    Please use an official Ultimate
                                    Guitar Tabs application for iPhone,
                                    iPad or Android to access legitimate
                                    chords, guitar, bass, and drum tabs
                                    from Ultimate-Guitar.com database.

                                    Type "ultimate guitar tabs" in Apple
                                    App Store's or Android Market's
                                    search to find the application.
-------------------------------------------------------------------------------
                 Come On Let's go - Ritchie Valens
-------------------------------------------------------------------------------
Tabbed by: belofagus
Email: belo.fagus@gmx.de

Tuning: Standard
Beats:  ~ 160 beats per minute
Recording: The best of Ritchie Valens

There's a wrong cut at 0.50.



  A               D       E       A               D       E
  v v v v v v v v v v v v v v v v v v v v v v v v v v v v v v v v
e|------- ------- ------- -------|------- ------- ------- -------| 1st guitar
B|2-2-2-2-2-2-2-2-3-3-3-3-0-0-0-0|2-2-2-2-2-2-2-2-3-3-3-3-0-0-0-0|
G|2-2-2-2-2-2-2-2-2-2-2-2-1-1-1-1|2-2-2-2-2-2-2-2-2-2-2-2-1-1-1-1|
D|2-2-2-2-2-2-2-2-0-0-0-0-2-2-2-2|2-2-2-2-2-2-2-2-0-0-0-0-2-2-2-2|
A|-------------------------------|-------------------------------|
E|-------------------------------|-------------------------------|
 |                               |                               |
e|------- ------- ------- -------|------- ------- ------- -------| 2nd guitar
B|-------------------------------|-------------------------------|
G|-------------------------------|-------------------------------|
D|-------------------------------|-------------------------------|
A|0-----2/4-2-0---5---5---7------|0-----2/4-2-0---5---5---7------|
E|-------------------------------|-------------------------------|


  A               D       E
e|------- ------- ------- -------|------- ------- ------- -------|
B|2-2-2-2-2-2-2-2-3-3-3-3-0-0-0-0|-------------------------------|
G|2-2-2-2-2-2-2-2-2-2-2-2-1-1-1-1|-------------------------------|
D|2-2-2-2-2-2-2-2-0-0-0-0-2-2-2-2|-------------------------------|
A|-------------------------------|-------------------------------|
E|-------------------------------|-------------------------------|
 |                               |                               |
e|------- ------- ------- -------|----5-7 8-8-8-8-8-7-5-- -------|
B|-------------------------------|----5-7-8-8-8-8-8-7-5-7-5------|
G|-------------------------------|----------------- ----7-5------|
D|-------------------------------|-------------------------------|
A|0-----2/4-2-0---5---5---7------|-------------------------------|
E|-------------------------------|-------------------------------|
                                                             Well ...

                  break           A               D       E
                e|------- -------|------- ------- ------- -------|
                B|---------------|2-2-2-2-2-2-2-2-3-3-3-3-0-0-0-0|
                G|---------------|2-2-2-2-2-2-2-2-2-2-2-2-1-1-1-1|
                D|---------------|2-2-2-2-2-2-2-2-0-0-0-0-2-2-2-2|
                A|---------------|-------------------------------|
                E|---------------|-------------------------------|
                 |               |                               |
                e|------- -------|------- ------- ------- -------|
                B|---------------|-------------------------------|
                G|---------------|-------------------------------|
                D|---------------|-------------------------------|
                A|---------------|0-----2/4-2-0---5---5---7------|
                E|---------------|-------------------------------|
                    come on let's go, let's go,       little
                                            let's go      darling

  A               D       E       A               D       E
e|------- ------- ------- -------|------- ------- ------- -------|
B|2-2-2-2-2-2-2-2-3-3-3-3-0-0-0-0|2-2-2-2-2-2-2-2-3-3-3-3-0-0-0-0|
G|2-2-2-2-2-2-2-2-2-2-2-2-1-1-1-1|2-2-2-2-2-2-2-2-2-2-2-2-1-1-1-1|
D|2-2-2-2-2-2-2-2-0-0-0-0-2-2-2-2|2-2-2-2-2-2-2-2-0-0-0-0-2-2-2-2|
A|-------------------------------|-------------------------------|
E|-------------------------------|-------------------------------|
 |                               |                               |
e|------- ------- ------- -------|------- ------- ------- -------|
B|-------------------------------|-------------------------------|
G|-------------------------------|-------------------------------|
D|-------------------------------|-------------------------------|
A|0-----2/4-2-0---5---5---7------|0-----2/4-2-0---5---5---7------|
E|-------------------------------|-------------------------------|
     and tell me that     leave me, come on, come on let's go a...
               you'll never

  A               D       E
e|------- ------- ------- -------|
B|2-2-2-2-2-2-2-2-3-3-3-3-0-0-0-0|
G|2-2-2-2-2-2-2-2-2-2-2-2-1-1-1-1|
D|2-2-2-2-2-2-2-2-0-0-0-0-2-2-2-2|
A|-------------------------------|
E|-------------------------------|
 |                               |
e|------- ------- ------- -------|
B|-------------------------------|
G|-------------------------------|
D|-------------------------------|
A|0-----2/4-2-0---5---5---7------|
E|-------------------------------|
  again and    again and again.

                  break           A               D       E
                e|------- -------|------- ------- ------- -------|
                B|---------------|2-2-2-2-2-2-2-2-3-3-3-3-0-0-0-0|
                G|---------------|2-2-2-2-2-2-2-2-2-2-2-2-1-1-1-1|
                D|---------------|2-2-2-2-2-2-2-2-0-0-0-0-2-2-2-2|
                A|---------------|-------------------------------|
                E|---------------|-------------------------------|
                 |               |                               |
                e|------- -------|------- ------- ------- -------|
                B|---------------|-------------------------------|
                G|---------------|-------------------------------|
                D|---------------|-------------------------------|
                A|---------------|0-----2/4-2-0---5---5---7------|
                E|---------------|-------------------------------| (and so on)
                      Well, now   swing me, swing me,     darling,
                                                  all the way

  A               D       E       A               D       E
e|------- ------- ------- -------|------- ------- ------- -------|
B|2-2-2-2-2-2-2-2-3-3-3-3-0-0-0-0|2-2-2-2-2-2-2-2-3-3-3-3-0-0-0-0|
G|2-2-2-2-2-2-2-2-2-2-2-2-1-1-1-1|2-2-2-2-2-2-2-2-2-2-2-2-1-1-1-1|
D|2-2-2-2-2-2-2-2-0-0-0-0-2-2-2-2|2-2-2-2-2-2-2-2-0-0-0-0-2-2-2-2|
A|-------------------------------|-------------------------------|
E|-------------------------------|-------------------------------|
 |                               |                               |
e|------- ------- ------- -------|------- ------- ------- -------|
B|-------------------------------|-------------------------------|
G|-------------------------------|-------------------------------|
D|-------------------------------|-------------------------------|
A|0-----2/4-2-0---5---5---7------|0-----2/4-2-0---5---5---7------|
E|-------------------------------|-------------------------------|
  come on let's go little darlin', let's go, let's go again once more.

  break                           D               A
e|------- ------- ------- -------|------- ------- ------- -------|
B|-------------------------------|3-3-3-3-3-3-3-3-2-2-2-2-2-2-2-2|
G|-------------------------------|2-2-2-2-2-2-2-2-2-2-2-2-2-2-2-2|
D|-------------------------------|0-0-0-0-0-0-0-0-2-2-2-2-2-2-2-2|
A|-------------------------------|-------------------------------|
E|-------------------------------|-------------------------------|
 |                               [3]                   [3]       |
e|------- ------- ------- -------|------- ------- ------- -------|
B|-------------------------------|-------------------------------|
G|-------------------------------|-------------------------------|
D|-------------------------------|-------------------------------|
A|-------------------------------|5-----4/5-7-5---0-----2/4---0--|
E|-------------------------------|-------------------------------|
                  Well ...        I love you      so, yeah,

  E               A               D               A
e|------- ------- ------- -------|------- ------- ------- -------|
B|0-0-0-0-0-0-0-0-2-2-2-2-2-2-2-2|3-3-3-3-3-3-3-3-2-2-2-2-2-2-2-2|
G|1-1-1-1-1-1-1-1-2-2-2-2-2-2-2-2|2-2-2-2-2-2-2-2-2-2-2-2-2-2-2-2|
D|2-2-2-2-2-2-2-2-2-2-2-2-2-2-2-2|0-0-0-0-0-0-0-0-2-2-2-2-2-2-2-2|
A|-------------------------------|-------------------------------|
E|-------------------------------|-------------------------------|
 |                               |                               |
e|------- ------- ------- -------|------- ------- ------- -------|
B|-------------------------------|-------------------------------|
G|-------------------------------|-------------------------------|
D|-------------------------------|-------------------------------|
A|2-----2/4---2---0---2/4-2-0----|5-----4/5-7-5---0-----2/4---0--|
E|-------------------------------|-------------------------------|
  and I'll never  let you go,     come along      baby so,

  break
e|------- ------- ------- -------|------- --------| (On the recording,
B|-------------------------------|----------------|  this bar is only
G|-------------------------------|----------------|  three beats long!)
D|-------------------------------|----------------|
A|-------------------------------|----------------|
E|-------------------------------|----------------|
 |                               |                |
e|------- ------- ------- -------|------- --------|
B|-------------------------------|----------------|
G|-------------------------------|----------------|
D|-------------------------------|----------------|
A|-------------------------------|----------------|
E|-------------------------------|----------------|
  Oh pretty baby,  I love you so.        Let's

                                  A               D       E
                                e|------- ------- ------- -------|
                                B|2-2-2-2-2-2-2-2-3-3-3-3-0-0-0-0|
                                G|2-2-2-2-2-2-2-2-2-2-2-2-1-1-1-1|
                                D|2-2-2-2-2-2-2-2-0-0-0-0-2-2-2-2|
                                A|-------------------------------|
                                E|-------------------------------|
                                 |                               |
                                e|------- ------- ------- -------|
                                B|-------------------------------|
                                G|-------------------------------|
                                D|-------------------------------|
                                A|0-----2/4-2-0---5---5---7------|
                                E|-------------------------------|
                                  go, let's go,       little
                                            let's go      sweetheart,

  A               D       E       A               D       E
e|------- ------- ------- -------|------- ------- ------- -------|
B|2-2-2-2-2-2-2-2-3-3-3-3-0-0-0-0|2-2-2-2-2-2-2-2-3-3-3-3-0-0-0-0|
G|2-2-2-2-2-2-2-2-2-2-2-2-1-1-1-1|2-2-2-2-2-2-2-2-2-2-2-2-1-1-1-1|
D|2-2-2-2-2-2-2-2-0-0-0-0-2-2-2-2|2-2-2-2-2-2-2-2-0-0-0-0-2-2-2-2|
A|-------------------------------|-------------------------------|
E|-------------------------------|-------------------------------|
 |                               |                               |
e|------- ------- ------- -------|------- ------- ------- -------|
B|-------------------------------|-------------------------------|
G|-------------------------------|-------------------------------|
D|-------------------------------|-------------------------------|
A|0-----2/4-2-0---5---5---7------|0-----2/4-2-0---5---5---7------|
E|-------------------------------|-------------------------------|
now that we can always be together, come on, come on, let's go again.

Solo (1:04)
                                                  A                       D           E
e|----------- ----------- ----------- -----------|----------- ----------- ----------- -----------|
B|-----------------------------------------------|2--2--2--2--2--2--2--2--3--3--3--3--0--0--0--0-|
G|-----------------------------------------------|2--2--2--2--2--2--2--2--2--2--2--2--1--1--1--1-|
D|-----------------------------------------------|2--2--2--2--2--2--2--2--0--0--0--0--2--2--2--2-|
A|-----------------------------------------------|-----------------------------------------------|
E|-----------------------------------------------|-----------------------------------------------|
 |                                         [3]                                                   |
e|----------- ----------- ----------- -----------|8---------- ------------8--10 ------10b11------|
B|------------------------------------------10---|------------------10-10------------------------|
G|-----------------------------------------------|-----------------------------------------------|
D|-----------------------------------------------|-----------------------------------------------|
A|-----------------------------------------------|-----------------------------------------------|
E|-----------------------------------------------|-----------------------------------------------|

  A                       D           E           A                       D           E
e|----------- ----------- ----------- -----------|----------- ----------- ----------- -----------|
B|2--2--2--2--2--2--2--2--3--3--3--3--0--0--0--0-|2--2--2--2--2--2--2--2--3--3--3--3--0--0--0--0-|
G|2--2--2--2--2--2--2--2--2--2--2--2--1--1--1--1-|2--2--2--2--2--2--2--2--2--2--2--2--1--1--1--1-|
D|2--2--2--2--2--2--2--2--0--0--0--0--2--2--2--2-|2--2--2--2--2--2--2--2--0--0--0--0--2--2--2--2-|
A|-----------------------------------------------|-----------------------------------------------|
E|-----------------------------------------------|-----------------------------------------------|
 |                        [3]                                [1]                                 |
 |      e|-11/10-8- another guitar                                                               |
e|-----b11-11-10-8----8-- ----------- -----------|----------- ----------- ----------- -----------|
B|------------------10----12b13-13---b1110r------|------------------10-12b13----12-10------------|
G|------------------------------------------10/11|------------9--11-------------- ----12-9-------|
D|-----------------------------------------------|------------------------------------------12-10|
A|-----------------------------------------------|-----------------------------------------------|
E|-----------------------------------------------|-----------------------------------------------|

  A                                               D
e|----------- ----------- ----------- -----------|----------- ----------- ----------- -----------|
B|2--2--2--2--2--2--2--2--2--2--2--2--2--2--2--2-|3--3--3--3--3--3--3--3--3--3--3--3--3--3--3--3-|
G|2--2--2--2--2--2--2--2--2--2--2--2--2--2--2--2-|2--2--2--2--2--2--2--2--2--2--2--2--2--2--2--2-|
D|2--2--2--2--2--2--2--2--2--2--2--2--2--2--2--2-|0--0--0--0--0--0--0--0--0--0--0--0--0--0--0--0-|
A|-----------------------------------------------|-----------------------------------------------|
E|-----------------------------------------------|-----------------------------------------------|
 |                                                                                               |
e|----------- ----------- ----------- -----------|----------- ----------- ----------- -----------|
B|-----------------------------------------------|-----------------------------------------------|
G|-----------------------------------------------|10----------10----12--b-13----13r10-12-10------|
D|---10-12----12b13-13r10-12----12-10---------12-|------12----------------------------------12---|
A|12---------------------------------------------|-----------------------------------------------|
E|-----------------------------------------------|-----------------------------------------------|

  A                                               D
e|----------- ----------- ----------- -----------|----------- ----------- ----------- -----------|
B|2--2--2--2--2--2--2--2--2--2--2--2--2--2--2--2-|3--3--3--3--3--3--3--3--3--3--3--3--3--3--3--3-|
G|2--2--2--2--2--2--2--2--2--2--2--2--2--2--2--2-|2--2--2--2--2--2--2--2--2--2--2--2--2--2--2--2-|
D|2--2--2--2--2--2--2--2--2--2--2--2--2--2--2--2-|0--0--0--0--0--0--0--0--0--0--0--0--0--0--0--0-|
A|-----------------------------------------------|-----------------------------------------------|
E|-----------------------------------------------|-----------------------------------------------|
 |                     [3]                    [3]                                          [1]   |
e|----------- ----------- ----------- -----------|---------10 ----------- ------------------8----|
B|---------------------------------10~-----------|---10-12--------------12/13-10------10-10------|
G|---------------------------9--11-------------10/11----------------------------12-9-------------|
D|12~---9-----12--------10/11--------------------|-----------------------------------------------|
A|-----------------------------------------------|-----------------------------------------------|
E|-----------------------------------------------|-----------------------------------------------|

  E
e|----------- ----------- ----------- -----------|
B|0--0--0--0--0--0--0--0--0--0--0--0--0--0--0--0-|
G|1--1--1--1--1--1--1--1--1--1--1--1--1--1--1--1-|
D|2--2--2--2--2--2--2--2--2--2--2--2--2--2--2--2-|
A|-----------------------------------------------|
E|-----------------------------------------------|
 |[3]                                 [1]
 |                       -12/11- another guitar
e|11b12-12--- 12----12--- 12----12r11 10---------|
B|---------------------------------------13-10---|
G|-----------------------------------------------|
D|-----------------------------------------------|
A|-----------------------------------------------|
E|-----------------------------------------------|

  D               A
e|------- ------- ------- -------|
B|3-3-3-3-3-3-3-3-2-2-2-2-2-2-2-2|
G|2-2-2-2-2-2-2-2-2-2-2-2-2-2-2-2|
D|0-0-0-0-0-0-0-0-2-2-2-2-2-2-2-2|
A|-------------------------------|
E|-------------------------------|
 |[2]                   [3]      |
e|------- ------- ------- -------|
B|-------------------------------|
G|-------------------------------|
D|-------------------------------|
A|5-----4/5-7-5---0-----2/4---0--|
E|-------------------------------|
  I love you      so, yeah,

  E               A               D               A
e|------- ------- ------- -------|------- ------- ------- -------|
B|0-0-0-0-0-0-0-0-2-2-2-2-2-2-2-2|3-3-3-3-3-3-3-3-2-2-2-2-2-2-2-2|
G|1-1-1-1-1-1-1-1-2-2-2-2-2-2-2-2|2-2-2-2-2-2-2-2-2-2-2-2-2-2-2-2|
D|2-2-2-2-2-2-2-2-2-2-2-2-2-2-2-2|0-0-0-0-0-0-0-0-2-2-2-2-2-2-2-2|
A|-------------------------------|-------------------------------|
E|-------------------------------|-------------------------------|
 |                               |                               |
e|------- ------- ------- -------|------- ------- ------- -------|
B|-------------------------------|-------------------------------|
G|-------------------------------|-------------------------------|
D|-------------------------------|-------------------------------|
A|2-----2/4---2---0---2/4-2-0----|5-----4/5-7-5---0-----2/4---0--|
E|-------------------------------|-------------------------------|
  and I'll never  let you go,     come along      baby soon,

                                  A               D       E
e|------- ------- ------- -------|------- ------- ------- -------|
B|-------------------------------|2-2-2-2-2-2-2-2-3-3-3-3-0-0-0-0|
G|-------------------------------|2-2-2-2-2-2-2-2-2-2-2-2-1-1-1-1|
D|-------------------------------|2-2-2-2-2-2-2-2-0-0-0-0-2-2-2-2|
A|-------------------------------|-------------------------------|
E|-------------------------------|-------------------------------|
 |                               |                               |
e|------- ------- ------- -------|------- ------- ------- -------|
B|-------------------------------|-------------------------------|
G|-------------------------------|-------------------------------|
D|-------------------------------|-------------------------------|
A|-------------------------------|0-----2/4-2-0---5---5---7------|
E|-------------------------------|-------------------------------|
  oh pretty baby  I love   Let's  go, let's go,       little
                      you so.               let's go      darling,

  A               D       E       A               D       E
e|------- ------- ------- -------|------- ------- ------- -------|
B|2-2-2-2-2-2-2-2-3-3-3-3-0-0-0-0|2-2-2-2-2-2-2-2-3-3-3-3-0-0-0-0|
G|2-2-2-2-2-2-2-2-2-2-2-2-1-1-1-1|2-2-2-2-2-2-2-2-2-2-2-2-1-1-1-1|
D|2-2-2-2-2-2-2-2-0-0-0-0-2-2-2-2|2-2-2-2-2-2-2-2-0-0-0-0-2-2-2-2|
A|-------------------------------|-------------------------------|
E|-------------------------------|-------------------------------|
 |                               |                               |
e|------- ------- ------- -------|------- ------- ------- -------|
B|-------------------------------|-------------------------------|
G|-------------------------------|-------------------------------|
D|-------------------------------|-------------------------------|
A|0-----2/4-2-0---5---5---7------|0-----2/4-2-0---5---5---7------|
E|-------------------------------|-------------------------------|
  they're dancin' and we belong here, come on, come on, let's go a...

  A               D       E       A               D       E
e|------- ------- ------- -------|------- ------- ------- -------|
B|2-2-2-2-2-2-2-2-3-3-3-3-0-0-0-0|2-2-2-2-2-2-2-2-3-3-3-3-0-0-0-0|
G|2-2-2-2-2-2-2-2-2-2-2-2-1-1-1-1|2-2-2-2-2-2-2-2-2-2-2-2-1-1-1-1|
D|2-2-2-2-2-2-2-2-0-0-0-0-2-2-2-2|2-2-2-2-2-2-2-2-0-0-0-0-2-2-2-2|
A|-------------------------------|-------------------------------|
E|-------------------------------|-------------------------------|
 |                               |                               |
e|------- ------- ------- -------|------- ------- ------- -------|
B|-------------------------------|-------------------------------|
G|-------------------------------|-------------------------------|
D|-------------------------------|-------------------------------|
A|0-----2/4-2-0---5---5---7------|0-----2/4-2-0---5---5---7------|
E|-------------------------------|-------------------------------|
 again, again and again and again, again, again and again and again

 again, again and again and again, again, again and again and again

 (fade out)


  b      bend
  r      release
  /      slide up
  \      slide down
  h      hammer-on
  p      pull-off
  ~      vibrato
  +      harmonic
  x      Mute note
 [1-4]   finger to use

comments
We did not receive enough feedback on this tab! Please rate:
print report bad tab
1 2 3 4 5
I want to post or [tab]
guest
You may want to rate the tab now too:
select rating
Please do not post tabs as comments. Select "correction" instead!