Oops, an error
Loading. Please wait.

Pressure And Time Tab

ver2
ver2

Intro

Whole song

Interactive

More versions @911Tabs.com
9,964 views 75 this week
1 commentread comment
1 2 3 4 5
excellent!
x 3
Autoscroll
+/-
esc
set tempo
stop
Contributor
Difficulty
Tuning
Tabbers playing skills
intermediate
D# G# C# F# A# D#
advanced ++
Hey! There's an official Ultimate Guitar app which is ideal
for learning songs when you're away from computer. Get the app
WARNING: You are trying to view
                                    content from Ultimate-Guitar.com
                                    in an unauthorized application,
                                    which is prohibited.

                                    Please use an official Ultimate
                                    Guitar Tabs application for iPhone,
                                    iPad or Android to access legitimate
                                    chords, guitar, bass, and drum tabs
                                    from Ultimate-Guitar.com database.

                                    Type "ultimate guitar tabs" in Apple
                                    App Store's or Android Market's
                                    search to find the application.
-------------------------------------------------------------------------------
                             PRESSURE & TIME - Rival Sons
-------------------------------------------------------------------------------


Tabbed by: Isaias Garcia (TexasFury)

Tuning: Half-step down


Guitar - rhythm

      Intro                                                 
      S  S S S Q    H           S  S S S Q    H         
D#||-------------------------|-------------------------|
A#||-------------------------|-------------------------|
F#||-------------------------|-------------------------|
C#||---------4---------------|---------4---------------|
G#||-------4-----------------|-------4-----------------|
D#||--2h-5-------------------|--2h-5-------------------|


                                                        Verse 1                      
  S  S S S Q    H           S  S S S Q    Q    Q        S  S S S Q    H         
-------------------------|--------------------------||-------------------------|
-------------------------|--------------------------||-------------------------|
-------------------------|----------------4----2----||-------------------------|
---------4---------------|---------4------4----2----||---------4---------------|
-------4-----------------|-------4--------2----0----||-------4-----------------|
--2h-5-------------------|--2h-5--------------------||--2h-5-------------------|


  S  S S S Q    H           S  S S S Q    H           S  S S S Q    Q    Q     
-------------------------|-------------------------|--------------------------|
-------------------------|-------------------------|--------------------------|
-------------------------|-------------------------|----------------4----2----|
---------4---------------|---------4---------------|---------4------4----2----|
-------4-----------------|-------4-----------------|-------4--------2----0----|
--2h-5-------------------|--2h-5-------------------|--2h-5--------------------|


  S  S S S Q    H           S  S S S Q    H           S  S S S Q    H         
-------------------------|-------------------------|-------------------------|
-------------------------|-------------------------|-------------------------|
-------------------------|-------------------------|-------------------------|
---------4---------------|---------4---------------|---------4---------------|
-------4-----------------|-------4-----------------|-------4-----------------|
--2h-5-------------------|--2h-5-------------------|--2h-5-------------------|


                              Pre-chorus 1                                    
  S  S S S Q    Q    Q        W                   W                 
--------------------------||-------------------|-------------------|
--------------------------||-------------------|-------------------|
----------------4----2----||--2----------------|--2----------------|
---------4------4----2----||--4----------------|--2----------------|
-------4--------2----0----||--4----------------|--0----------------|
--2h-5--------------------||--2----------------|-------------------|


  W                   E  E  E  S S E  E  E  E      W                 
-------------------|-------------7-L------------|--2----------------|
-------------------|------------------7---------|--2----------------|
--8----------------|--L-----8------------8--L\--|--2----------------|
--9----------------|--L--9-----9----------------|--4----------------|
-------------------|----------------------------|-------------------|
-------------------|----------------------------|-------------------|


  W                   W                   W                 
-------------------|-------------------|-------------------|
-------------------|-------------------|-------------------|
--2----------------|--8----------------|--L----------------|
--2----------------|--9----------------|--L----------------|
--0----------------|-------------------|-------------------|
-------------------|-------------------|-------------------|


  S  S S S Q    H           S  S S S Q    H           S  S S S Q    H         
-------------------------|-------------------------|-------------------------|
-------------------------|-------------------------|-------------------------|
-------------------------|-------------------------|-------------------------|
---------4---------------|---------4---------------|---------4---------------|
-------4-----------------|-------4-----------------|-------4-----------------|
--2h-5-------------------|--2h-5-------------------|--2h-5-------------------|


                              Verse 2                                                
  S  S S S Q    Q    Q        S  S S S Q    H           S  S S S Q    H         
--------------------------||-------------------------|-------------------------|
--------------------------||-------------------------|-------------------------|
----------------4----2----||-------------------------|-------------------------|
---------4------4----2----||---------4---------------|---------4---------------|
-------4--------2----0----||-------4-----------------|-------4-----------------|
--2h-5--------------------||--2h-5-------------------|--2h-5-------------------|


  S  S S S Q    H           S  S S S Q    Q    Q       S  S S S Q    H         
-------------------------|--------------------------|-------------------------|
-------------------------|--------------------------|-------------------------|
-------------------------|----------------4----2----|-------------------------|
---------4---------------|---------4------4----2----|---------4---------------|
-------4-----------------|-------4--------2----0----|-------4-----------------|
--2h-5-------------------|--2h-5--------------------|--2h-5-------------------|


  S  S S S Q    H           S  S S S Q    H           S  S S S Q    Q    Q     
-------------------------|-------------------------|--------------------------||
-------------------------|-------------------------|--------------------------||
-------------------------|-------------------------|----------------4----2----||
---------4---------------|---------4---------------|---------4------4----2----||
-------4-----------------|-------4-----------------|-------4--------2----0----||
--2h-5-------------------|--2h-5-------------------|--2h-5--------------------||


  Pre-chorus 2                                                                            
  W                   W                   W                   W                 
-------------------|-------------------|--7----------------|--L----------------|
-------------------|-------------------|--7----------------|--L----------------|
--2----------------|--2----------------|--8----------------|--L----------------|
--4----------------|--2----------------|--9----------------|--L----------------|
--4----------------|--0----------------|-------------------|-------------------|
--2----------------|-------------------|-------------------|-------------------|


  W                   W                   Q.     E  Q.     E   
--2----------------|-------------------|-------------------7--|
--2----------------|-------------------|--7------7--L------7--|
--2----------------|--2----------------|--8------8--L---------|
--4----------------|--2----------------|--9------9--L---------|
--4----------------|--0----------------|----------------------|
--2----------------|-------------------|----------------------|


   E   E   Q     S  S  S  S  E   E    
--10--10--10----12-12-12-12-12-------|
--10--10--10----12-12-12-12-12--(0)--|
--11--11--11----13-13-13-13-13-------|
--12--12--12----14-14-14-14-14-------|
-------------------------------------|
-------------------------------------|


  |-3| |--3-| |-3| |--3-| |-3| |--3-| |-3| |--3-|  
  E  S S  S S E  S S  S S E  S S  S S E  S S  S S  
--------------------------------------------------|
--------------------------------------------------|
--------------------------------------------------|
--4--4-4p-2---4--4-4p-2---4--4-4p-2---4--4-4p-2---|
------------4-----------4-----------4-----------4-|
--------------------------------------------------|


                                                      Guitar Solo                       
  |-3| |--3-| |-3| |--3-| |-3| |--3-| |-3| |--3-|                            
  E  S S  S S E  S S  S S E  S S  S S E  S S  S S     S  S S S Q    H         
--------------------------------------------------||-------------------------|
--------------------------------------------------||-------------------------|
--------------------------------------------------||-------------------------|
--4--4-4p-2---4--4-4p-2---4--4-4p-2---4--4-4p-2---||---------4---------------|
------------4-----------4-----------4-----------4-||-------4-----------------|
--------------------------------------------------||--2h-5-------------------|


  S  S S S Q    H           S  S S S Q    H           S  S S S Q    Q    Q     
-------------------------|-------------------------|--------------------------|
-------------------------|-------------------------|--------------------------|
-------------------------|-------------------------|----------------4----2----|
---------4---------------|---------4---------------|---------4------4----2----|
-------4-----------------|-------4-----------------|-------4--------2----0----|
--2h-5-------------------|--2h-5-------------------|--2h-5--------------------|


  S  S S S Q    H           S  S S S Q    H           S  S S S Q    H         
-------------------------|-------------------------|-------------------------|
-------------------------|-------------------------|-------------------------|
-------------------------|-------------------------|-------------------------|
---------4---------------|---------4---------------|---------4---------------|
-------4-----------------|-------4-----------------|-------4-----------------|
--2h-5-------------------|--2h-5-------------------|--2h-5-------------------|


                              Breakdown                                     
  S  S S S Q    Q    Q        W                   W                 
--------------------------||-------------------|-------------------|
--------------------------||-------------------|-------------------|
----------------4----2----||-------------------|--2----------------|
---------4------4----2----||--4----------------|--2----------------|
-------4--------2----0----||--4----------------|--0----------------|
--2h-5--------------------||--2----------------|-------------------|


                                  |--3--|                                
  W                   E  E  E  E  S  S  S E  E  E      W                 
-------------------|-----7--------------------------|-------------------|
-------------------|--------7-----7h-9p-7-----------|-------------------|
--8----------------|--L--------8----------8---------|-------------------|
--9----------------|--L----------------------9--L\--|--4----------------|
-------------------|--------------------------------|--4----------------|
-------------------|--------------------------------|--2----------------|


  W                   W                   Q.     E  Q    Q     
-------------------|-------------------|--9-------------------|
-------------------|-------------------|---------7--L---------|
--2----------------|--8----------------|-----------------8----|
--2----------------|--9----------------|----------------------|
--0----------------|-------------------|----------------------|
-------------------|-------------------|----------------------|


  W                   W                   H.           Q     
-------------------|-------------------|--------------------|
-------------------|-------------------|--------------------|
-------------------|--2----------------|--8-----------------|
--4----------------|--2----------------|--9------------9----|
--4----------------|--0----------------|--------------------|
--2----------------|-------------------|--------------------|


  Q.     E  H           W                   W                 
--9------------------|-------------------|-------------------|
---------7-----------|-------------------|-------------------|
------------8--------|-------------------|--2----------------|
---------------------|--4----------------|--2----------------|
---------------------|--4----------------|--0----------------|
---------------------|--2----------------|-------------------|


  H        H            E   E   Q     S  S  S  S  E   E    
--------------------|--10--10--10----12-12-12-12-12-------||
--7-----------------|--10--10--10----12-12-12-12-12--(0)--||
--8--------8--------|--11--11--11----13-13-13-13-13-------||
--9-----------------|--12--12--12----14-14-14-14-14-------||
--------------------|-------------------------------------||
--------------------|-------------------------------------||


  Outro                                                                           
  S  S S S Q    H           S  S S S Q    H           S  S S S Q    H         
-------------------------|-------------------------|-------------------------|
-------------------------|-------------------------|-------------------------|
-------------------------|-------------------------|-------------------------|
---------4---------------|---------4---------------|---------4---------------|
-------4-----------------|-------4-----------------|-------4-----------------|
--2h-5-------------------|--2h-5-------------------|--2h-5-------------------|


  S  S S S Q    Q    Q       S  S S S Q    H           S  S S S Q    H         
--------------------------|-------------------------|-------------------------|
--------------------------|-------------------------|-------------------------|
----------------4----2----|-------------------------|-------------------------|
---------4------4----2----|---------4---------------|---------4---------------|
-------4--------2----0----|-------4-----------------|-------4-----------------|
--2h-5--------------------|--2h-5-------------------|--2h-5-------------------|


  S  S S S Q    H           S  S S S Q    S E.  S E.     Q    Q    H          
-------------------------|----------------------------|---------------------||
-------------------------|----------------------------|---------------------||
-------------------------|------------------4-----2---|---------------------||
---------4---------------|---------4--------4-----2---|-------4-------------||
-------4-----------------|-------4----------2-----0---|-------4-------------||
--2h-5-------------------|--2h-5----------------------|-------2-------------||




Guitar - solo - m.43

                   |--3--|                        |--3--|           
      H         E  S  S  S S E.      Q    S  S E  S  S  S E  Q      
D#||------------------------------|--------------------------------|
A#||--2---------L-----------------|----------2-2-------------------|
F#||--4b--------L--4b-Lb-2-4-2b---|-------4b------4b-Lb-2----------|
C#||------------------------------|-----------------------4--4~----|
G#||------------------------------|--------------------------------|
D#||------------------------------|--------------------------------|


                           PM                                              
  Q    E   S  S  Q      S  S  S  S    Q     S   S  S  S  S  S  S  S  Q     
-----------------------------------|-------17b-17-14----------------------|
----------17-----------------------|-----------------14----14-------------|
-------------16b-Lb----14----------|--------------------16----14----------|
--------------------------16-14-16-|-----------------------------16-------|
-----------------------------------|--------------------------------16----|
-----------------------------------|--------------------------------------|


                                    |--3--|                          
  S S S S S S E  S S S S Q       E  S  S  S Q    E.   S   E    S  S  
-----------------2-2-2-2-2----|-------------------------------------|
--2-2-2-2-2------2-2-2-2-2----|-----5b-Lb-2----------17b--Lb--17-14-|
--2-2-2-2-2-4----2-2-2-2-2----|-------------4-----------------------|
------------------------------|-------------------------------------|
------------------------------|-------------------------------------|
------------------------------|-------------------------------------|


                  PM                             
   S  S   S  S S  S  E    S  S  S  S  S  S  E    
-----------------------------------------------|
--17-----14------------------------------------|
-----16b-14-14------14b------------------------|
-----------------16---------14-----------------|
-------------------------16----16-15-14-12-----|
-------------------------------------------14--|


  m.74

  H         E.    S   Q       
----------------------------||
-----------17-----L--14b----||
-----------16b----Lb-14b----||
----------------------------||
----------------------------||
----------------------------||




Duration Legend
---------------
W - whole
H - half
Q - quarter
E - 8th
S - 16th
. - note dotted
|-n-|  - n-tuplets


Tablature Legend
----------------
L - tied note
x - dead note
g - grace note
(n) - ghost note
h - hammer on
p - pull off
b - bend
br - bendRelease
S - shift slide
s - legato slide
/ -  slide into from below or out of upwards
\ -  slide into from above or out of downwards
~ - vibrato


Get my other tabs for Guitar Pro, Powertab, guitar/bass text and chords at
http://profile.ultimate-guitar.com/TexasFury/contributions/
comments
We did not receive enough feedback on this tab! Please rate:
print report bad tab
1 2 3 4 5
1 comment total.
0 reply
CinderellaFan14 wrote on April 5 2012, 08:16 pm

Very Led Zeppelin sounding song! Thanks so much! 5 stars!

I want to post or [tab]
guest
You may want to rate the tab now too:
select rating
Please do not post tabs as comments. Select "correction" instead!