Oops, an error
Loading. Please wait.

In The Fire Tab

3,051 views 3 this week
no commentswrite comment
1 2 3 4 5
please rate
Autoscroll
+/-
esc
set tempo
stop
Contributor
Difficulty
advanced
WARNING: You are trying to view
                                    content from Ultimate-Guitar.com
                                    in an unauthorized application,
                                    which is prohibited.

                                    Please use an official Ultimate
                                    Guitar Tabs application for iPhone,
                                    iPad or Android to access legitimate
                                    chords, guitar, bass, and drum tabs
                                    from Ultimate-Guitar.com database.

                                    Type "ultimate guitar tabs" in Apple
                                    App Store's or Android Market's
                                    search to find the application.
In the fire solo's

Matt (with cry baby)
E|----12-12-12~-12-12-12-14-14b-14------------------------------------------|
B|-12-----------------------------15-17-15-15b17--12-12/15-10-10/12\7-------|
G|--------------------------------------------------------------------------|
D|--------------------------------------------------------------------------|
A|--------------------------------------------------------------------------|
E|--------------------------------------------------------------------------|

E|--------------------------------------------------------------------------|
B|-7b7b7b7b7b7b7b7b7b-------------------------------------------------------|
G|--------------------------------------------------------------------------|
D|--------------------------------------------------------------------------|
A|--------------------------------------------------------------------------|
E|--------------------------------------------------------------------------|

E|--15-12--12--12--12--12--12--12-12-12-12-12-12-12-12-15-17-15-12-12-12----|
B|15b-15b-15b-5b-15b-15b-15b--15b-------------------------------------------|
G|--------------------------------------------------------------------------|
D|--------------------------------------------------------------------------|
A|--------------------------------------------------------------------------|
E|--------------------------------------------------------------------------|


E|------------------------12------12-----12------12----12-----12------------|
B|-15-15-12-15-12-12-15-----15------15-----15------------15-----15p12-------|
G|---------------------14b----14b-----14b----14b---14b-----14b-------14b----|
D|--------------------------------------------------------------------------|
A|--------------------------------------------------------------------------|
E|--------------------------------------------------------------------------|


E|-1215p12-15p12------------------------------------------------------------|
B|--------------15p12-15p12--------------------------------------------15b--|
G|-------------------------14p12h14p12--14b-14-12-----12--12-14b-14--12-----|
D|-----------------------------------------------14-12--14------------------|
A|--------------------------------------------------------------------------|
E|--------------------------------------------------------------------------|


E|-------------------------------------------------------------------------|
B|--15b-15-13-12\----------------------------------------------------------|
G|-------------------------------------------------------------------------|
D|-------------------------------------------------------------------------|
A|--------------------------------12-14-15-12-14-15------------------------|
E|---------------12-14-15-12-14-15-----------------------------------------|

E|------------------------------------12*----------------------------------|
B|-------------------------12-14-15----------------------------------------|
G|-------12-14-15-12-14-15-------------------------------------------------|
D|-------------------------------------------------------------------------|
A|-------------------------------------------------------------------------|
E|-------------------------------------------------------------------------|


                                                     pm     pm
   Corey           (*)                              |--|   |---|
E|---------------------------------------------------------------------------|
B|-----------------------------12---12-12-10b-10-----------------------------|
G|-9-12-9--9-11/12-10---9-10b-9-------------------12--11b--9-9-7b------------|
D|-------12----------12------------------------------------------------12*---|
A|--------------------------------------------------------------10-9-7-------|
E|---------------------------------------------------------------------------|

E|---------12/--19p15-------15-19p15--------19p15--------------15-17b------|
B|---------------------17--17----t21--17--16----------------17-------------|
G|-----------------------16-------------16----------------16---------------|
D|-------13----------------------------------------------------------------|
A|13----14---------------------------------------15-14---------------------|
E|--12-15----------------------------------------------12~-----------------|

Matt

E|---------10/12-14b~-15-17p15p12---------------------------------------------|
B|-------10----------------------15p12-15p12-----------------------13*--------|
G|9-11-12-----------------------------------16p15p12-14p12-14p12-14--14-12----|
D|------------------------------------------------------------------------14--|
A|----------------------------------------------------------------------------|
E|----------------------------------------------------------------------------|

                         (*)
E|-------------------------------------------------------------------------|
B|------------------------15b~---------------------------------------------|
G|------12--12-14b-14-12---------11-11/12-11-9-8-9---11~--12*~-------------|
D|-12-14--14-----------------9-9---9---------------------------------------|
A|-------------------------------------------------------------------------|
E|-------------------------------------------------------------------------|

Corey

E|--------------------------------------------------------------------------|
B|--------------------------------------------------------------------------|
G|-11-12---------11-12------12-14-12-11---------11-11-12----11-12-11--------|
D|-------14-12-12-----14-12-------------14-12-14---------14-----------------|
A|--------------------------------------------------------------------------|
E|--------------------------------------------------------------------------|



E|------------------12-14-12-14-15-12-----------------------------------------|
B|12-13--12-14-15--------------------15-13-12---------------------------------|
G|---------------------------------------------15-12-11-9--11-12-11-9 --------|
D|------14-----------------------------------------------------------12-10-9--|
A|----------------------------------------------------------------------------|
E|----------------------------------------------------------------------------|


E|-------------------------------------------------------------------------|
B|-------------------------------------------------------------------------|
G|-------------------------------------------------------------------------|
D|-------------------------------------------------------------------------|
A|--12-10-9-7~-------------------------------------------------------------|
E|-------------------------------------------------------------------------|

E|-------------------------------------------------------------------------|
B|-------------------------------------------------------------------------|
G|---------------12---12---11--11--14--14---16--16~------------------------|
D|-------------------------------------------------------------------------|
A|-9-9-10-9*~--10---10---9----9---12--12---14--14~-------------------------|
E|-------------------------------------------------------------------------|

E|--------------------------------------------------------------------------|
B|--------------------------------------------------------16----------------|
G|-----------------------------------------------------14-----------16-14---|
D|-----------------------------------14-16-17-14-16-17------17-16-14-----17-|
A|---------12------12-14-15--12-14-16---------------------------------------|
E|-12-14-15--14-15----------------------------------------------------------|

E|--------------------------15-14-15-12-15-14-15---15-14-15-12-15-14-15----|
B|----------------------17-----------------------12---------------------12-|
G|-16-------------17-19----------------------------------------------------|
D|-----19-17-16-20---------------------------------------------------------|
A|-------------------------------------------------------------------------|
E|-------------------------------------------------------------------------|


E|-15-14-15-12-15-14-15---15-14-15-12-15-14--15-14-15-12-15-14-15----------|
B|----------------------11-----------------11------------------------------|
G|-------------------------------------------------------------------------|
D|-------------------------------------------------------------------------|
A|-------------------------------------------------------------------------|
E|-------------------------------------------------------------------------|

E|----------------------------------------------------------|
B|----------------------------------------------------------|
G|--15-12-12-12-9-9-9~\---9-11-12-11--9-11-12-14b-12-14-14~-|
D|----------------------------------------------------------|
A|----------------------------------------------------------|
E|----------------------------------------------------------|

E|-19p15--------19p15-19p15----------19p15-------19p15---19-17-15-----------|
B|-------17--17--------------17--17-------17---17-----17--------------------|
G|---------16------------------16------------16-----------------------------|
D|--------------------------------------------------------------------------|
A|--------------------------------------------------------------------------|
E|--------------------------------------------------------------------------|


E|-------------------------------------------------------------------------|
B|--19-17-14---------------------------------------------------------------|
G|------------17-16-14----------16---16T-16T-16T-17-16-14-12-14-14T-14T14T-|
D|--------------------17-16-14---------------------------------------------|
A|-------------------------------------------------------------------------|
E|-------------------------------------------------------------------------|

E|------------------------(12)-15-14---/15-14---12--------------------------|
B|-----------------------------------15-------15----------------------------|
G|-12-11-12-11h12p11--------------------------------------------------------|
D|------------------12-14---------------------------------------------------|
A|--------------------------------------------------------------------------|
E|--------------------------------------------------------------------------|


E|--------15-17-19-17-15----------------------------------------------------|
B|-17-17----------------19-17-15-19-17-15-----------------------------------|
G|---------------------------------------17-16-14-17-16-14------------------|
D|---------------------------------------------------------17-16-14-17------|
A|--------------------------------------------------------------------------|
E|--------------------------------------------------------------------------|


E|--------------------------------------------------------------------------|
B|-------------------------15h17~~~~----------------------------------------|
G|-14-16-17---------14h16---------------------------------------------------|
D|----------17-16-14--------------------------------------------------------|
A|--------------------------------------------------------------------------|
E|--------------------------------------------------------------------------|
comments
We did not receive enough feedback on this tab! Please rate:
print report bad tab
1 2 3 4 5
I want to post or [tab]
guest
You may want to rate the tab now too:
select rating
Please do not post tabs as comments. Select "correction" instead!