Oops, an error
Loading. Please wait.

The Dagger Tab

ver1
ver1

Whole song

Interactive

More versions @911Tabs.com
8,816 views 9 this week
no commentswrite comment
1 2 3 4 5
accurate
x 3
Autoscroll
+/-
esc
set tempo
stop
Contributor
Difficulty
Tabbers playing skills
advanced
advanced +
Hey! There's an official Ultimate Guitar app which is ideal
for learning songs when you're away from computer. Get the app
WARNING: You are trying to view
                                    content from Ultimate-Guitar.com
                                    in an unauthorized application,
                                    which is prohibited.

                                    Please use an official Ultimate
                                    Guitar Tabs application for iPhone,
                                    iPad or Android to access legitimate
                                    chords, guitar, bass, and drum tabs
                                    from Ultimate-Guitar.com database.

                                    Type "ultimate guitar tabs" in Apple
                                    App Store's or Android Market's
                                    search to find the application.
#----------------------------------PLEASE NOTE---------------------------------#
#This file is the author's own work and represents their interpretation of the #
#song. You may only use this file for private study, scholarship, or research. #
#------------------------------------------------------------------------------#

THE DAGGER
As recorded by Roadrunner United
(From the 2005 Album THE ALL-STAR SESSIONS)


Transcribed by cob666

 Words by Howard Jones & Robert Flynn Music by Robert Flynn

 

Gtr I (B F# B E G# C#) - 'Robert Flynn'
Gtr II (B F# B E G# C#) - 'Jordan Whelan'
Gtr III (C# G# C# F# A# D#) - 'Jeff Waters'
Gtr IV (B F# B E G# C#) - 'Pick Scrape 1'
Gtr V (B F# B E G# C#) - 'Pick Scrape 2'


 Intro
  Q=167
  N.C.
 4/4
  Gtrs IV, V
  TPTPTPTPTPTPTPTPTPTPTPTPTPTPTPTPTPTPTPTPTPTPTPTPTPTPTPTPTPTPTPTP
  T T T T T T T T T T T T T T T T T T T T T T T T T T T T T T T T
|-----------------------------------------------------------------|
|-----------------------------------------------------------------|
|-----------------------------------------------------------------|
|-----------------------------------------------------------------|
|-----------------------------------------------------------------|
|-xsxsx-xsx-xsxsxsxsxsxsx-xsx-xsx-xsx-xsx-xsx-xsx-xsx-xsx-xsx-xsx-|


    Gtrs I, II
      PM--------|   PM--------|     PM--------|   PM----|
    E S S S S S S E S S S S S S   E S S S S S S E S S S S E
||------------------------------|----------------------------|
||o-----------------------------|----------------------------|
||------------------------------|----------------------------|
||----------------5-------------|---------------5------------|
||o-----------------------------|-3-----------------------3--|
||--4-4-4-4-4-4-4---4-4-4-4-4-4-|---4-4-4-4-4-4---4-4-4-4----|


  1.
  Gtr I
    PM--------|   PM----|
  E S S S S S S E S S S S  E
|-----------------------------|
|-----------------------------|
|--------------------------4--|
|---------------5-------------|
|-----------------------------|
|-4-4-4-4-4-4-4---4-4-4-4-----|
|
| Gtr II
|   PM--------|   PM----|
| E S S S S S S E S S S S  E
|-------------------------(7)-|
|-----------------------------|
|--------------------------4--|
|---------------5-------------|
|-----------------------------|
|-4-4-4-4-4-4-4---4-4-4-4-----|


                                     2.
                                        PM--------|   PM----|
  +E   E   E   E   E   E   E   E      E S S S S S S E S S S S  E
|----------------------------------||-----------------------------|
|---------------------------------o||-----------------------------|
|-(4)--3-------4---3-------4---3---||--------------------------4--|
|----------5-----------5-----------||---------------5-------------|
|---------------------------------o||-----------------------------|
|----------------------------------||-4-4-4-4-4-4-4---4-4-4-4-----|
|
|                                       PM--------|   PM----|
| +E   E   E   E   E   E   E   E      E S S S S S S E S S S S  E
|-(7)-(6)-----(7)-(6)-----(7)-(6)--||-------------------------(7)-|
|---------(8)---------(8)---------o||-----------------------------|
|-(4)--3-------4---3-------4---3---||--------------------------4--|
|----------5-----------5-----------||---------------5-------------|
|---------------------------------o||-----------------------------|
|----------------------------------||-4-4-4-4-4-4-4---4-4-4-4-----|


  +E   E   E   E   E   E   E  E   +E  E E E E E E E
|-------------------------------|-------------------||
|-------------------------------|-------------------||
|-(4)--3-------4---3----------4-|-(4)-3---4-3-------||
|----------5-----------5---4----|-------5-----5-4-3-||
|-------------------------------|-------------------||
|-------------------------------|-------------------||
|
| +E   E   E   E   E   E   E  E   +E  E E E E E E E
|-(7)-(6)-----(7)-(6)---------7-|-(7)-6---7-6-------||
|---------(8)---------(8)-(7)---|-------8-----8-7-6-||
|-(4)--3-------4---3------------|-------------------||
|----------5-----------5---4----|-------------------||
|-------------------------------|-------------------||
|-------------------------------|-------------------||


 Chorus
  E5 F#G5    N.C.                      E5 F#G5    N.C.
  Gtrs I, II
         PM|                                  PM|
  Q  E E E E E E   +E  E E E E E E E   Q  E E E E E E   +Q   E E E E E E
|----------------|-------------------|----------------|------------------|
|----------------|-------------------|----------------|------------------|
|----------------|-------------------|----------------|------------3-2-0-|
|-2--4S5-----9-8-|-(8)-8-5-5-7-7-3-3-|-2--4S5-----9-8-|-(8)--2-4-5-------|
|-2--4S5---------|-------------------|-2--4S5---------|------------------|
|-2--4S5-5-5-9-8-|-(8)-8-5-5-7-7-3-3-|-2--4S5-5-5-9-8-|-(8)--------------|


                                        E5 N.C.
          PM|                                      PM|
  E E E E E E E E   +E  E E E E E E E   Q  E   E   E E E E
|-----------------|-------------------|--------------------|
|-----------------|-------------------|--------------------|
|-2-0-------------|-------------------|--------------------|
|-------------9-8-|-(8)-8-5-5-7-7-3-3-|-2--x--------9-8-|
|-----------------|-------------------|-2--x-(<2>)---------|
|-----2s1-2-2-9-8-|-(8)-8-5-5-7-7-3-3-|-2--x----5-5-9-8-|


  +E  +E    +E  +E    +E  +E    +E  +E
|------------------------------------------||
|------------------------------------------||
|------------------------------------------||
|-(8)-(8)b9r(8)-(8)b9r(8)-(8)b9r(8)-(8)b9r=||
|------------------------------------------||
|-(8)-(8)b9r(8)-(8)b9r(8)-(8)b9r(8)-(8)b9r=||


 Verse
  $
  N.C.
  Gtr II
  Wx8          E E E E E E E E   E E E E E E E E
|------------|-----------------|-----------------|
|------------|-6-6-6-6-6-6-6-6-|-6-6-6-6-6-6-6-6-|
|------------|-9-9-9-9-9-9-9-9-|-9-9-9-9-9-9-9-9-|
|------------|-----------------|-----------------|
|------------|-----------------|-----------------|
|------------|-----------------|-----------------|


  E E E E E E E E   E E E E E E Q
|-----------------|-----------------|
|-6-6-6-6-6-6-6-6-|-6-6-6-6-6-6-6S==|
|-9-9-9-9-9-9-9-9-|-9-9-9-9-9-9-9S==|
|-----------------|-----------------|
|-----------------|-----------------|
|-----------------|-----------------|


  Gtr I
                                                       <         <
   W                         W                         Q.        E   +H
|-------------------------|-------------------------|------------------------------|
|-------------------------|-------------------------|-<5>-------<5>-(<5>)----------|
|-------------------------|-------------------------|------------------------------|
|-------------------------|-------------------------|------------------------------|
|-------------------------|-------------------------|------------------------------|
|-------------------------|-------------------------|------------------------------|
|
| Gtr II
|  E  E  E  E  E  E  E  E    E  E  E  E  E  E  E  E    E   E  E  E    E    E  E  E
|-------------------------|-------------------------|------------------------------|
|-18-18-18-18-18-18-18-18-|-18-18-18-18-18-18-18-18-|-18--18-18-18---18---18-18-18-|
|-21-21-21-21-21-21-21-21-|-21-21-21-21-21-21-21-21-|-21--21-21-21---21---21-21-21-|
|-------------------------|-------------------------|------------------------------|
|-------------------------|-------------------------|------------------------------|
|-------------------------|-------------------------|------------------------------|


                 Gtr IV
                  TPTPTPTP TPTPTPTP TPTPTPTP TPTPTPTP
   +H             T T T T  T T T T  T T T T  T T T T
|----------------------------------------------------||
|-(<5>)----------------------------------------------||
|----------------------------------------------------||
|----------------------------------------------------||
|----------------------------------------------------||
|-----------------xsxsxsxs=xsxsxsxs=xsxsxsxs=xsxsxsx-||
|
|   E    E  E  E  E        E        E        E
|----------------------------------------------------||
|--18---18-18-18-18-------18-------18-------18-------||
|--21---21-21-21-21-------21-------21-------21-------||
|----------------------------------------------------||
|----------------------------------------------------||
|----------------------------------------------------||


   Pre-Chorus
    N.C.
    Gtrs I, II
      PM--------|   PM--------|     PM--------|   PM----|
    E S S S S S S E S S S S S S   E S S S S S S E S S S S E
||------------------------------|---------------------------|
||o-----------------------------|---------------------------|
||------------------------------|---------------------------|
||----------------5-------------|---------------5-----------|
||o-----------------------------|-3-----------------------3-|
||--4-4-4-4-4-4-4---4-4-4-4-4-4-|---4-4-4-4-4-4---4-4-4-4---|


  1.
  Gtr I
    PM--------|   PM----|
  E S S S S S S E S S S S  E
|-----------------------------|
|-----------------------------|
|--------------------------4--|
|---------------5-------------|
|-----------------------------|
|-4-4-4-4-4-4-4---4-4-4-4-----|
|
| Gtr II
|   PM--------|   PM----|
| E S S S S S S E S S S S  E
|-------------------------(7)-|
|-----------------------------|
|--------------------------4--|
|---------------5-------------|
|-----------------------------|
|-4-4-4-4-4-4-4---4-4-4-4-----|


                                     2.
                                        PM--------|   PM----|
  +E   E   E   E   E   E   E   E      E S S S S S S E S S S S  E
|----------------------------------||-----------------------------|
|---------------------------------o||-----------------------------|
|-(4)--3-------4---3-------4---3---||--------------------------4--|
|----------5-----------5-----------||---------------5-------------|
|---------------------------------o||-----------------------------|
|----------------------------------||-4-4-4-4-4-4-4---4-4-4-4-----|
|
|                                       PM--------|   PM----|
| +E   E   E   E   E   E   E   E      E S S S S S S E S S S S  E
|-(7)-(6)-----(7)-(6)-----(7)-(6)--||-------------------------(7)-|
|---------(8)---------(8)---------o||-----------------------------|
|-(4)--3-------4---3-------4---3---||--------------------------4--|
|----------5-----------5-----------||---------------5-------------|
|---------------------------------o||-----------------------------|
|----------------------------------||-4-4-4-4-4-4-4---4-4-4-4-----|


  +E   E   E   E   E   E   E   E   +E  E E E E E E E
|--------------------------------|-------------------||
|--------------------------------|-------------------||
|-(4)--3-------4---3-----------4-|-(4)-3---4-3-------||
|----------5-----------5---4-----|-------5-----5-4-3-||
|--------------------------------|-------------------||
|--------------------------------|-------------------||
|
| +E   E   E   E   E   E   E   E   +E  E E E E E E E
|-(7)-(6)-----(7)-(6)---------/7-|-(7)-6---7-6-------||
|---------(8)---------(8)-(7)----|-------8-----8-7-6-||
|-(4)--3-------4---3-------------|-------------------||
|----------5-----------5---4-----|-------------------||
|--------------------------------|-------------------||
|--------------------------------|-------------------||


 Chorus
  E5 F#G5    N.C.                      E5 F#G5    N.C.
  Gtrs I, II
         PM|                                  PM|
  Q  E E E E E E   +E  E E E E E E E   Q  E E E E E E   +Q   E E E E E E
|----------------|-------------------|----------------|------------------|
|----------------|-------------------|----------------|------------------|
|----------------|-------------------|----------------|------------3-2-0-|
|-2--4S5-----9-8-|-(8)-8-5-5-7-7-3-3-|-2--4S5-----9-8-|-(8)--2-4-5-------|
|-2--4S5---------|-------------------|-2--4S5---------|------------------|
|-2--4S5-5-5-9-8-|-(8)-8-5-5-7-7-3-3-|-2--4S5-5-5-9-8-|-(8)--------------|


                             To Coda
                                        E5 N.C.
  Gtr I
          PM|                                      PM|
  E E E E E E E E   +E  E E E E E E E   Q  E   E   E E E E
|-----------------|-------------------|--------------------|
|-----------------|-------------------|--------------------|
|-2-0-------------|-------------------|--------------------|
|-------------9-8-|-(8)-8-5-5-7-7-3-3-|-2--x--------9-8-|
|-----------------|-------------------|-2--x-(<2>)---------|
|-----2s1-2-2-9-8-|-(8)-8-5-5-7-7-3-3-|-2--x----5-5-9-8-|
|
| Gtr II
|         PM|                                      PM|
| E E E E E E E E   +E  E E E E E E E   Q  E   E   E E E E
|-----------------|-------------------|--------------------|
|-----------------|-------------------|--------------------|
|-2-0-------------|-------------------|--------------------|
|-------------9-8-|-(8)-8-5-5-7-7-3-3-|-2--x--------9-8-|
|-----------------|-------------------|-2--x-(<2>)---------|
|-----2s1-2-2-9-8-|-(8)-8-5-5-7-7-3-3-|-2--x----5-5-9-8-|


                                            D.S. al Coda
  +E  +E    +E  +E    +E  +E    +E  E   +E  E E E E E E E
|-------------------------------------|-------------------||
|-------------------------------------|-------------------||
|-----------------------------------4-|-(4)-3---4-3-------||
|-(8)-(8)b9r(8)-(8)b9r(8)-(8)b9r(8)---|-------5-----5-4-3-||
|-------------------------------------|-------------------||
|-(8)-(8)b9r(8)-(8)b9r(8)-(8)b9r(8)---|-------------------||
|
| +E  +E    +E  +E    +E  +E    +E  E   +E  E E E E E E E
|-----------------------------------7-|-(7)-6---7-6-------||
|-------------------------------------|-------8-----8-7-6-||
|-------------------------------------|-------------------||
|-(8)-(8)b9r(8)-(8)b9r(8)-(8)b9r(8)---|-------------------||
|-------------------------------------|-------------------||
|-(8)-(8)b9r(8)-(8)b9r(8)-(8)b9r(8)---|-------------------||


                                      Q
  &                                   $
  E5 N.C.                             N.C.
  Gtrs I, II
             PM|
  Q  E   E   E E E E   +E   E H.
|--------------------|----------------|
|--------------------|----------------|
|--------------------|----------------|
|-2--x--------9-8-|-(8)\-----------|
|-2--x-(<2>)---------|----------------|
|-2--x----5-5-9-8-|-(8)\-----------|


   Interlude
 .=65
 $
   6/8
    E.  E. E.   E.     E   E  T  +T   S  E   E  E
||-----------------|-------------------------------|
||o----------------|-------------------------------|
||-----12\----/14--|-/16-\12-12-(12)s14-11-/12-\9--|
||-----------------|-------------------------------|
||o----10\----/12--|-/14-\10-10-(10)s12--9-/10-\7--|
||--2------0-------|-------------------------------|


                  1.,D.S.S.                 2.
To Dbl. Coda
  E.  E. E.   E.     E   E  E   E  E  E       H.
|----------------|------------------------||--------|
|----------------|-----------------------o||--------|
|----12\----/14--|-/16-\12-14-/19-17-16\--||-12-----|
|----------------|------------------------||--------|
|----10\----/12--|-/14-\10-12-/17-15-14\-o||-10-----|
|-2------0-------|------------------------||--------|


                          Gtrs IV, V
                          TPTPTPTPTPTPTPTPTPTPTPTPTPTPTPTPTPTPTPTPTPTPTPTP
   +H.         +H.        T T T T T T T T T T T T T T T T T T T T T T T T
|-----------|-----------|--------------------------------------------------||
|-----------|-----------|--------------------------------------------------||
|-(12)------|-(12)------|--------------------------------------------------||
|-----------|-----------|--------------------------------------------------||
|-(10)------|-(10)------|--------------------------------------------------||
|-----------|-----------|-xsxsxsxsxsxsxsxsxsxsxsxsxsxsxsxsxsxsxsxsxsxsxsx--||


   Bridge
    N.C.
    Gtrs I, II
    PM|   PM|   PM|   PM|     PM|   PM|
    T T E T T E T T E T T E   T T E T T E  S S S S S S  3x
||--------------------------|---------------------------||
||o-------------------------|--------------------------o||
||--------------------------|---------------------------||
||--------------------------|--------------------6------||
||o-------------------------|--------------7-5-8-------o||
||--0-0-2-0-0-2-0-0-2-0-0-2-|-0-0-2-0-0-5/---------5-3--||


  Gtr I
  PM|   PM|   PM|   PM|     PM|         PM|
  T T E T T E T T E T T E   T T E       T T E       S   S   S   S   S   S
|-------------------------|---------------------------------------------------||
|-------------------------|---------------------------------------------------||
|-------------------------|---------------------------------------------------||
|-------------------------|-------------------------------------6-------------||
|-------------------------|-------------------------7---5---8-----------------||
|-0-0-2-0-0-2-0-0-2-0-0-2-|-0-0-2-------0-0-5/----------------------5---3-----||
|
| Gtr II                    Gtr V
| PM|   PM|   PM|   PM|     TPTPTPTPTPTPTPTPTPTPTPTPTPTPTPTPTPTPTPTPTPTPTPTP
| T T E T T E T T E T T E   T T T T T T T T T T T T T T T T T T T T T T T T
|-------------------------|---------------------------------------------------||
|-------------------------|---------------------------------------------------||
|-------------------------|---------------------------------------------------||
|-------------------------|---------------------------------------------------||
|-------------------------|---------------------------------------------------||
|-0-0-2-0-0-2-0-0-2-0-0-2-|-xsxsxsxsxsxsxsxsxsxsxsxsxsxsxsxsxsxsxsxsxsxsxsx---||


 Guitar Solo (Jeff Waters)
  F#5        A5                D5
  Gtrs I, II
   E.    E S  E.     E     S   E. E S  E. E     S
|----------------------------|----------------------|
|----------------------------|----------------------|
|----------------------------|----------------------|
|--4-----4-4--7------7-----7-|-0--0-0--0--0-----0---|
|--4-----4-4--7------7-----7-|-0--0-0--0--0-----0---|
|--4-----4-4--7------7-----7-|-0--0-0--0--0-----0---|
|
| Gtr III
|                              ~~
|  Q.        +E  +E    +S  S   Q.      Q    T T T T
|----------------------------|----------------------|
|----------------------------|----------------------|
|-[2]b4======(2)-(2)r==(2)p0-|----------------------|
|----------------------------|-2------12\---0h2p0h2-|
|----------------------------|--------12\-----------|
|----------------------------|----------------------|


    F#5           A5             B5      C5   B5    A5
    E.        E S  E.  E     S    E. E S  E   E      E
|------------------------------|-------------------------|
|------------------------------|-------------------------|
|------------------------------|-------------------------|
|---4---------4-4--7---7-----7-|--9--9-9-10---9------7---|
|---4---------4-4--7---7-----7-|--9--9-9-10---9------7---|
|---4---------4-4--7---7-----7-|--9--9-9-10---9------7---|
|
|                                 ~~~~~~~~~~~~
| a E  a Q        +E. +S  S  S   +Q.     +E.      S  S S
|-------------------------0----|-------------------------|
|---------------------------/5-|-(5)-----(5)\------------|
|-0h2--0h2b4======(2)r(2)------|--------------------12---|
|------------------------------|----------------/14------|
|------------------------------|-------------------------|
|------------------------------|-------------------------|


  F#5           A5        D5
   E.    E    S  E. E S     E.              E S E.       E        S
|-----------------------|-------------------------------------------|
|-----------------------|-------------------------------------------|
|-----------------------|-------------------------------------------|
|--4-----4----4--7--7-7-|---0---------------0-0-0--------0--------0-|
|--4-----4----4--7--7-7-|---0---------------0-0-0--------0--------0-|
|--4-----4----4--7--7-7-|---0---------------0-0-0--------0--------0-|
|
|                                           ~~
|  Q        E    Q.        +S   T  T  T  T  Q       +E.     T  S.
|-----------------------|----------------------------------12-------|
|----------15---15------|-(15)--------------------------------12----|
|-14b16=========14------|-(14)r16p14p12h14-12------(12)\------------|
|-----------------------|-------------------------------------------|
|-----------------------|-------------------------------------------|
|-----------------------|-------------------------------------------|


  F#5            A5
    E.       E S  E.                 E      S
|-------------------------------------------------|
|-------------------------------------------------|
|-------------------------------------------------|
|---4--------4-4--7------------------7------7-----|
|---4--------4-4--7------------------7------7-----|
|---4--------4-4--7------------------7------7-----|
|
|       ~~~~~
|  +E   Q         T   T  T  T  T  T  T.  S.    T.
|----------------12--------11---------------------|
|-(12)-15b17---------15p12----15p12---------------|
|---------------------------------------14--------|
|-----------------------------------14--------14--|
|-------------------------------------------------|
|-------------------------------------------------|


  B5                   C5  B5A5
   E.          E     S  E  E E
|------------------------------|
|------------------------------|
|------------------------------|
|--9-----------9-----9-10--9-7-|
|--9-----------9-----9-10--9-7-|
|--9-----------9-----9-10--9-7-|
|
|  E      +E      S  S  Q.
|------------------------------|
|------------------------------|
|-12b14==(12)r-----------------|
|-12b14==(12)r---14-12-14\-----|
|------------------------------|
|------------------------------|


        B5      D5
   PM         PM
   S    E.  E S E.         E
|----------------------------|
|----------------------------|
|-------4---4----------------|
|-------4---4---7----------7-|
|--2----2---2-5-5----------5-|
|----------------------------|
|
|  Q        Q        S  E.
|----------------------------|
|----------------------------|
|-12b14----12------/14s16----|
|-12-------12----------------|
|----------------------------|
|----------------------------|


     G5
   PM                PM
   S E.  E           S     E.                E
|-------------------------------------------------------|
|-------------------------------------------------------|
|-------------------------------------------------------|
|----5---5-----------------5-----------------5----------|
|----5---5-----------------5-----------------5----------|
|--5-5---5-----------5-----5-----------------5----------|
|
|  ~~
|  Q     T  T  T  T  T  T  T  T  T  T  T  T  T  T  T  T
|----------------17-------------------------------------|
|----------13h17----17p13-17p15-13p12-15p13p12----------|
|-14----14-------------------------------------14p12p10-|
|-------------------------------------------------------|
|-------------------------------------------------------|
|-------------------------------------------------------|


        B5                                   D5
   PM                                   PM
   S     E.                 E           S     E.                 E
|---------------------------------------------------------------------------|
|---------------------------------------------------------------------------|
|--------4------------------4-----------------------------------------------|
|--------4------------------4-----------------7------------------7----------|
|--2-----2------------------2-----------5-----5------------------5----------|
|---------------------------------------------------------------------------|
|
|  T  T  T   T  T  T  T  T  T  T  T  T  T  T  T   T  T  T  T  T  T  T  T  T
|---------------------------------------------------------------------------|
|----13p12------------------------------------------------------------------|
|-14--------14p12p10-14p12p10----12p10-------10-----------------------------|
|-----------------------------14-------14p12-----14p12p10-14p12p10----12p10-|
|------------------------------------------------------------------14-------|
|---------------------------------------------------------------------------|


        E5                             F5  E5D5
   PM
   S     E.                 E           E  E E
|----------------------------------------------|
|----------------------------------------------|
|----------------------------------------------|
|--------9------------------9----------10--9-7-|
|--7-----7------------------7-----------8--7-5-|
|----------------------------------------------|
|
|                                       ~~~
|  T  T  T   T  T  T  T  T  T  T  T  T  Q.
|----------------------------------------------|
|----------------------------------------------|
|----------------------------------------------|
|----------------------------------------------|
|-14p12p10-----14p12p10----12p10---------------|
|-----------15----------15-------15p14-15\-----|


      B5                       D5
  PM                       PM
  S   E.           E       S   E.           E
|---------------------------------------------------|
|---------------------------------------------------|
|-----4------------4--------------------------------|
|-----4------------4-----------7------------7-------|
|-2---2------------2-------5---5------------5-------|
|---------------------------------------------------|
|
| T T T  T T T T T T T T T T T T  T T T T T T T T T
|---------------------------------------------------|
|-5h6p5--------5h8p5-------5h6p5--------5h8p5-------|
|--------7p5h7-------7p5h7--------7p5h7-------7p5h7-|
|---------------------------------------------------|
|---------------------------------------------------|
|---------------------------------------------------|


      G5
  PM                       PM
  S   E.           E       S   E.            E
|----------------------------------------------------|
|----------------------------------------------------|
|----------------------------------------------------|
|-----5------------5-----------5-------------5-------|
|-----5------------5-----------5-------------5-------|
|-5---5------------5-------5---5-------------5-------|
|
| T T T  T T T T T T T T T T T T  T T T T  T T T T T
|-5h8p5--------5h7p5-------5h8p5--------5h10p5-------|
|--------8---8-------8---8--------8---8--------8---8-|
|----------7-----------7------------7------------7---|
|----------------------------------------------------|
|----------------------------------------------------|
|----------------------------------------------------|


          B5       D5               E5                     F5  E5D5
   PM           PM              PM
   S      E. E  S  E.     E     S   E.       E              E  E  E
|-----------------------------|---------------------------------------|
|-----------------------------|---------------------------------------|
|---------4--4----------------|---------------------------------------|
|---------4--4-----7------7---|-----9--------9-------------10--9--7---|
|--2------2--2--5--5------5---|-7---7--------7--------------8--7--5---|
|-----------------------------|---------------------------------------|
|
|                                                           ~~~
|  Q.          +S  S  s s s s   S   T T S S  S   S      a  +Q    +E
|------------------5----------|---------------------------------------|
|-[8]b10=======(8)r===5-5-5-5-|---------------------------------------|
|-----------------------------|-7b9-7p5-----[5]-[5]b7==[5]r(5)---(5)\-|
|-----------------------------|---------7-5---------------------------|
|-----------------------------|---------------------------------------|
|-----------------------------|---------------------------------------|


  Q=182
              E5
 4/4
   PM------|               PM------|         PM----
   S  S  S  S  E     E     S  S  S  S  E     S  S
|-------------------------------------------------|
|-------------------------------------------------|
|-------------------------------------------------|
|--------------9-----9-----------------9----------|
|--7--7--7--7--7-----7-----7--7--7--7--7-----7--7-|
|-------------------------------------------------|
|
|  S  S  S  S  S  S  S  S  S  S  S  S  S  S  S  S
|-------------------------------------------------|
|-------------------------------------------------|
|-14-12-10----10-12-14-12-10----10-12-14-12-14-12-|
|----------10----------------10-------------------|
|-------------------------------------------------|
|-------------------------------------------------|


              D5
 ----------|               PM------|         PM|
   S  S  S  S  E     E     S  S  S  S  E     S  S
|--------------------------------------------------|
|--------------------------------------------------|
|--------------------------------------------------|
|--------------7-----7-----------------7-----------|
|--5--5--5--5--5-----5-----5--5--5--5--5-----5--5--|
|--------------------------------------------------|
|
|  S  S  S  S  S  S  S  S  S  S  S  S  S  S  S  S
|--------------------------------------------------|
|--------------------------------------------------|
|-14-12-10----10-12-14-12-10----10-12-14-12-14-12--|
|----------10----------------10--------------------|
|--------------------------------------------------|
|--------------------------------------------------|


              F5
   PM------|               PM------|         PM----
   S  S  S  S  E     E     S  S  S  S  E     S  S
|-------------------------------------------------|
|-------------------------------------------------|
|-------------------------------------------------|
|-------------10----10----------------10----------|
|--8--8--8--8--8-----8-----8--8--8--8--8-----8--8-|
|-------------------------------------------------|
|
|  S  S  S  S  S  S  S  S  S  S  S  S  S  S  S  S
|-------------------------------------------------|
|-15----------------15----------------15----15----|
|----12-10----10-12----12-10----10-12----12----12-|
|----------10----------------10-------------------|
|-------------------------------------------------|
|-------------------------------------------------|


              G5
 ----------|               PM------|      PM|
   S  S  S  S  E     E     S  S  S  S  E  S  S
|----------------------------------------------|
|----------------------------------------------|
|----------------------------------------------|
|-------------12----12----------------12-------|
|-10-10-10-10-10----10----10-10-10-10-10-10-10-|
|----------------------------------------------|
|
|  S  S  S  S  S  S  S  S  S  S  S  S  Q
|----------------------------------------------|
|-15----15----------------10-------------------|
|----12----12-14-12-10-12----13-12-10-12-------|
|----------------------------------------------|
|----------------------------------------------|
|----------------------------------------------|


              E5
   PM------|               PM------|         PM----
   S  S  S  S  E     E     S  S  S  S  E     S  S
|-------------------------------------------------|
|-------------------------------------------------|
|-------------------------------------------------|
|--------------9-----9-----------------9----------|
|--7--7--7--7--7-----7-----7--7--7--7--7-----7--7-|
|-------------------------------------------------|
|
|  S  S  S  S  S  S  S  S  S  S  S  S  S  S  S  S
|-------------------------------------------------|
|-------------------------------------------------|
|-14-12-10----10-12-14-12-10----10-12-14-12-14-12-|
|----------10----------------10-------------------|
|-------------------------------------------------|
|-------------------------------------------------|


              D5
 ----------|               PM------|         PM|
   S  S  S  S  E     E     S  S  S  S  E     S  S
|-------------------------------------------------|
|-------------------------------------------------|
|-------------------------------------------------|
|--------------7-----7-----------------7----------|
|--5--5--5--5--5-----5-----5--5--5--5--5-----5--5-|
|-------------------------------------------------|
|
|  S  S  S  S  S  S  S  S  S  S  S  S  S  S  S  S
|-------------------------------------------------|
|-15----------------15----------------15----15----|
|----12-10----10-12----12-10----10-12----12----12-|
|----------10----------------10-------------------|
|-------------------------------------------------|
|-------------------------------------------------|


               F5
   PM--------|         PM--------|         PM----
   S     S S S  E  E   S  S   S   S  E     S  S
|-----------------------------------------------|
|-----------------------------------------------|
|-----------------------------------------------|
|--------------10-10----------------10----------|
|--8-----8-8-8--8--8---8--8---8---8--8-----8--8-|
|-----------------------------------------------|
|
|  H                  +E     +S   S  S  S  S  S
|-15b17==============(15)r==(15)-10-15-13-12-10-|
|-----------------------------------------------|
|-----------------------------------------------|
|-----------------------------------------------|
|-----------------------------------------------|
|-----------------------------------------------|


              G5
 ----------|               PM------|         PM|
   S  S  S  S  E     E     S  S  S  S   E    S  S
|-------------------------------------------------|
|-------------------------------------------------|
|-------------------------------------------------|
|-------------12----12-----------------12---------|
|-10-10-10-10-10----10----10-10-10-10--10---10-10-|
|-------------------------------------------------|
|
|                          ~~
|  S  S  S  S  S  S  S  S  Q           +Q
|-15-13-12-10-12----------------------------------|
|----------------15-13-10-------------------------|
|-------------------------10----------(10)\-------|
|-------------------------------------------------|
|-------------------------------------------------|
|-------------------------------------------------|


              E5
   PM------|               PM------|         PM----
   S  S  S  S  E     E     S  S  S  S  E     S  S
|-------------------------------------------------|
|-------------------------------------------------|
|-------------------------------------------------|
|--------------9-----9-----------------9----------|
|--7--7--7--7--7-----7-----7--7--7--7--7-----7--7-|
|-------------------------------------------------|
|
|  S  S  S  S  S  S  S  S  S  S  S  S  S  S  S  S
|-17p13p10----13p10-------10----------------10h13-|
|----------17-------17p13----17p13p10-13h17-------|
|-------------------------------------------------|
|-------------------------------------------------|
|-------------------------------------------------|
|-------------------------------------------------|


              D5
 ----------|               PM------|         PM|
   S  S  S  S  E     E     S  S  S  S  E     S  S
|-------------------------------------------------|
|-------------------------------------------------|
|-------------------------------------------------|
|--------------7-----7-----------------7----------|
|--5--5--5--5--5-----5-----5--5--5--5--5-----5--5-|
|-------------------------------------------------|
|
|  S  S  S  S  S  S  S  S  S  S  S  S  S  S  S  S
|-17p13p10----13p10-------10----------------10h13-|
|----------17-------17p13----17p13p10-13h17-------|
|-------------------------------------------------|
|-------------------------------------------------|
|-------------------------------------------------|
|-------------------------------------------------|


              F5
   PM------|               PM------|         PM----
   S  S  S  S  E     E     S  S  S  S  E     S  S
|-------------------------------------------------|
|-------------------------------------------------|
|-------------------------------------------------|
|-------------10----10----------------10----------|
|--8--8--8--8--8-----8-----8--8--8--8--8-----8--8-|
|-------------------------------------------------|
|
|  S  S  S  S  S  S  S  S  S  S  S  S  S  S  S  S
|-17p13p10----13p10-------10----------------10h13-|
|----------17-------17p13----17p13p10-13h17-------|
|-------------------------------------------------|
|-------------------------------------------------|
|-------------------------------------------------|
|-------------------------------------------------|


              G5
 ----------|                PM-------|       PM|
   S  S  S  S  E     E      S   S  S  S  E   S  S
|-------------------------------------------------|
|-------------------------------------------------|
|-------------------------------------------------|
|-------------12----12------------------12--------|
|-10-10-10-10-10----10-----10--10-10-10-10--10-10-|
|-------------------------------------------------|
|
|                           ~~~~
|  S  S  S  S  S  S  S  S   Q            Q
|-------------------------------------------------|
|-15p10-13----11----------------------------------|
|----------13----11h14----------------------------|
|----------------------15-[15]----------15\-------|
|-------------------------------------------------|
|-------------------------------------------------|


               E5
   PM--------|       PM-----|         PM----
   S     S S S E E   S  S S  S  E     S  S
|------------------------------------------|
|------------------------------------------|
|------------------------------------------|
|--------------9-9--------------9----------|
|--7-----7-7-7-7-7---7--7-7--7--7-----7--7-|
|------------------------------------------|
|
|  H                +E.      S  S  S  S  S
|------------------------------------------|
|-12b13============(12)r====13-12-10-------|
|------------------------------------12-10-|
|------------------------------------------|
|------------------------------------------|
|------------------------------------------|


              D5
 ----------|               PM------|     PM|
   S  S  S  S  E     E     S  S  S  S  E S S
|--------------------------------------------|
|--------------------------------------------|
|--------------------------------------------|
|--------------7-----7-----------------7-----|
|--5--5--5--5--5-----5-----5--5--5--5--5-5-5-|
|--------------------------------------------|
|
|                                      ~~
|  S  S  S  S  S  S  S  S  S  S  S  S  Q
|--------------------------------------------|
|--------------------------------------------|
|--------------------------------------------|
|-13-12-10-12-10-----------------------------|
|----------------13-12-10--------------------|
|-------------------------13-12-10-13-10-----|


              F5
   PM------|               PM-------|         PM|
   S  S  S  S  E     E     S   S  S  S  E     S   S
|---------------------------------------------------|
|---------------------------------------------------|
|---------------------------------------------------|
|-------------10----10-----------------10-----------|
|--8--8--8--8--8-----8-----8---8--8--8--8-----8---8-|
|---------------------------------------------------|
|
|  S  S  S  S  S  S  S  S  S   S  S  S  S  S  S   S
|---------------------------------------------------|
|---------------------------------------------------|
|--------------------------------------14-15-17-/15-|
|-------------------12-14-15-/14-15-17--------------|
|----------12-13-15---------------------------------|
|-12-13-15------------------------------------------|


  G5                                   E5
   E     E     Q               Q        Q
|-----------------------------------------------||
|-----------------------------------------------||
|-----------------------------------------------||
|-12--------------------------12--------9-------||
|-10--------------------------10--------7-------||
|-----------------------------------------------||
|
|                              |--3--|  |--3--|
|  S  S  S  S  S   S  S  S  a  E  E  E  E  E  E
|--------------------------17h20-18-17-20-18-17-||
|-------15-17-18-/17-18s20----------------------||
|-17-18-----------------------------------------||
|-----------------------------------------------||
|-----------------------------------------------||
|-----------------------------------------------||


 Bridge
  N.C.
 6/4
   E  E E  E E E  E  E  E E  E E    E E E  E E E  E E  E E  E E
|--------------------------------|------------------------------|
|-12------12-----13----13---10---|-12-----12-----13---13---10---|
|-----9-9----9-9-----9----9----9-|----9-9----9-9----9----9----9-|
|--------------------------------|------------------------------|
|--------------------------------|------------------------------|
|--------------------------------|------------------------------|
|
|  H.             H.                W
|-22\----------------------------|------------------------------|
|--------------------------------|------------------------------|
|--------------------------------|------------------------------|
|--------------------------------|------------------------------|
|--------------------------------|------------------------------|
|--------------------------------|------------------------------|


  Gtr I
   E  E  E  E  E  E  E  E  E  E  E  E    E  E  E  E  E  E  E  E  E  E  E  E
|-------------------------------------|-------------------------------------|
|-12-------12-------13----13----10----|-12-------12-------13----13----10----|
|-----9--9-----9--9-----9-----9-----9-|-----9--9-----9--9-----9-----9-----9-|
|-------------------------------------|-------------------------------------|
|-------------------------------------|-------------------------------------|
|-------------------------------------|-------------------------------------|
|
| Gtr II
|  E  E  E  E  E  E  E  E  E  E  E  E    E  E  E  E  E  E  E  E  E  E  E  E
|-12-------12-------13----13----10----|-12-------12-------13----13----10----|
|----12-12----12-12----12----12----12-|----12-12----12-12----12----12----12-|
|-------------------------------------|-------------------------------------|
|-------------------------------------|-------------------------------------|
|-------------------------------------|-------------------------------------|
|-------------------------------------|-------------------------------------|


  Gtrs I, II
   E E E  E E E  E E  E E  E E    E E E  E E E  E E  E E  E E
|------------------------------|------------------------------|
|-12-----12-----13---13---10---|-12-----12-----13---13---10---|
|----9-9----9-9----9----9----9-|----9-9----9-9----9----9----9-|
|------------------------------|------------------------------|
|------------------------------|------------------------------|
|------------------------------|------------------------------|


                                                      D.S.S. al Dbl. Coda
  Gtr I
   E  E  E  E  E  E  E  E  E  E  E  E    E  E  E  E  E  E  E  E  E  E  E  E
|-------------------------------------|-------------------------------------||
|-12-------12-------13----13----10----|-12-------12-------13----13----10----||
|-----9--9-----9--9-----9-----9-----9-|-----9--9-----9--9-----9-----9-----9-||
|-------------------------------------|-------------------------------------||
|-------------------------------------|-------------------------------------||
|-------------------------------------|-------------------------------------||
|
| Gtr II
|  E  E  E  E  E  E  E  E  E  E  E  E    E  E  E  E  E  E  E  E  E  E  E  E
|-19-------19-------20----20----17----|-19-------19-------20----20----17----||
|----17-17----17-17----17----17----17-|----17-17----17-17----17----17----17-||
|-------------------------------------|-------------------------------------||
|-------------------------------------|-------------------------------------||
|-------------------------------------|-------------------------------------||
|-------------------------------------|-------------------------------------||


  Q.=65
  &&
  N.C.
 6/8
  Gtrs I, II
   H.         +H.         +H.         +H      +Q
|----------|-----------|-----------|----------------||
|----------|-----------|-----------|----------------||
|-12-------|-(12)------|-(12)------|-(12)----(12)\--||
|----------|-----------|-----------|----------------||
|-10-------|-(10)------|-(10)------|-(10)----(10)\--||
|----------|-----------|-----------|----------------||


 Breakdown
  Q.=132
  N.C.
 12/8
  Gtr I
       ~~~~~~      ~~~~~~          ~~~~~~
  E  E E +Q.   E E E +Q.      E  E E +Q   E Q  S +S  E Q
|--------------------------|-------------------------------|
|--------------------------|-------------------------------|
|--------------------------|-------------------------------|
|--------------------------|-------------------------------|
|--------------------------|-------------------------------|
|-2--0-2-(2)---2-0-2-(2)---|--2--0-2-(2)--0-3--3-(3)s5-0---|
|
| Gtr II
| >
| W.                         +W.
|--------------------------|-------------------------------|
|--------------------------|-------------------------------|
|--------------------------|-------------------------------|
|--------------------------|-------------------------------|
|--------------------------|-------------------------------|
|-2------------------------|-(2)---------------------------|


  Gtr I
      ~~~~~~      ~~~~~~        ~~~~~~
  E E E +Q.   E E E +Q.     E E E +Q   E Q  S +S  E Q
|-------------------------|----------------------------|
|-------------------------|----------------------------|
|-------------------------|----------------------------|
|-------------------------|----------------------------|
|-------------------------|----------------------------|
|-2-0-2-(2)---2-0-2-(2)---|-2-0-2-(2)--0-3--3-(3)s5-0--|


  Gtr I
      ~~~~~~       ~~~~~~         ~~~~~~
  E E E +Q.    E E E +Q.      E E E +Q   E Q   S +S  E Q
|---------------------------|------------------------------|
|---------------------------|------------------------------|
|---------------------------|------------------------------|
|---------------------------|------------------------------|
|---------------------------|------------------------------|
|-2-0-2-(2)----2-0-2-(2)----|-2-0-2-(2)--0-3---3-(3)s5-0---|
|
| Gtr V
| TPTPTP TPTPTPTPTPTP TPTPTP  TPTPTP TPTPTPTPTPTP    TPTPTP
| E E E  E E E E E E  E E E   E E E  E E E E E E     E E E
|---------------------------|------------------------------|
|---------------------------|------------------------------|
|---------------------------|------------------------------|
|---------------------------|------------------------------|
|---------------------------|------------------------------|
|-xsxsxs=xsxsxsxsxsxs=xsxsxs|=xsxsxs=xsxsxsxsxsxs====xsxsx-|


      ~~~~~~       ~~~~~~         ~~~~~~
  E E E +Q.    E E E +Q.      E E E +Q   E E E E E E E
|---------------------------|--------------------------||
|---------------------------|--------------------------||
|---------------------------|--------------------------||
|---------------------------|--------------------------||
|---------------------------|--------------------------||
|-2-0-2-(2)----2-0-2-(2)----|-2-0-2-(2)--0-8-7-5-8-7-5-||
|
| TPTPTP TPTPTPTPTPTP TPTPTP  TPTPTP TPTPTPTPTPTPTPTPTP
| E E E  E E E E E E  E E E   E E E  E E E E E E E E E
|---------------------------|--------------------------||
|---------------------------|--------------------------||
|---------------------------|--------------------------||
|---------------------------|--------------------------||
|---------------------------|--------------------------||
|-xsxsxs=xsxsxsxsxsxs=xsxsxs|=xsxsxs=xsxsxsxsxsxsxsxsx-||


   Outro
    Gtrs I, II
        ~~~~~~      ~~~~~~        ~~~~~~
    E E E +Q.   E E E +Q.     E E E +Q   E Q  S +S  E Q
||--------------------------|----------------------------|
||o-------------------------|----------------------------|
||--------------------------|----------------------------|
||--------------------------|----------------------------|
||o-------------------------|----------------------------|
||--2-0-2-(2)---2-0-2-(2)---|-2-0-2-(2)--0-3--3-(3)s5-0--|


      ~~~~~~      ~~~~~~        ~~~~~~
  E E E +Q.   E E E +Q.     E E E +Q   E Q  S +S  E Q
|-------------------------|----------------------------|
|-------------------------|----------------------------|
|-------------------------|----------------------------|
|-------------------------|----------------------------|
|-------------------------|----------------------------|
|-2-0-2-(2)---2-0-2-(2)---|-2-0-2-(2)--0-3--3-(3)s5-0--|


      ~~~~~~      ~~~~~~        ~~~~~~
  E E E +Q.   E E E +Q.     E E E +Q   E Q  S +S  E Q
|-------------------------|----------------------------|
|-------------------------|----------------------------|
|-------------------------|----------------------------|
|-------------------------|----------------------------|
|-------------------------|----------------------------|
|-2-0-2-(2)---2-0-2-(2)---|-2-0-2-(2)--0-3--3-(3)s5-0--|


      ~~~~~~      ~~~~~~        ~~~~~~
  E E E +Q.   E E E +Q.     E E E +Q   E E E E E E E  5x
|-------------------------|---------------------------||
|-------------------------|--------------------------o||
|-------------------------|---------------------------||
|-------------------------|---------------------------||
|-------------------------|--------------------------o||
|-2-0-2-(2)---2-0-2-(2)---|-2-0-2-(2)--0-8-7-5-8-7-5--||




--------------------------------------------------------------------------------


Duration Legend
---------------
W - whole; H - half; Q - quarter; E - 8th; S - 16th; T - 32nd; X - 64th; a - acciaccatura
+ - note tied to previous; . - note dotted; .. - note double dotted
Uncapitalized letters represent notes that are staccato (1/2 duration)
Irregular groupings are notated above the duration line
Duration letters will always appear directly above the note/fret number it represents the
duration for.  Duration letters with no fret number below them represent rests.  Multi-
bar rests are notated in the form Wxn, where n is the number of bars to rest for.  Low
melody durations appear below the staff

Tablature Legend
----------------
 h   - hammer-on
 p   - pull-off
 b   - bend
 pb  - pre-bend
 r   - bend release (if no number after the r, then release immediately)
 /\  - slide into or out of (from/to "nowhere")
 s   - legato slide
 S   - shift slide
<n> - natural harmonic
[n]  - artificial harmonic
n(n) - tapped harmonic
 ~   - vibrato
 tr  - trill
 T   - tap
 TP  - trem. picking
 PM  - palm muting
\n/  - tremolo bar dip; n = amount to dip
 \n  - tremolo bar down
 n/  - tremolo bar up
/n\  - tremolo bar inverted dip
 =   - hold bend; also acts as connecting device for hammers/pulls
 <> - volume swell (louder/softer)
 x   - on rhythm slash represents muted slash
 o   - on rhythm slash represents single note slash

Misc Legend
-----------
 |  - bar
||  - double bar
||o - repeat start
o|| - repeat end
*|  - double bar (ending)
 :  - bar (freetime)
 $  - Segno
 &  - Coda
Tempo markers - <E/E./Q/Q./H/H.> = BPM(8/16=s8/s16), where s8 = swing 8ths, s16 = swing 16ths
comments
We did not receive enough feedback on this tab! Please rate:
print report bad tab
1 2 3 4 5
I want to post or [tab]
guest
You may want to rate the tab now too:
select rating
Please do not post tabs as comments. Select "correction" instead!