Oops, an error
Loading. Please wait.

Tired N Lonely Tab

1,690 views 3 this week
no commentswrite comment
1 2 3 4 5
please rate
Autoscroll
+/-
esc
set tempo
stop
Contributor
Tuning
D A D G B E
WARNING: You are trying to view
                                    content from Ultimate-Guitar.com
                                    in an unauthorized application,
                                    which is prohibited.

                                    Please use an official Ultimate
                                    Guitar Tabs application for iPhone,
                                    iPad or Android to access legitimate
                                    chords, guitar, bass, and drum tabs
                                    from Ultimate-Guitar.com database.

                                    Type "ultimate guitar tabs" in Apple
                                    App Store's or Android Market's
                                    search to find the application.
Band: Roadrunner United
Song: Tired 'N Lonely
CD:   Roadrunner United
Year: 2005
Tune: D, A, D, G, B, E

(This is based off a guitar pro file I found. Most of it seems right
it was just hard trying to get the timing and everything lined up. The
only thing I'm unsure of is guitar 2 during the chorus. I hear a part
similar to what it plays in the intro but it was just tabbed the same
as guitar one was in the GP file so I left it out. The intro actually
starts out with guitar 2 in the background with some synth noise then
guitar 1 comes in with a slide and the riff begins. The solos were 
missing from the tab so I left a few blank bars with the rhythm.)

    Intro: (guitar 1)
E |--------------------------------------------------------------------|
B |--------------------------------------------------------------------|
G |--------------------------------------------------------------------|
D |--------------------------------------------------------------------|
A |---3-2-3-5--2-5-6---3-2-3-5--2-5-6---3-2-3-5--2-5-6---3-2-----------|
D |---3-2-3-5--2-5-6---3-2-3-5--2-5-6---3-2-3-5--2-5-6---3-2-6-6-5-4b--|
  |
  | (guitar 2)
E |--------------------------------------------------------------------|
B |--14--14--14--14--14--14--14--14--14--14--14--14--14--14--14--14----|
G |--------------------------------------------------------------------|
D |--------------------------------------------------------------------|
A |--------------------------------------------------------------------|
D |--------------------------------------------------------------------|

    (guitar 1)
E |--------------------------------------------------------------------|
B |--------------------------------------------------------------------|
G |--------------------------------------------------------------------|
D |--------------------------------------------------------------------|
A |---3-2-3-5--2-5-6---3-2-3-5--2-5-6---3-2-3-5--2-5-6---3-2-----------|
D |---3-2-3-5--2-5-6---3-2-3-5--2-5-6---3-2-3-5--2-5-6---3-2-6-6-5-4b--|
  |
  | (guitar 2)
E |--------------------------------------------------------------------|
B |--14--14--14--14--14--14--14--14--14--14--14--14--14--14--14--14----|
G |--------------------------------------------------------------------|
D |--------------------------------------------------------------------|
A |--------------------------------------------------------------------|
D |--------------------------------------------------------------------|

E |-----------------------------------------------|
B |-----------------------------------------------|
G |---6-------------9-----------------------------|
D |---6-----6-6-----9----7---7---7---7---7-----0--|
A |---4-----6-6-----7----7---7---7---7---7-----0--|
D |---------6-6----------7---7---7---7---7-----0--|


    Verse: (both guitars)
E |--------------------------------------------------------------------|
B |--------------------------------------------------------------------|
G |--------------------------------------------------------------------|
D |--------------------------------------------------------------------|
A |---3-2-3-5--2-5-6---3-2-3-5--2-5-6---3-2-3-5--2-5-6---3-2-----------|
D |---3-2-3-5--2-5-6---3-2-3-5--2-5-6---3-2-3-5--2-5-6---3-2-6-6-5-4b--|
  PM  * * * *  * * *   * * * *  * * *   * * * *  * * *   * *

E |--------------------------------------------------------------------|
B |--------------------------------------------------------------------|
G |--------------------------------------------------------------------|
D |--------------------------------------------------------------------|
A |---3-2-3-5--2-5-6---3-2-3-5--2-5-6---3-2-3-5--2-5-6---3-2-----------|
D |---3-2-3-5--2-5-6---3-2-3-5--2-5-6---3-2-3-5--2-5-6---3-2-6-6-5-4b--|
  PM  * * * *  * * *   * * * *  * * *   * * * *  * * *   * *
 
    (Guitar 1)
E |--------------------------------------------------------------------|
B |--------------------------------------------------------------------|
G |--------------------------------------------------------------------|
D |--------------------------------------------------------------------|
A |---3-2-3-5--2-5-6---3-2-3-5--2-5-6---3-2-3-5--2-5-6---3-2-----------|
D |---3-2-3-5--2-5-6---3-2-3-5--2-5-6---3-2-3-5--2-5-6---3-2-6-6-5-4b--|
  |PM * * * *  * * *   * * * *  * * *   * * * *
  |
  |  (guitar 2 - vibrate a bit and use a bit of wah)
E |--------------------------------------------------------------------|
B |---5--5--5--5--5--5--5--------------12--12--12--12--12--12--12--12--|
G |--------------------------------------------------------------------|
D |--------------------------------------------------------------------|
A |--------------------------------------------------------------------|
D |--------------------------------------------------------------------|


     Chorus: (guitar 1)
E |----------------------------------------------|
B |----------------------------------------------|
G |---6-6--------------------6-6--------9--------|
D |---6-6--6-6----4-6-7------6-6--6-6---9--9-----|
A |---4-4--6-6----4-6-7------4-4--6-6---7--9-----|
D |--------6-6----4-6-7-----------6-6------9-----|

E |---------------------------------------------------|
B |---------------------------------------------------|
G |---6-6--------------------6-6--------9-------------|
D |---6-6--6-6----4-6-7------6-6--6-6---9--7--7--7--7-|
A |---4-4--6-6----4-6-7------4-4--6-6---7--7--7--7--7-|
D |--------6-6----4-6-7-----------6-6------7--7--7--7-|


   Pre verse: (guitar 1)
E |--------------------------------------------------------------------|
B |--------------------------------------------------------------------|
G |--------------------------------------------------------------------|
D |--------------------------------------------------------------------|
A |---3-2-3-5--2-5-6---3-2-3-5--2-5-6---3-2-3-5--2-5-6---3-2-----------|
D |---3-2-3-5--2-5-6---3-2-3-5--2-5-6---3-2-3-5--2-5-6---3-2-6-6-5-4b--|
  |
  | (guitar 2)
E |--------------------------------------------------------------------|
B |--14--14--14--14--14--14--14--14--14--14--14--14--14--14--14--14----|
G |--------------------------------------------------------------------|
D |--------------------------------------------------------------------|
A |--------------------------------------------------------------------|
D |--------------------------------------------------------------------|


    Verse: (both guitars)
E |--------------------------------------------------------------------|
B |--------------------------------------------------------------------|
G |--------------------------------------------------------------------|
D |--------------------------------------------------------------------|
A |---3-2-3-5--2-5-6---3-2-3-5--2-5-6---3-2-3-5--2-5-6---3-2-----------|
D |---3-2-3-5--2-5-6---3-2-3-5--2-5-6---3-2-3-5--2-5-6---3-2-6-6-5-4b--|
  PM  * * * *  * * *   * * * *  * * *   * * * *  * * *   * *

E |--------------------------------------------------------------------|
B |--------------------------------------------------------------------|
G |--------------------------------------------------------------------|
D |--------------------------------------------------------------------|
A |---3-2-3-5--2-5-6---3-2-3-5--2-5-6---3-2-3-5--2-5-6---3-2-----------|
D |---3-2-3-5--2-5-6---3-2-3-5--2-5-6---3-2-3-5--2-5-6---3-2-6-6-5-4b--|
  PM  * * * *  * * *   * * * *  * * *   * * * *  * * *   * *
 
    (Guitar 1)
E |--------------------------------------------------------------------|
B |--------------------------------------------------------------------|
G |--------------------------------------------------------------------|
D |--------------------------------------------------------------------|
A |---3-2-3-5--2-5-6---3-2-3-5--2-5-6---3-2-3-5--2-5-6---3-2-----------|
D |---3-2-3-5--2-5-6---3-2-3-5--2-5-6---3-2-3-5--2-5-6---3-2-6-6-5-4b--|
  |PM * * * *  * * *   * * * *  * * *   * * * *
  |
  |  (guitar 2 - vibrate a bit)
E |--------------------------------------------------------------------|
B |---5--5--5--5--5--5--5--------------12--12--12--12--12--12--12--12--|
G |--------------------------------------------------------------------|
D |--------------------------------------------------------------------|
A |--------------------------------------------------------------------|
D |--------------------------------------------------------------------|


    Chorus: (guitar 1)
E |----------------------------------------------|
B |----------------------------------------------|
G |---6-6--------------------6-6--------9--------|
D |---6-6--6-6----4-6-7------6-6--6-6---9--9-----|
A |---4-4--6-6----4-6-7------4-4--6-6---7--9-----|
D |--------6-6----4-6-7-----------6-6------9-----|

E |---------------------------------------------------|
B |---------------------------------------------------|
G |---6-6--------------------6-6--------9-------------|
D |---6-6--6-6----4-6-7------6-6--6-6---9--7--7--7--7-|
A |---4-4--6-6----4-6-7------4-4--6-6---7--7--7--7--7-|
D |--------6-6----4-6-7-----------6-6------7--7--7--7-|


   Bridge:
E |-----------------------------------------------|
B |-----------------------------------------------|
G |---6-6-------------------6-6-------------------|
D |---6-6--6-6--4-4--7-7----6-6--6-6--4-4--7-7----|
A |---4-4--6-6--4-4--7-7----4-4--6-6--4-4--7-7----|
D |--------6-6--4-4--7-7---------6-6--4-4--7-7----|

E |-----------------------------------------------|
B |-----------------------------------------------|
G |---6-6-------------------6-6-------------------|
D |---6-6--6-6--4-4--7-7----6-6--6-6--4-4--7-7----|
A |---4-4--6-6--4-4--7-7----4-4--6-6--4-4--7-7----|
D |--------6-6--4-4--7-7---------6-6--4-4--7-7----|


   Solo: (guitar 1)
E |--------------------------------------------------------------------|
B |--------------------------------------------------------------------|
G |--------------------------------------------------------------------|
D |--------------------------------------------------------------------|
A |--------------------------------------------------------------------|
D |--------------------------------------------------------------------|
  |
  | (guitar 2 - palm muted)
E |--------------------------------------------------------------------|
B |--------------------------------------------------------------------|
G |--------------------------------------------------------------------|
D |--------------------------------------------------------------------|
A |---3-3-3---2----0-0--2-2----2-2-0---3-3-3---2----0-3--0-2----2-2-0--|
D |---3-3-3---2----0-0--2-2----2-2-0---3-3-3---2----0-3--0-2----2-2-0--|
 
    (guitar 1)
E |--------------------------------------------------------------------|
B |--------------------------------------------------------------------|
G |--------------------------------------------------------------------|
D |--------------------------------------------------------------------|
A |--------------------------------------------------------------------|
D |--------------------------------------------------------------------|
  |
  | (guitar 2 - palm muted)
E |--------------------------------------------------------------------|
B |--------------------------------------------------------------------|
G |--------------------------------------------------------------------|
D |--------------------------------------------------------------------|
A |---3-3-3---2----0-0--2-2----2-2-0---3-3-3---2----0-3--0-2----2-2-0--|
D |---3-3-3---2----0-0--2-2----2-2-0---3-3-3---2----0-3--0-2----2-2-0--|


   Solo 2: (guitar 2)
E |--------------------------------------------------------------------|
B |--------------------------------------------------------------------|
G |--------------------------------------------------------------------|
D |--------------------------------------------------------------------|
A |--------------------------------------------------------------------|
D |--------------------------------------------------------------------|
  |
  | (guitar 2 - palm muted)
E |--------------------------------------------------------------------|
B |--------------------------------------------------------------------|
G |--------------------------------------------------------------------|
D |--------------------------------------------------------------------|
A |---3-3-3---2----0-0--2-2----2-2-0---3-3-3---2----0-3--0-2----2-2-0--|
D |---3-3-3---2----0-0--2-2----2-2-0---3-3-3---2----0-3--0-2----2-2-0--|
 
    (guitar 1)
E |--------------------------------------------------------------------|
B |--------------------------------------------------------------------|
G |--------------------------------------------------------------------|
D |--------------------------------------------------------------------|
A |--------------------------------------------------------------------|
D |--------------------------------------------------------------------|
  |
  | (guitar 2 - palm muted)
E |--------------------------------------------------------------------|
B |--------------------------------------------------------------------|
G |--------------------------------------------------------------------|
D |--------------------------------------------------------------------|
A |---3-3-3---2----0-0--2-2----2-2-0---3-3-3---2----0-3--0-2----2-2-0--|
D |---3-3-3---2----0-0--2-2----2-2-0---3-3-3---2----0-3--0-2----2-2-0--|


   Post solo:
E |-----------------------------------------|
B |-----------------------------------------|
G |-----------------------------------------|
D |---2--2--2--2--2--2--2---7--7--7--7--7---|
A |---2--2--2--2--2--2--2---7--7--7--7--7---|
D |---2--2--2--2--2--2--2---7--7--7--7--7---|


    Chorus: (guitar 1)
E |----------------------------------------------|
B |----------------------------------------------|
G |---6-6--------------------6-6--------9--------|
D |---6-6--6-6----4-6-7------6-6--6-6---9--9-----|
A |---4-4--6-6----4-6-7------4-4--6-6---7--9-----|
D |--------6-6----4-6-7-----------6-6------9-----|

E |---------------------------------------------------|
B |---------------------------------------------------|
G |---6-6--------------------6-6--------9-------------|
D |---6-6--6-6----4-6-7------6-6--6-6---9--7--7--7--7-|
A |---4-4--6-6----4-6-7------4-4--6-6---7--7--7--7--7-|
D |--------6-6----4-6-7-----------6-6------7--7--7--7-|


    Outro: (both guitars)
E |--------------------------------------------------------------------|
B |--------------------------------------------------------------------|
G |--------------------------------------------------------------------|
D |--------------------------------------------------------------------|
A |---3-2-3-5--2-5-6---3-2-3-5--2-5-6---3-2-3-5--2-5-6---3-2-----------|
D |---3-2-3-5--2-5-6---3-2-3-5--2-5-6---3-2-3-5--2-5-6---3-2-6-6-5-4b--|
  |
  | (guitar 2)
E |--------------------------------------------------------------------|
B |--14--14--14--14--14--14--14--14--14--14--14--14--14--14--14--14----|
G |--------------------------------------------------------------------|
D |--------------------------------------------------------------------|
A |--------------------------------------------------------------------|
D |--------------------------------------------------------------------|

    (guitar 1)
E |--------------------------------------------------------------------|
B |--------------------------------------------------------------------|
G |--------------------------------------------------------------------|
D |--------------------------------------------------------------------|
A |---3-2-3-5--2-5-6---3-2-3-5--2-5-6---3-2-3-5--2-5-6---3-2-----------|
D |---3-2-3-5--2-5-6---3-2-3-5--2-5-6---3-2-3-5--2-5-6---3-2-6-6-5-4b--|
  |
  | (guitar 2)
E |--------------------------------------------------------------------|
B |--14--14--14--14--14--14--14--14--14--14--14--14--14--14--14--14----|
G |--------------------------------------------------------------------|
D |--------------------------------------------------------------------|
A |--------------------------------------------------------------------|
D |--------------------------------------------------------------------|
comments
We did not receive enough feedback on this tab! Please rate:
print report bad tab
1 2 3 4 5
I want to post or [tab]
guest
You may want to rate the tab now too:
select rating
Please do not post tabs as comments. Select "correction" instead!