Oops, an error
Loading. Please wait.

Sad Eyes Bass Tab

425 views 1 this week
no commentswrite comment
1 2 3 4 5
please rate
Autoscroll
+/-
esc
set tempo
stop
Contributor
Hey! There's an official Ultimate Guitar app which is ideal
for learning songs when you're away from computer. Get the app
WARNING: You are trying to view
                                    content from Ultimate-Guitar.com
                                    in an unauthorized application,
                                    which is prohibited.

                                    Please use an official Ultimate
                                    Guitar Tabs application for iPhone,
                                    iPad or Android to access legitimate
                                    chords, guitar, bass, and drum tabs
                                    from Ultimate-Guitar.com database.

                                    Type "ultimate guitar tabs" in Apple
                                    App Store's or Android Market's
                                    search to find the application.
Sad Eyes
Robert John
Bass Tab

216BPM, 3/4

Intro

|-------|-------|-------|-------|-------|-------|-------|-------|
|-------|-------|-------|-------|-------|-------|-------|-------|
|-------|-------|-------|-------|-------|-------|-------|-------|
|-------|-------|-------|-------|-------|-------|-------|-------|

|-------|-------|-------|-------|-------|-------|--------|----------|
|-------|-------|-------|-------|-------|-------|--------|----------|
|-------|-------|-------|-------|-------|-------|--------|-------3--|
|-------|-------|-------|-------|-------|-------|-----3--|-3--5-----|

Extended Intro from longer version

||---------|---------|---------|--------|--------|---------|---------|--------|
||o--------|-----/7p=|=5h===7--|--------|--------|-----/7p=|=5h===7--|--------|
||o-3------|---------|---------|-----3--|-5------|---------|---------|-----5--|
||---------|---------|---------|--------|--------|---------|---------|--------|

|--------|---------|---------|--------|--------|-------|---------|-----------||
|--------|---------|---------|--------|--------|-------|---------|----------o||
|--------|-----/5p=|=3h===5--|--------|--------|-------|---------|-------3--o||
|-1------|---------|---------|-----5--|-3------|-------|---3--3--|-3--5------||

Verse

|--------|--------|--------|---------|--------|--------|--------|----------|
|--------|--------|--------|---------|--------|--------|--------|----------|
|-3------|-----3--|-3------|---------|-3------|-----3--|-3------|-------5--|
|--------|--------|--------|---3--5--|--------|--------|--------|-3--5-----|

|--------|--------|--------|---------|--------|-------|----------|----------|
|--------|--------|--------|---------|--------|-------|----------|----------|
|-3------|-----3--|-3------|---------|-3------|-------|----------|-------3--|
|--------|--------|--------|---3--5--|--------|-------|-3--3--3--|-3--5-----|

|--------|--------|--------|---------|--------|--------|--------|----------|
|--------|--------|--------|---------|--------|--------|--------|----------|
|-3------|-----3--|-3------|---------|-3------|-----3--|-3------|-------5--|
|--------|--------|--------|---3--5--|--------|--------|--------|-3--5-----|

|--------|--------|--------|---------|--------|---------|--------|---------|
|--------|--------|--------|---------|--------|---5-----|--------|---------|
|-3------|-----3--|-3------|---------|--------|------5--|--------|---------|
|--------|--------|--------|---3--5--|-3------|---------|-3------|-----5h7-|

|--------|-------|-------|-------|--------|-------|--------|---------|
|--------|-------|-------|-------|--------|-------|-7------|---7\----|
|-5------|-------|-------|-------|-8------|-------|--------|---------|
|--------|-------|-------|-------|--------|-------|--------|---------|

Chorus

|--------|---------|---------|--------|--------|---------|---------|---------|
|--------|-----/7p=|=5h===7--|--------|--------|-----/7p=|=5h===7--|---------|
|-3------|---------|---------|-----3--|-5------|---------|---------|---5-----|
|--------|---------|---------|--------|--------|---------|---------|------5--|

|--------|---------|---------|--------|--------|---------|----------|----------|
|--------|---------|---------|--------|--------|---------|----------|----------|
|--------|-----/5p=|=3h===5--|--------|-3------|---------|----------|-------3--|
|-1------|---------|---------|-----3--|--------|---0--1--|-3--3--3--|-3--5-----|

|--------|---------|---------|--------|--------|---------|---------|--------|
|--------|-----/7p=|=5h===7--|--------|--------|-----/7p=|=5h===7--|--------|
|-3------|---------|---------|-----3--|-5------|---------|---------|--------|
|--------|---------|---------|--------|--------|---------|---------|-----5--|

|--------|---------|---------|---------|--------|-------|---------|----------|
|--------|---------|---------|---------|--------|-------|---------|----------|
|--------|-----/5p=|=3h===5--|---------|-3------|-------|---------|-------3--|
|-1------|---------|---------|---5--3--|--------|-------|---3--3--|-3--5-----|

Verse

|--------|--------|--------|---------|--------|--------|--------|----------|
|--------|--------|--------|---------|--------|--------|--------|----------|
|-3------|-----3--|-3------|---------|-3------|-----3--|-3------|-------5--|
|--------|--------|--------|---3--5--|--------|--------|--------|-3--5-----|

|--------|--------|--------|---------|--------|--------|----------|----------|
|--------|--------|--------|---------|--------|--------|----------|----------|
|-3------|-----3--|-3------|---------|-3------|-----3--|----------|-------3--|
|--------|--------|--------|---3--5--|--------|--------|-3--3--3--|-3--5-----|

|--------|--------|--------|---------|--------|--------|--------|----------|
|--------|--------|--------|---------|--------|--------|--------|----------|
|-3------|-----3--|-3------|---------|-3------|-----3--|-3------|-------5--|
|--------|--------|--------|---3--5--|--------|--------|--------|-3--5-----|

|--------|--------|--------|----------|-12------|---------|--------|--------|
|--------|--------|--------|----------|---------|---------|--------|--------|
|-3------|-----3--|-3------|-----/10--|---------|---------|--------|--------|
|--------|--------|--------|----------|---------|---3--3--|-3------|-3------|

|--------|-------|-------|-------|--------|---------|-----------|-----------|
|--------|-------|-------|-------|--------|---------|-/7--7--7--|-7--7\-----|
|-5------|-------|-------|-------|-8------|---8--8--|-----------|-----------|
|--------|-------|-------|-------|--------|---------|-----------|--------3--|

Chorus

|--------|---------|---------|--------|--------|---------|---------|---------|
|--------|-----/7p=|=5h===7--|--------|--------|-----/7p=|=5h===7--|---------|
|-3------|---------|---------|-----3--|-5------|---------|---------|---5-----|
|--------|---------|---------|--------|--------|---------|---------|------5--|

|--------|---------|---------|---------|--------|---------|----------|----------|
|--------|---------|---------|---------|--------|---------|----------|----------|
|--------|-----/5p=|=3h===5--|---------|-3------|---7--5--|----------|-------3--|
|-1------|---------|---------|---3--5--|--------|---------|-3--3--3--|-3--5-----|

|--------|---------|---------|--------|--------|---------|---------|---------|
|--------|-----/7p=|=5h===7--|--------|--------|-----/7p=|=5h===7--|---------|
|-3------|---------|---------|-----3--|-5------|---------|---------|---5-----|
|--------|---------|---------|--------|--------|---------|---------|------5--|

|--------|---------|---------|---------|--------|-------|----------|----------|
|--------|---------|---------|---------|--------|-------|----------|----------|
|--------|-----/5p=|=3h===5--|---------|-3------|-------|----------|-------3--|
|-1------|---------|---------|---5--3--|--------|-------|-3--3--3--|-3--5-----|

Solo

|--------|---------|---------|--------|--------|---------|---------|---------|
|--------|-----/7p=|=5h===7--|--------|--------|-----/7p=|=5h===7--|---------|
|-3------|---------|---------|-----3--|-5------|---------|---------|---5-----|
|--------|---------|---------|--------|--------|---------|---------|------5--|

|--------|---------|---------|---------|--------|----------|----------|----------|
|--------|---------|---------|---------|--------|----------|----------|----------|
|--------|-----/5p=|=3h===5--|---------|-3------|----------|----------|-------3--|
|-1------|---------|---------|---5--3--|--------|-0--1--2--|-3--3--3--|-3--5-----|

|--------|---------|---------|--------|--------|---------|---------|-5--------|
|--------|-----/7p=|=5h===7--|--------|--------|-----/7p=|=5h===7--|----7-----|
|-3------|---------|---------|-----3--|-5------|---------|---------|-------5--|
|--------|---------|---------|--------|--------|---------|---------|----------|

|--------|---------|---------|---------|--------|-------|----------|----------|
|--------|---------|---------|---------|--------|-------|----------|----------|
|--------|-----/5p=|=3h===5--|---------|-3------|-------|----------|-------3--|
|-1------|---------|---------|---5--3--|--------|-------|-3--3--3--|-3--5-----|

Chorus (Extended version has all four lines, single version just the last two)

|-------|---------|---------|--------|--------|---------|---------|---------|
|-------|-----/7p=|=5h===7--|--------|--------|-----/7p=|=5h===7--|---------|
|-------|---------|---------|-----3--|-5------|---------|---------|---5-----|
|-------|---------|---------|--------|--------|---------|---------|------5--|

|--------|---------|---------|----------|--------|--------|-12----------|----------|
|--------|---------|---------|----------|--------|--------|-----12------|----------|
|--------|-----/5p=|=3h===5--|----------|-3------|---/----|---------10--|-------3--|
|-1------|---------|---------|-5--3--5--|--------|--------|-------------|-3--5-----|

|--------|---------|---------|--------|--------|---------|---------|-5-------|
|--------|-----/7p=|=5h===7--|--------|--------|-----/7p=|=5h===7--|------7--|
|-3------|---------|---------|-----3--|-5------|---------|---------|---------|
|--------|---------|---------|--------|--------|---------|---------|---------|

|--------|---------|---------|----------|---------|---------|----------|----------|
|--------|---------|---------|-3--------|---------|---------|----------|----------|
|--------|-----/5p=|=3h===5--|----------|-3--3----|---------|----------|----------|
|-1------|---------|---------|----5--3--|---------|---3--0--|-5--5--5--|-5--7--5--|

Chord change

|--------|---------|---------|--------|--------|---------|---------|--------|
|--------|-----/9p=|=7h===9--|--------|--------|---------|---------|--------|
|-5------|---------|---------|-----5--|--------|---------|---------|--------|
|--------|---------|---------|--------|-0------|-----/7p=|=5h===7--|-----7--|

|--------|---------|---------|---------|--------|----------|----------|----------|
|--------|---------|---------|---------|--------|----------|----------|----------|
|--------|-----/7p=|=5h===7--|---------|-5------|----------|----------|----------|
|-3------|---------|---------|---7--5--|--------|-2--3--4--|-5--5--5--|-5--7--5--|

|--------|---------|---------|--------|--------|---------|---------|---------|
|--------|---------|---------|--------|--------|---------|---------|---------|
|-5------|---------|---------|--------|--------|---------|---------|---------|
|--------|-----/7p=|=5h===7--|-----7--|-0------|-----/7p=|=5h===7--|---7--5--|

|--------|---------|---------|---------|--------|---------|----------|----------|
|--------|---------|---------|---------|--------|---------|----------|----------|
|--------|-----/7p=|=5-------|---------|-5------|---9--7--|----------|----------|
|-3------|---------|------7--|---7--5--|--------|---------|-5--5--5--|-5--7--5--|

|--------|----------|---------|--------|--------|---------|---------|---------|
|--------|----------|---------|--------|--------|---------|---------|---------|
|-5------|----------|---------|--------|--------|---------|---------|---------|
|--------|---5--/7p=|=5h===7--|-----7--|-0------|-----/7p=|=5h===7--|---5--7--| fade
comments
We did not receive enough feedback on this tab! Please rate:
print report bad tab
1 2 3 4 5
I want to post or [tab]
guest
You may want to rate the tab now too:
select rating
Please do not post tabs as comments. Select "correction" instead!