Oops, an error
Loading. Please wait.

Young Turks Tab

ver1
ver1

Whole song

Interactive

More versions @911Tabs.com
13,886 views 6 this week
1 commentread comment
1 2 3 4 5
accurate
x 4
Autoscroll
+/-
esc
set tempo
stop
Contributor
Difficulty
Tabbers playing skills
intermediate
intermediate ++
WARNING: You are trying to view
                                    content from Ultimate-Guitar.com
                                    in an unauthorized application,
                                    which is prohibited.

                                    Please use an official Ultimate
                                    Guitar Tabs application for iPhone,
                                    iPad or Android to access legitimate
                                    chords, guitar, bass, and drum tabs
                                    from Ultimate-Guitar.com database.

                                    Type "ultimate guitar tabs" in Apple
                                    App Store's or Android Market's
                                    search to find the application.
                                   YOUNG TURKS
                           As recorded by Rod Stewart
                     (From the 1981 Album TONIGHT I'M YOURS)

Words by Rod Stewart

Music by Duane Hitchings, Carmine Appice
Arranged by Duane Hitchings, Carmine Appice, Rod Stewart
Transcribed by Donkey Fly

Gtr 1 Is Clean                  STANDARD TUNING (EBGDAE)
Gtr 2 Is Synth
Gtr 3 Is Keyboard
Gtr 4 Is Clean 2

I've rated it at intermeiate because some of the riffs are slightly tricky but beginners 
be able to have a fair try at this.

Check out The Power Tab.....Guitar Pro TAB will Be Up Soon Too

 Intro
  Q=160
 4/4
  Gtr II
|-----------|---------------|-----------|------------------|
|-----------|---------11----|-----------|------------------|
|-10--------|-(10)----------|-12--------|-(12)-------------|
|-----------|---------------|-----------|------------------|
|-----------|---------------|-----------|------------------|
|-----------|---------------|-----------|------------------|
|
| Gtr I
|-----------|---------------|-----------|------------------|
|-----------|---------------|-----------|------------------|
|-----------|---------------|-----------|------------------|
|-----------|---------------|-----------|------------------|
|-----------|---------------|-----------|---------6-8-10---|
|-----------|---------------|-----------|------------------|


|-----------|---------------|-----------|-----------------|
|-----------|---------11----|-----------|-----------------|
|-10--------|-(10)----------|-12--------|-(12)------------|
|-----------|---------------|-----------|-----------------|
|-----------|---------------|-----------|-----------------|
|-----------|---------------|-----------|-----------------|
|
|-----------|---------------|-----------|-----------------|
|-----------|---------------|-----------|-----------------|
|-----------|---------------|-----------|-----------------|
|-----------|----------8----|-----------|-----------------|
|--8--------|---------------|-10--------|---------6-8-10--|
|-----------|---------------|-----------|-----------------|


|-------------------|-----------------------|
|-------11-13--15---|-(15)---11-13-15-13-11-|
|-10-12-------------|-----------------------|
|-------------------|-----------------------|
|-------------------|-----------------------|
|-------------------|-----------------------|
|
|-------------------|-----------------------|
|-------------------|-----------11--x-11----|
|--7----------------|--(7)------10--x-10----|
|--8----------------|--(8)-------8--x--8----|
|--8----------------|--(8)------------------|
|--6----------------|--(6)------------------|


|-------------------------|-----------------------|
|-------11----------------|-----------------------|
|-10-12----12----(12)-----|----(12)---------------|
|-------------------------|-----------------------|
|-------------------------|-----------------------|
|-------------------------|-----------------------|
|
|-------------------------|-----------------------|
|--8----------------------|-11---8--9-8----8------|
|--8------------------10--|-------------10---7----|
|--8----------------------|--------------------10-|
|--6----------------------|-----------------------|
|-------------------------|-----------------------|


|-------------------|-----------------------|
|-------11-13--15---|-(15)---11-13-15-13-11-|
|-10-12-------------|-----------------------|
|-------------------|-----------------------|
|-------------------|-----------------------|
|-------------------|-----------------------|
|
|-------------------|-----------------------|
|-------------------|--------11--x-11-------|
|--7----------------|--(7)---10--x-10-------|
|--8----------------|--(8)----8--x--8-------|
|--8----------------|--(8)------------------|
|--6----------------|--(6)------------------|


|---------------------|-------------------------------|
|-------11------------|-------------------------------|
|-10-12----12----(12)-|-(12)--------------------------|
|---------------------|-------------------------------|
|---------------------|-------------------------------|
|---------------------|-------------------------------|
|
|---------------------|-------------------------------|
|--8------------------|--16--13-----------------------|
|--8--------------12--|---------15-12----------10-10--|
|--8------------------|---------------15-13----10-10--|
|--6------------------|---------------------15--8--8--|
|---------------------|-------------------------------|


 Verse
  Gtr I
|-----------|-------------|------------|---------------------|
|-----------|-------------|--------8-x-|---------------------|
|-10--------|-(10)--------|--------8-x-|--8------------------|
|-10--------|-(10)--------|------------|-----10-8-10----(10)-|
|--8--------|--(8)--------|------------|---------------------|
|-----------|-------------|------------|---------------------|
|
| Gtr II
|-13--------|-(13)--------|-8----------|-(8)-----------------|
|-----------|-------------|------------|---------------------|
|-10--------|-(10)--------|-5----------|-(5)-----------------|
|-----------|-------------|------------|---------------------|
|-----------|-------------|------------|---------------------|
|-----------|-------------|------------|---------------------|


|-----------|-------------|-------------------|-------------------------|
|-----------|-------------|-------------------|-----11-x----------------|
|-----------|-------------|------10b12--(10)--|-12-------10-12-10-------|
|-----------|-------------|-------------------|-------------------13-10-|
|-----------|-------------|-------------------|-------------------------|
|-----------|-------------|-------------------|-------------------------|
|
|-13--------|-(13)--------|-8-----------------|-(8)---------------------|
|-----------|-------------|-------------------|-------------------------|
|-10--------|-(10)--------|-5-----------------|-(5)---------------------|
|-----------|-------------|-------------------|-------------------------|
|-----------|-------------|-------------------|-------------------------|
|-----------|-------------|-------------------|-------------------------|


|-------------|-------------|----------------|---------------------|
|-------------|-------------|----------------|-------8---8---------|
|-------------|-------------|--------10b12-x-|-10--x-8---8---------|
|-(10)--------|-------------|----------------|---------x---10-8-10-|
|-------------|-------------|----------------|---------------------|
|-------------|-------------|----------------|---------------------|
|
|--13---------|-(13)--------|-8--------------|-(8)-----------------|
|-------------|-------------|----------------|---------------------|
|--10---------|-(10)--------|-5--------------|-(5)-----------------|
|-------------|-------------|----------------|---------------------|
|-------------|-------------|----------------|---------------------|
|-------------|-------------|----------------|---------------------|


|-------------|-------------|---------------|--------------------------|
|-------------|-------------|--------11b13--|-11--------11-------------|
|-------------|-------------|---------------|-----10-12----12-10-------|
|-(10)--------|-------------|---------------|--------------------13-10-|
|-------------|-------------|---------------|--------------------------|
|-------------|-------------|---------------|--------------------------|
|
|--13---------|-(13)--------|-8-------------|-(8)----------------------|
|-------------|-------------|---------------|--------------------------|
|--10---------|-(10)--------|-5-------------|-(5)----------------------|
|-------------|-------------|---------------|--------------------------|
|-------------|-------------|---------------|--------------------------|
|-------------|-------------|---------------|--------------------------|


|-------------|-------------|-------------|----------------------|
|-------------|-------------|-------------|--8-----10-8----------|
|-(10)--------|-------------|-------------|--8-----10-8----------|
|-------------|-------------|--------8-10-|-----10-------10-8-10-|
|-------------|-------------|-------------|----------------------|
|-------------|-------------|-------------|----------------------|
|
|--13---------|-(13)--------|-8-----------|-(8)------------------|
|-------------|-------------|-------------|----------------------|
|--10---------|-(10)--------|-5-----------|-(5)------------------|
|-------------|-------------|-------------|----------------------|
|-------------|-------------|-------------|----------------------|
|-------------|-------------|-------------|----------------------|


|-------------|-------------|---------------|--------11-------------------|
|-------------|-------------|------11b13----|-11b13=====11r-(11)b13--11---|
|-------------|-------------|---------------|-----------------------------|
|-(10)--------|-------------|---------------|-----------------------------|
|-------------|-------------|---------------|-----------------------------|
|-------------|-------------|---------------|-----------------------------|
|
|--13---------|-(13)--------|-8-------------|-(8)-------------------------|
|-------------|-------------|---------------|-----------------------------|
|--10---------|-(10)--------|-5-------------|-(5)-------------------------|
|-------------|-------------|---------------|-----------------------------|
|-------------|-------------|---------------|-----------------------------|
|-------------|-------------|---------------|-----------------------------|


|-------------|-------------|----------------|--------------------|
|-(11)--------|-------------|----------------|--8-----10-8----(8)-|
|-------------|-------------|--------10b12-x-|--8-----10-8----(8)-|
|-------------|-------------|----------------|-----10-------------|
|-------------|-------------|----------------|--------------------|
|-------------|-------------|----------------|--------------------|
|
|--13---------|-(13)--------|-8--------------|-(8)----------------|
|-------------|-------------|----------------|--------------------|
|--10---------|-(10)--------|-5--------------|-(5)----------------|
|-------------|-------------|----------------|--------------------|
|-------------|-------------|----------------|--------------------|
|-------------|-------------|----------------|--------------------|


|------------|-------------|-----------13-10-|--11--10---------------------|
|-(8)--------|-------------|-----------------|---------13b15-x-11----------|
|-(8)--------|-------------|--------10-------|--------------------12-10----|
|------------|-------------|-----------------|-----------------------------|
|------------|-------------|-----------------|-----------------------------|
|------------|-------------|-----------------|-----------------------------|
|
|-13---------|-(13)--------|-18--------------|-(18)------------------------|
|------------|-------------|-----------------|-----------------------------|
|-10---------|-(10)--------|-15--------------|-(15)------------------------|
|------------|-------------|-----------------|-----------------------------|
|------------|-------------|-----------------|-----------------------------|
|------------|-------------|-----------------|-----------------------------|


 Chorus
  Gtr II
|-18-18-20----18----------|-18-18-20----18----------|
|----------20----20-18-20-|----------20----20-18-20-|
|-------------------------|-------------------------|
|-------------------------|-------------------------|
|-------------------------|-------------------------|
|-------------------------|-------------------------|
|
| Gtr III
|-18-18-20----18----------|-18-18-20----18----------|
|----------20----20-18-20-|----------20----20-18-20-|
|-------------------------|-------------------------|
|-------------------------|-------------------------|
|-------------------------|-------------------------|
|-------------------------|-------------------------|


|-15-13-15-18----(18)-|-15-13---------------|
|---------------------|-------16------------|
|---------------------|----------15----(15)-|
|---------------------|---------------------|
|---------------------|---------------------|
|---------------------|---------------------|
|
|-15-13-15-18----(18)-|-15-13---------------|
|---------------------|-------16------------|
|---------------------|----------15----(15)-|
|---------------------|---------------------|
|---------------------|---------------------|
|---------------------|---------------------|


|-18-18-20----18----------|-18-18-20----18----------|
|----------20----20-18-20-|----------20----20-18-20-|
|-------------------------|-------------------------|
|-------------------------|-------------------------|
|-------------------------|-------------------------|
|-------------------------|-------------------------|
|
|-18-18-20----18----------|-18-18-20----18----------|
|----------20----20-18-20-|----------20----20-18-20-|
|-------------------------|-------------------------|
|-------------------------|-------------------------|
|-------------------------|-------------------------|
|-------------------------|-------------------------|


|-15-13-15-18----(18)-|-15-13---------------|
|---------------------|-------16------------|
|---------------------|----------15----(15)-|
|---------------------|---------------------|
|---------------------|---------------------|
|---------------------|---------------------|
|
|-15-13-15-18----(18)-|-15-13---------------|
|---------------------|-------16------------|
|---------------------|----------15----(15)-|
|---------------------|---------------------|
|---------------------|---------------------|
|---------------------|---------------------|


 Post Chorus
  Gtr I
|-----------|-----------|----------------|-------------------|
|-----------|-^4--------|-^8-------------|--/13--13-11-(11)--|
|-^5--------|-^4--------|-^8-------10-12-|-------------------|
|-^6--------|-^4--------|-^8-------------|-------------------|
|-^6--------|-^2--------|-^6-------------|-------------------|
|-^4--------|-----------|----------------|-------------------|


|-----------|-------|
|-----------|-^4----|
|-^5--------|-^4----|
|-^6--------|-^4----|
|-^6--------|-^2----|
|-^4--------|-------|


 Pre-Verse
  Gtr II
|-------------------|-----------------------|
|-------11-13--15---|-(15)---11-13-15-13-11-|
|-10-12-------------|-----------------------|
|-------------------|-----------------------|
|-------------------|-----------------------|
|-------------------|-----------------------|
|
| Gtr I
|-------------------|-----------------------|
|-------------------|--------11--x-11-------|
|--7----------------|--(7)---10--x-10-------|
|--8----------------|--(8)----8--x--8-------|
|--8----------------|--(8)------------------|
|--6----------------|--(6)------------------|


|---------------------|----------------|
|-------11------------|----------------|
|-10-12----12----(12)-|-(12)-----------|
|---------------------|----------------|
|---------------------|----------------|
|---------------------|----------------|
|
|---------------------|----------------|
|--8------------------|---------9-x-8--|
|--8------------------|---------8-x-8--|
|--8------------------|----------------|
|--6------------------|----------------|
|---------------------|----------------|


|-------------------|-----------------------|
|-------11-13--15---|-(15)---11-13-15-13-11-|
|-10-12-------------|-----------------------|
|-------------------|-----------------------|
|-------------------|-----------------------|
|-------------------|-----------------------|
|
|-------------------|-----------------------|
|-------------------|-----------11--x-11----|
|--7----------------|--(7)------10--x-10----|
|--8----------------|--(8)-------8--x--8----|
|--8----------------|--(8)------------------|
|--6----------------|--(6)------------------|


|---------------------|--------------------------|
|-------11------------|--------------------------|
|-10-12----12----(12)-|-(12)---------------------|
|---------------------|--------------------------|
|---------------------|--------------------------|
|---------------------|--------------------------|
|
|---------------------|--------------------------|
|--8------------------|---------(9)-x-(8)--------|
|--8------------------|---------(8)-x-(8)-10-10--|
|--8------------------|-------------------10-10--|
|--6------------------|--------------------8--8--|
|---------------------|--------------------------|


 Verse 2
  Gtr I
|-----------|-------------|-----------------|--------------------------|
|-----------|-------------|-----------11----|--------------------------|
|-10--------|-(10)--------|-------/12----12-|-10b12--10b12r(10)-8------|
|-10--------|-(10)--------|-----------------|---------------------10---|
|--8--------|--(8)--------|-----------------|--------------------------|
|-----------|-------------|-----------------|--------------------------|
|
| Gtr II
|-13--------|-(13)--------|-8---------------|-(8)----------------------|
|-----------|-------------|-----------------|--------------------------|
|-10--------|-(10)--------|-5---------------|-(5)----------------------|
|-----------|-------------|-----------------|--------------------------|
|-----------|-------------|-----------------|--------------------------|
|-----------|-------------|-----------------|--------------------------|


|-----------|-------------|--------------------------|-----------------------|
|-11--------|-------------|-11b13--11b13--11b13--11--|--8--11-8--------------|
|-----------|-------------|--------------------------|----------10-8---------|
|-----------|-------------|--------------------------|---------------10-8-10-|
|-----------|-------------|--------------------------|-----------------------|
|-----------|-------------|--------------------------|-----------------------|
|
|-13--------|-(13)--------|--8-----------------------|-(8)-------------------|
|-----------|-------------|--------------------------|-----------------------|
|-10--------|-(10)--------|--5-----------------------|-(5)-------------------|
|-----------|-------------|--------------------------|-----------------------|
|-----------|-------------|--------------------------|-----------------------|
|-----------|-------------|--------------------------|-----------------------|


|-----------|-------------|----------------|---------------------|
|-11--------|-------------|----------------|--8------------------|
|-----------|-------------|--------10b12-x-|--8------------------|
|-----------|-------------|----------------|-----10-8-10----(10)-|
|-----------|-------------|----------------|---------------------|
|-----------|-------------|----------------|---------------------|
|
|-13--------|-(13)--------|-8--------------|-(8)-----------------|
|-----------|-------------|----------------|---------------------|
|-10--------|-(10)--------|-5--------------|-(5)-----------------|
|-----------|-------------|----------------|---------------------|
|-----------|-------------|----------------|---------------------|
|-----------|-------------|----------------|---------------------|


|-----------|-------------|------------------------------|
|-----------|-------------|------------13----11----------|
|-----------|-------------|-10-(10)b12----12----12-10-12-|
|-----------|-------------|------------------------------|
|-----------|-------------|------------------------------|
|-----------|-------------|------------------------------|
|
|-13--------|-(13)--------|-18---------------------------|
|-----------|-------------|------------------------------|
|-10--------|-(10)--------|-15---------------------------|
|-----------|-------------|------------------------------|
|-----------|-------------|------------------------------|
|-----------|-------------|------------------------------|


|--------------------------------|
|--------------13----11----------|
|--10--(10)b12----12----12-10-12-|
|--------------------------------|
|--------------------------------|
|--------------------------------|
|
|-(18)---------------------------|
|--------------------------------|
|-(15)---------------------------|
|--------------------------------|
|--------------------------------|
|--------------------------------|


 Chorus
  Gtr II
|-18-18-20----18----------|-18-18-20----18----------|
|----------20----20-18-20-|----------20----20-18-20-|
|-------------------------|-------------------------|
|-------------------------|-------------------------|
|-------------------------|-------------------------|
|-------------------------|-------------------------|
|
| Gtr III
|-18-18-20----18----------|-18-18-20----18----------|
|----------20----20-18-20-|----------20----20-18-20-|
|-------------------------|-------------------------|
|-------------------------|-------------------------|
|-------------------------|-------------------------|
|-------------------------|-------------------------|


|-15-13-15-18----(18)-|-15-13---------------|
|---------------------|-------16------------|
|---------------------|----------15----(15)-|
|---------------------|---------------------|
|---------------------|---------------------|
|---------------------|---------------------|
|
|-15-13-15-18----(18)-|-15-13---------------|
|---------------------|-------16------------|
|---------------------|----------15----(15)-|
|---------------------|---------------------|
|---------------------|---------------------|
|---------------------|---------------------|


|-18-18-20----18----------|-18-18-20----18----------|
|----------20----20-18-20-|----------20----20-18-20-|
|-------------------------|-------------------------|
|-------------------------|-------------------------|
|-------------------------|-------------------------|
|-------------------------|-------------------------|
|
|-18-18-20----18----------|-18-18-20----18----------|
|----------20----20-18-20-|----------20----20-18-20-|
|-------------------------|-------------------------|
|-------------------------|-------------------------|
|-------------------------|-------------------------|
|-------------------------|-------------------------|


|-15-13-15-18----(18)-|-15-13---------------|
|---------------------|-------16------------|
|---------------------|----------15----(15)-|
|---------------------|---------------------|
|---------------------|---------------------|
|---------------------|---------------------|
|
|-15-13-15-18----(18)-|-15-13---------------|
|---------------------|-------16------------|
|---------------------|----------15----(15)-|
|---------------------|---------------------|
|---------------------|---------------------|
|---------------------|---------------------|


 Post Chorus
  Gtr I
|-----------|-----------|----------/13-|-x-13-11------------|
|-----------|-^4--------|-^8-------/13-|-x-13-13------------|
|-^5--------|-^4--------|-^8-----------|----------12-10-----|
|-^6--------|-^4--------|-^8-----------|----------------13--|
|-^6--------|-^2--------|-^6-----------|--------------------|
|-^4--------|-----------|--------------|--------------------|


|-----------|-------|
|-----------|-^4----|
|-^5--------|-^4----|
|-^6--------|-^4----|
|-^6--------|-^2----|
|-^4--------|-------|


 Interlude
  Gtr II
|-------------------|-----------------------|
|-------11-13--15---|-(15)---11-13-15-13-11-|
|-10-12-------------|-----------------------|
|-------------------|-----------------------|
|-------------------|-----------------------|
|-------------------|-----------------------|
|
| Gtr I
|-------------------|-----------------------|
|-------------------|--------11--x-11-------|
|--7----------------|--(7)---10--x-10-------|
|--8----------------|--(8)----8--x--8-------|
|--8----------------|--(8)------------------|
|--6----------------|--(6)------------------|


|---------------------|----------------|
|-------11------------|----------------|
|-10-12----12----(12)-|-(12)-----------|
|---------------------|----------------|
|---------------------|----------------|
|---------------------|----------------|
|
|---------------------|----------------|
|--8------------------|--------9-x-8---|
|--8------------------|--------8-x-8---|
|--8------------------|----------------|
|--6------------------|----------------|
|---------------------|----------------|


|-------------------|-----------------------|
|-------11-13--15---|-(15)---11-13-15-13-11-|
|-10-12-------------|-----------------------|
|-------------------|-----------------------|
|-------------------|-----------------------|
|-------------------|-----------------------|
|
|-------------------|-----------------------|
|-------------------|--------11--x-11-------|
|--7----------------|--(7)---10--x-10-------|
|--8----------------|--(8)----8--x--8-------|
|--8----------------|--(8)------------------|
|--6----------------|--(6)------------------|


|---------------------|----------------|
|-------11------------|----------------|
|-10-12----12----(12)-|-(12)-----------|
|---------------------|----------------|
|---------------------|----------------|
|---------------------|----------------|
|
|---------------------|----------------|
|--8------------------|--------9-x-8---|
|--8------------------|--------8-x-8---|
|--8------------------|----------------|
|--6------------------|----------------|
|---------------------|----------------|


 Solo
  Gtr IV
|------------|-------------|--------------------|---------------------|
|------------|-------------|--------------------|---------------------|
|------------|-------------|--------------------|---------------------|
|------------|-------------|--------------------|---------------------|
|-/8------6--|-/8------10--|-6------------------|-----------------6---|
|------------|-------------|---8-6-8--------(8)-|-(8)--------6-8------|
|
| Gtr I
|------------|-------------|--------------------|---------------------|
|------------|-------------|--------------------|-----------11-8------|
|------------|-------------|--------------8-10--|-12---10-8------10-8-|
|------------|-------------|---------8-10-------|---------------------|
|------------|-------------|--------------------|---------------------|
|------------|-------------|--------------------|---------------------|


|-------------|-------------|-----------------|--------------------------|
|-------------|-------------|-----------------|--------------------------|
|-------------|-------------|-----------------|--------------------------|
|-------------|-------------|-----------------|--------------------------|
|-/8-------6--|-/8------10--|-6---------------|--(6)----------------6----|
|-------------|-------------|-----------------|--------------6---8-------|
|
|-------------|-------------|-------------11--|-(11)---------------------|
|-------------|-------------|------11b13------|-------11b13----(11)-8----|
|-(8)---------|-------------|-----------------|-----------------------10-|
|-------------|-------------|-----------------|--------------------------|
|-------------|-------------|-----------------|--------------------------|
|-------------|-------------|-----------------|--------------------------|


|------------|-------------|-----------------------|
|------------|-------------|-----------------------|
|------------|-------------|-----------------------|
|------------|-------------|-----------------------|
|-/8------6--|-/8------10--|----6------------------|
|------------|-------------|------8--6-8----(8)----|
|
|------------|-------------|-----------------------|
|------------|-------------|-----------------------|
|------------|-------------|-----------------------|
|------------|-------------|----8-8-10-------------|
|------------|-------------|-----------------------|
|------------|-------------|-----------------------|


|----------------------------|
|----------------------------|
|----------------------------|
|----------------------------|
|-----------------------6----|
|-(8)---------6------8-------|
|
|----------------------------|
|----------------------------|
|--8--8------10b12r(10)-8----|
|-------10-8--------------10-|
|----------------------------|
|----------------------------|


|----------------|-------------|
|----------------|-------------|
|----------------|-------------|
|----------------|-------------|
|--/8---------6--|-/8------10--|
|----------------|-------------|
|
|----------------|-------------|
|----------------|-------------|
|-------10-------|-------------|
|-(10)-----------|-------------|
|----------------|-------------|
|----------------|-------------|


|------------------------|-----------------------|
|------------------------|-----------------------|
|------------------------|-----------------------|
|-8----------------------|-----------------------|
|----------------/10--8--|-(8)-------------------|
|------------------------|-----------------------|
|
|------------------------|-----------------------|
|-----------------11-----|-----------------8-----|
|------10b12==10-----10r-|-10b12r(10)-8------8---|
|------------------------|--------------10-------|
|------------------------|-----------------------|
|------------------------|-----------------------|


 Chorus
  Gtr II
|-18-18-20----18----------|-18-18-20----18----------|
|----------20----20-18-20-|----------20----20-18-20-|
|-------------------------|-------------------------|
|-------------------------|-------------------------|
|-------------------------|-------------------------|
|-------------------------|-------------------------|
|
| Gtr III
|-18-18-20----18----------|-18-18-20----18----------|
|----------20----20-18-20-|----------20----20-18-20-|
|-------------------------|-------------------------|
|-------------------------|-------------------------|
|-------------------------|-------------------------|
|-------------------------|-------------------------|


|-15-13-15-18----(18)-|-15-13---------------|
|---------------------|-------16------------|
|---------------------|----------15----(15)-|
|---------------------|---------------------|
|---------------------|---------------------|
|---------------------|---------------------|
|
|-15-13-15-18----(18)-|-15-13---------------|
|---------------------|-------16------------|
|---------------------|----------15----(15)-|
|---------------------|---------------------|
|---------------------|---------------------|
|---------------------|---------------------|


|-18-18-20----18----------|-18-18-20----18----------|
|----------20----20-18-20-|----------20----20-18-20-|
|-------------------------|-------------------------|
|-------------------------|-------------------------|
|-------------------------|-------------------------|
|-------------------------|-------------------------|
|
|-18-18-20----18----------|-18-18-20----18----------|
|----------20----20-18-20-|----------20----20-18-20-|
|-------------------------|-------------------------|
|-------------------------|-------------------------|
|-------------------------|-------------------------|
|-------------------------|-------------------------|


|-15-13-15-18----(18)-|-15-13---------------|
|---------------------|-------16------------|
|---------------------|----------15----(15)-|
|---------------------|---------------------|
|---------------------|---------------------|
|---------------------|---------------------|
|
|-15-13-15-18----(18)-|-15-13---------------|
|---------------------|-------16------------|
|---------------------|----------15----(15)-|
|---------------------|---------------------|
|---------------------|---------------------|
|---------------------|---------------------|


 Verse 3
  Gtr I
|-----------|-------------|--------------|-----------------|
|-----------|-------------|--------------|-----------------|
|-----------|-------------|--------------|--8-----10--8----|
|-----------|-------------|-------8-8-10-|-----10----------|
|-----------|-------------|--------------|-----------------|
|-----------|-------------|--------------|-----------------|
|
| Gtr II
|-13--------|-(13)--------|-8------------|-(8)-------------|
|-----------|-------------|--------------|-----------------|
|-10--------|-(10)--------|-5------------|-(5)-------------|
|-----------|-------------|--------------|-----------------|
|-----------|-------------|--------------|-----------------|
|-----------|-------------|--------------|-----------------|


|-----------|-------------|-------------8-|-11--8-----------------|
|-----------|-------------|------8-8-8----|-------11-8------------|
|-----------|-------------|------8-8-8----|------------10-8----8--|
|-----------|-------------|---------------|-----------------10----|
|-----------|-------------|---------------|-----------------------|
|-----------|-------------|---------------|-----------------------|
|
|-13--------|-(13)--------|-8-------------|-(8)-------------------|
|-----------|-------------|---------------|-----------------------|
|-10--------|-(10)--------|-5-------------|-(5)-------------------|
|-----------|-------------|---------------|-----------------------|
|-----------|-------------|---------------|-----------------------|
|-----------|-------------|---------------|-----------------------|


|------------|-------------|-----------------|--------------------|
|------------|-------------|-----------------|-10-----10-8----(8)-|
|-(8)--------|-------------|---------------8-|-10-----10-8----(8)-|
|------------|-------------|----------8-10---|-----10-------------|
|------------|-------------|-----8-10--------|--------------------|
|------------|-------------|-----------------|--------------------|
|
|-13---------|-(13)--------|-8---------------|-(8)----------------|
|------------|-------------|-----------------|--------------------|
|-10---------|-(10)--------|-5---------------|-(5)----------------|
|------------|-------------|-----------------|--------------------|
|------------|-------------|-----------------|--------------------|
|------------|-------------|-----------------|--------------------|


|-----------|-------------|-----------|-------------15-(15)S13----|
|-----------|-------------|-----------|---------------------------|
|-----------|-------------|-----------|--10--12-10--15-(15)S14----|
|-----------|-------------|-----------|---------------------------|
|-----------|-------------|-----------|---------------------------|
|-----------|-------------|-----------|---------------------------|
|
|-13--------|-(13)--------|-18--------|-(18)----------------------|
|-----------|-------------|-----------|---------------------------|
|-10--------|-(10)--------|-15--------|-(15)----------------------|
|-----------|-------------|-----------|---------------------------|
|-----------|-------------|-----------|---------------------------|
|-----------|-------------|-----------|---------------------------|


   Final Chorus
    Gtr II
||--18-18-20----18----------|-18-18-20----18----------|
||o----------20----20-18-20-|----------20----20-18-20-|
||--------------------------|-------------------------|
||--------------------------|-------------------------|
||o-------------------------|-------------------------|
||--------------------------|-------------------------|
|
|   Gtr III
||--18-18-20----18----------|-18-18-20----18----------|
||o----------20----20-18-20-|----------20----20-18-20-|
||--------------------------|-------------------------|
||--------------------------|-------------------------|
||o-------------------------|-------------------------|
||--------------------------|-------------------------|


                                              6x
|-15-13-15-18----(18)-|-15-13-----------------||
|---------------------|-------16-------------o||
|---------------------|----------15----(15)---||
|---------------------|-----------------------||
|---------------------|----------------------o||
|---------------------|-----------------------||
|
|                                             6x
|-15-13-15-18----(18)-|-15-13-----------------||
|---------------------|-------16-------------o||
|---------------------|----------15----(15)---||
|---------------------|-----------------------||
|---------------------|----------------------o||
|---------------------|-----------------------||
comments
print report bad tab
1 comment total.
0 reply
Khamphoumy wrote on August 6 2007, 02:24 am

I WANT THE GUITAR PRO VERSION, please Mr.

I want to post or [tab]
guest
You may want to rate the tab now too:
select rating
Please do not post tabs as comments. Select "correction" instead!