Oops, an error
Loading. Please wait.

Aint Too Proud To Beg Tab

8,230 views 15 this week
no commentswrite comment
1 2 3 4 5
worth learning
x 1
Autoscroll
+/-
esc
set tempo
stop
WARNING: You are trying to view
                                    content from Ultimate-Guitar.com
                                    in an unauthorized application,
                                    which is prohibited.

                                    Please use an official Ultimate
                                    Guitar Tabs application for iPhone,
                                    iPad or Android to access legitimate
                                    chords, guitar, bass, and drum tabs
                                    from Ultimate-Guitar.com database.

                                    Type "ultimate guitar tabs" in Apple
                                    App Store's or Android Market's
                                    search to find the application.
#----------------------------------PLEASE NOTE---------------------------------#
#This file is the author's own work and represents their interpretation of the #
#song. You may only use this file for private study, scholarship, or research. #
#------------------------------------------------------------------------------##

                             AIN'T TOO PROUD TO BEG
                        As recorded by The Rolling Stones
                  (From the 1974 Album IT'S ONLY ROCK 'N ROLL)

Words and Music by  Holland/Whitfield
Transcribed by Tone Jones

Gtr I (E A D G B E) - 'Bright Acoustic Piano'
Gtr II (E A D G B E) - 'Electric Guitar (clean)'
Gtr III (E A D G B E) - 'Vocals'
Gtr IV (E A D G B E) - 'Synth Voice'
Gtr V (E A D G B E) - 'Electric Guitar (muted)'
Gtr VI (E A D G B E) - 'Synth Voice'

 Intro                 Verse
  Q=116
 4/4
  Gtr I
  W          W          W                           Q   E S S S S  E  E  E
|----------|----------|--------------------------|----------------------------|
|----------|----------|--------------------------|----------0-1----1-----1----|
|----------|----------|--------------------------|----------2-2----2-----0----|
|----------|----------|--------------------------|----------3------------2----|
|----------|----------|--------------------------|----------------------------|
|----------|----------|--------------------------|----------------------------|
|
| Gtr III
| W          W          Q   E  E  +E   E  E  S S    Q   Q     E    E  E  S S
|----------|----------|----12-15-(15)------------|----------------------------|
|----------|----------|---------------17-15-13---|-13----------------13-------|
|----------|----------|--------------------------|-----14---------14----14----|
|----------|----------|--------------------------|----------------------------|
|----------|----------|--------------------------|----------------------------|
|----------|----------|--------------------------|----------------------------|
|
| Gtr VI
| W          W          W                           H         Q       E  E
|----------|----------|--------------------------|----------------------------|
|----------|----------|--------------------------|-----------------------4----|
|----------|----------|--------------------------|-----------------------4----|
|----------|----------|--------------------------|----------------------------|
|----------|----------|--------------------------|----------------------------|
|----------|----------|--------------------------|----------------------------|


  +W                      Q     E    S S  S S  S S  S S  E
|----------------------|-------------------------------------|
|-(1)------------------|---------------0--1----1----1--------|
|-(0)------------------|---------------2--2----2----2----0---|
|-(2)------------------|---------------3--3----3----3----1---|
|----------------------|-------------------------------------|
|----------------------|-------------------------------------|
|
|  Q   E  E  E  E E  E    Q    +S  S E    E    S S  E    S S
|-12-------------------|-------------------------------------|
|--------13-15-13---13-|----------------------13---13--------|
|----------------------|-14---(14)-------14-------------14---|
|----------------------|-------------------------------------|
|----------------------|-------------------------------------|
|----------------------|-------------------------------------|
|
|  W                     +Q    +S  S E    Q         E    E
|----------------------|-------------------------------------|
|--5-------------------|-(5)---(5)-----------------------4---|
|----------------------|---------------------------------4---|
|----------------------|-------------------------------------|
|----------------------|-------------------------------------|
|----------------------|-------------------------------------|


   W
|------------------------|
|------------------------|
|------------------------|
|--2---------------------|
|------------------------|
|------------------------|
|
|  Q  E  E  +E  E  E S S
|-12----10-(10)------8---|
|-----------------10-----|
|------------------------|
|------------------------|
|------------------------|
|------------------------|
|
|  W
|------------------------|
|--5---------------------|
|--5---------------------|
|------------------------|
|------------------------|
|------------------------|


  +Q        E S S  S S S S  S  S  E     W
|-----------------------------------|-----------------------|
|---------------0--1---1----1-----1-|-----------------------|
|---------------2--2---2----2-----0-|-----------------------|
|-(2)-----------3------3----3-----1-|---2-------------------|
|-----------------------------------|-----------------------|
|-----------------------------------|-----------------------|
|
|  E   S S  Q      E   E   +S  S  E    +E  E  E S S  Q   Q
|-10-------------------8---(8)---12-|-(12)------8---10--12--|
|-----10---10-----10----------------|--------10-------------|
|-----------------------------------|-----------------------|
|-----------------------------------|-----------------------|
|-----------------------------------|-----------------------|
|-----------------------------------|-----------------------|
|
| +Q        Q      Q        E     E     W
|-----------------------------------|-----------------------|
|-(5)-----------------------------4-|---5-------------------|
|-(5)-----------------------------4-|-----------------------|
|-----------------------------------|-----------------------|
|-----------------------------------|-----------------------|
|-----------------------------------|-----------------------|


 Chorus
  +S  S E    Q       S S E   E  E
|------------------------------------|
|--------------------1---1-----------|
|--------------------2---0-----------|
|-(2)----------------3-------2-------|
|-------------------------------2----|
|------------------------------------|
|
|  E    S S  Q       E   S S E  S S
|-10----8----------------8---8-------|
|-----------10------10---------10----|
|------------------------------------|
|------------------------------------|
|------------------------------------|
|------------------------------------|
|
| +Q        +S  S E  H
|------------------------------------|
|-(5)-------(5)----------------------|
|------------------------------------|
|------------------------------------|
|------------------------------------|
|------------------------------------|


  Q   Q     S S E   +S  S  S S   Q    Q     S S E +S  S  S S
|-----------5---5---(5)--------|------------5---5-(5)--------|
|-----5-----6---6---(6)--------|------5-----6---6-(6)--------|
|-----5-----5------------------|------5-----5---5-(5)--------|
|------------------------------|-----------------------------|
|-3------------------------3---|-3-----------------------3---|
|------------------------------|-----------------------------|
|
| Gtr II
| Q   S S E Q        S  S  E     Q    S S E Q      S  S  E
|------------------------------|-----------------------------|
|----17-------------18---------|-----17-----------18---------|
|----17-------------17---------|-----17----------------------|
|----17------------------------|-----17----------------------|
|------------------------------|-----------------------------|
|------------------------------|-----------------------------|
|
| Gtr III
| H         E   S S  E     E     E E  Q     E   E  E     E
|---------------8---12----10---|-8--------------8-------12---|
|------------------------------|-----------------------------|
|------------------------------|-----------------------------|
|------------------------------|-----------------------------|
|------------------------------|-----------------------------|
|------------------------------|-----------------------------|


    Q          Q     S S E +S  S  S S
|--------------------5---5-(5)--------|
|--------------5-----6---6-(6)--------|
|--------------5-----5---5-(5)--------|
|-------------------------------------|
|---3-----------------------------3---|
|-------------------------------------|
|
|   Q          S S E Q      S  S  E
|-------------------------------------|
|-------------17-----------18---------|
|-------------17-----------17---------|
|-------------17----------------------|
|-------------------------------------|
|-------------------------------------|
|
|  +S  S  S S  E   E Q      E     E
|-(12)-------------8------------------|
|--------10----------------------10---|
|-------------------------------------|
|-------------------------------------|
|-------------------------------------|
|-------------------------------------|


  Q    Q      S S E +S  S  S S    Q   E    E  S S E +S  S  S S
|-------------5---5-(5)--------|--------------5---5-(5)--------|
|------5------6---6-(6)--------|------5-------6---6-(6)--------|
|------5------5---5-(5)--------|------5-------5----------------|
|------------------------------|-------------------------------|
|-3------------------------3---|--3------------------------3---|
|------------------------------|-------------------------------|
|
| Q    S S  E Q      S  S  E      Q   E    E  Q      S  S  E
|------------------------------|-------------------------------|
|-----17------------18---------|-----17-------------18---------|
|-----17------------17---------|-----17-------------17---------|
|-----17-----------------------|-----17------------------------|
|------------------------------|-------------------------------|
|------------------------------|-------------------------------|
|
| E E  E    E S S E  E     S S    Q   S  S E  Q      S  S  E
|-------------8----------------|-17--15-17---------------------|
|-8--------10-------------10---|-------------17-----16----17---|
|------------------------------|-------------------------------|
|------------------------------|-------------------------------|
|------------------------------|-------------------------------|
|------------------------------|-------------------------------|


    H                 S S  E  +S  S  S S
|---------------------5----5--(5)--------|
|---------------------6----6--(6)--------|
|---------------------5----5--(5)--------|
|----------------------------------------|
|---3--------------------------------3---|
|----------------------------------------|
|
|   Q          S  S E Q        S  S  E
|----------------------------------------|
|-------------17--------------18---------|
|----------------------------------------|
|-------------17-------------------------|
|----------------------------------------|
|----------------------------------------|
|
|  +E   S  S  +S  S E E    E  +S  S  E
|-----------------------------------12---|
|-(17)-15-13-(13)---------13-(13)--------|
|----------------------------------------|
|----------------------------------------|
|----------------------------------------|
|----------------------------------------|


    Q        E E S S  E  +S  S  S S
|----------------5------------------|
|------------5---6----6--(6)--------|
|------------5--------5--(5)--------|
|-----------------------------------|
|---3---------------------------3---|
|-----------------------------------|
|
|   Q        E E Q        S  S  E
|-----------------------------------|
|-----------17-----------18---------|
|-----------17----------------------|
|-----------17----------------------|
|-----------------------------------|
|-----------------------------------|
|
|  +S   E S  Q   E    E  +S  S  E
|-(12)-12---------------------------|
|--------------------13-(13)--------|
|------------------------------14---|
|-----------------------------------|
|-----------------------------------|
|-----------------------------------|


                                Verse
   Q   E   E S S  E   +E     E     E   E    Q  H
|------------5-----------------|---3-------------------------|
|------5-----6----6---(6)------|---5-------------------------|
|------5-----5----5---(5)------|---5-------------------------|
|------------------------------|-----------------------------|
|------------------------------|-----------------------------|
|------------------------------|-----------------------------|
|
|  Q   S S E Q         S  S  E     W
|------------------------------|-----------------------------|
|-----17--------------18-------|-----------------------------|
|-----17-----------------------|-----------------------------|
|-----17--------------19-------|-----------------------------|
|------------------------------|-----------------------------|
|------------------------------|-----------------------------|
|
|  Q   Q     E    S S  S  S  E    +E   S S  Q  S  E. E  S S
|----------------------8----12-|-(12)-10---10--8-------------|
|----------------10------------|-----------------10----10----|
|-12---------------------------|-----------------------------|
|------------------------------|-----------------------------|
|------------------------------|-----------------------------|
|------------------------------|-----------------------------|


   W
|-------------------------------|
|-------------------------------|
|-------------------------------|
|-------------------------------|
|-------------------------------|
|-------------------------------|
|
| Gtr III
|  E E  S S E  E   E   E    S S
|-10-8------8--------------10---|
|------10-----10----------------|
|-------------------------------|
|-------------------------------|
|-------------------------------|
|-------------------------------|
|
| Gtr V
|  H           S S S S S S  S S
|-------------------------------|
|-------------------------------|
|-------------------------------|
|-------------------------------|
|--------------3---3-----0------|
|---------------------------3---|


   Q      Q     H            W
|--3----------------------|----------------------------|
|--5----------------------|----------------------------|
|-------------------------|----------------------------|
|-------------------------|----------------------------|
|-------------------------|----------------------------|
|-------------------------|----------------------------|
|
|  E  E  +E  E  E  E E  E    Q  E  E  S S S S E    S S
|-12-15-(15)--------------|---------------8---8--------|
|--------------15-13---13-|----------10-----------10---|
|-------------------------|-14----12-------------------|
|-------------------------|----------------------------|
|-------------------------|----------------------------|
|-------------------------|----------------------------|
|
|  E  E   Q     H            H        S S S S S S  S S
|-------------------------|----------------------------|
|-------------------------|----------------------------|
|-------------------------|----------------------------|
|-------------------------|----------------------------|
|--3----------------------|-----------3---3---3-0------|
|-------------------------|------------------------3---|


   Q      Q     H
|--3----------------------|
|--5----------------------|
|-------------------------|
|-------------------------|
|-------------------------|
|-------------------------|
|
|  Q      E  E  Q  E  S S
|-17----------------------|
|--------17-15-13---------|
|--------------------14---|
|-------------------------|
|-------------------------|
|-------------------------|
|
|  S S E  Q     H
|-------------------------|
|-------------------------|
|-------------------------|
|-------------------------|
|--3----------------------|
|-------------------------|


   W                                 Q    Q   H
|---------------------------------|--3----------------------|
|---------------------------------|--5----------------------|
|---------------------------------|-------------------------|
|---------------------------------|-------------------------|
|---------------------------------|-------------------------|
|---------------------------------|-------------------------|
|
|  E  E  +S  S E  S S S S S E   S    E E  Q   E  E  S S  E
|-12-10-(10)---8------8---8-8-----|-12---17-----------------|
|----------------10---------------|----------17-15-13---13--|
|---------------------------------|-------------------------|
|---------------------------------|-------------------------|
|---------------------------------|-------------------------|
|---------------------------------|-------------------------|
|
|  H              S S S S S S S S    W
|---------------------------------|-------------------------|
|---------------------------------|-------------------------|
|---------------------------------|-------------------------|
|---------------------------------|-------------------------|
|-----------------3---3---3-0-----|-------------------------|
|-----------------------------3---|-------------------------|


  S S  E    E S S  H
|---------------------------------|
|-3-----------3-------------------|
|-------------4-------------------|
|---------------------------------|
|---------------------------------|
|---------------------------------|
|
| E    S S  Q      E  S S  E  S S
|---------------------------------|
|-----13-------------13---13------|
|----------14-----14---------14---|
|---------------------------------|
|---------------------------------|
|---------------------------------|
|
| Gtr IV
| W
|---------------------------------|
|---------------------------------|
|---------------------------------|
|---------------------------------|
|---------------------------------|
|---------------------------------|


 Chorus
  Q  Q  S S E +S  S S S    Q     Q  S S  E +S  S  S S
|-------5---5-(5)-------|-----------5----5-(5)--------|
|----5--6---6-(6)-------|--------5--6----6-(6)--------|
|----5--5---5-(5)-------|--------5--5----5-(5)--------|
|-----------------------|-----------------------------|
|-3-----------------3---|--3----------------------3---|
|-----------------------|-----------------------------|
|
| W                        E   E Q  E    E  E     E
|-----------------------|------------------------12---|
|-----------------------|---------------13------------|
|-----------------------|-----14----------------------|
|-----------------------|-----------------------------|
|-----------------------|-----------------------------|
|-----------------------|-----------------------------|
|
| H     Q      E    E     +E   E Q  E    E  Q
|-----------------------|-----------------------------|
|-----------------------|-----------------------------|
|--------------0----0---|-(0)--5----2-----------------|
|-----------------------|------2----------------------|
|-----------------------|-----------------------------|
|-----------------------|-----------------------------|


    Q          Q     S S E +S  S  S S
|--------------------5---5-(5)--------|
|--------------5-----6---6-(6)--------|
|--------------5-----5---5-(5)--------|
|-------------------------------------|
|---3-----------------------------3---|
|-------------------------------------|
|
| Gtr II
|   Q          S S E Q      S  S  E
|-------------------------------------|
|-------------17-----------18---------|
|-------------17-----------17---------|
|-------------17----------------------|
|-------------------------------------|
|-------------------------------------|
|
| Gtr III
|  +S  S  S S  E   E Q      E     E
|-(12)-------------8------------------|
|--------10----------------------10---|
|-------------------------------------|
|-------------------------------------|
|-------------------------------------|
|-------------------------------------|


  Q    Q      S S E +S  S  S S    Q   E    E  S S E +S  S  S S
|-------------5---5-(5)--------|--------------5---5-(5)---------|
|------5------6---6-(6)--------|------5-------6---6-(6)---------|
|------5------5---5-(5)--------|------5-------5-----------------|
|------------------------------|--------------------------------|
|-3------------------------3---|--3------------------------3----|
|------------------------------|--------------------------------|
|
| Q    S S  E Q      S  S  E      Q   E    E  Q      S  S  E
|------------------------------|--------------------------------|
|-----17------------18---------|-----17-------------18----------|
|-----17-----------------------|-----17-------------17----------|
|-----17-----------------------|-----17-------------------------|
|------------------------------|--------------------------------|
|------------------------------|--------------------------------|
|
| E E  E    E S S E  E     S S    Q   S  S E  Q      S  S  E
|-------------8----------------|-17--15-17----------------------|
|-8--------10-------------10---|-------------17-----16----17----|
|------------------------------|--------------------------------|
|------------------------------|--------------------------------|
|------------------------------|--------------------------------|
|------------------------------|--------------------------------|


    H                 S S  E  +S  S  S S
|---------------------5----5--(5)--------|
|---------------------6----6--(6)--------|
|---------------------5----5--(5)--------|
|----------------------------------------|
|---3--------------------------------3---|
|----------------------------------------|
|
|   Q          S  S E Q        S  S  E
|----------------------------------------|
|-------------17--------------18---------|
|----------------------------------------|
|-------------17-------------------------|
|----------------------------------------|
|----------------------------------------|
|
|  +E   S  S  +S  S E E    E  +S  S  E
|-----------------------------------12---|
|-(17)-15-13-(13)---------13-(13)--------|
|----------------------------------------|
|----------------------------------------|
|----------------------------------------|
|----------------------------------------|


    Q        E E S S  E  +S  S  S S    Q   E   E  S S  E   +E     E
|----------------5------------------|-------------5--------------------|
|------------5---6----6--(6)--------|------5------6----6---(6)---------|
|------------5--------5--(5)--------|------5------5----5---(5)---------|
|-----------------------------------|----------------------------------|
|---3---------------------------3---|----------------------------------|
|-----------------------------------|----------------------------------|
|
|   Q        E E Q        S  S  E      Q   S S E  Q         S  S  E
|-----------------------------------|----------------------------------|
|-----------17-----------18---------|-----17---------------18----------|
|-----------17----------------------|-----17---------------17----------|
|-----------17----------------------|-----17---------------19----------|
|-----------------------------------|----------------------------------|
|-----------------------------------|----------------------------------|
|
|  +S   E S  Q   E    E  +S  S  E      Q   Q      E    S S  E     S S
|-(12)-12---------------------------|------------12---15---15----------|
|--------------------13-(13)--------|----------------------------17----|
|------------------------------14---|-12-------------------------------|
|-----------------------------------|----------------------------------|
|-----------------------------------|----------------------------------|
|-----------------------------------|----------------------------------|


 Verse
   E E  Q     H             W
|--3--------------------|------------------------------------|
|--5--------------------|------------------------------------|
|--5--------------------|------------------------------------|
|-----------------------|------------------------------------|
|-----------------------|------------------------------------|
|-----------------------|------------------------------------|
|
| Gtr III
|  Q    E  E  E  E E  E    +E   E  S S  E  Q        S S  S S
|-17--------------------|------------------------------------|
|---------15-17-15---17-|-(17)-15-13---15----------13---13---|
|------17---------------|-----------------14-----------------|
|-----------------------|------------------------------------|
|-----------------------|------------------------------------|
|-----------------------|------------------------------------|
|
| Gtr V
|  E E  Q     H             H              S S S S  S S  S S
|-----------------------|------------------------------------|
|-----------------------|------------------------------------|
|-----------------------|------------------------------------|
|-----------------------|------------------------------------|
|--3--------------------|------------------3---3------0------|
|-----------------------|--------------------------------3---|


   Q    Q   H
|--3------------------------|
|--5------------------------|
|---------------------------|
|---------------------------|
|---------------------------|
|---------------------------|
|
|  Q    Q   E  E  S  S S  S
|-12---17-------------------|
|-------------17-15-13---13-|
|----------17---------------|
|---------------------------|
|---------------------------|
|---------------------------|
|
|  E E  Q   H
|---------------------------|
|---------------------------|
|---------------------------|
|---------------------------|
|--3------------------------|
|---------------------------|


    W
|----------------------------------------|
|----------------------------------------|
|----------------------------------------|
|----------------------------------------|
|----------------------------------------|
|----------------------------------------|
|
|  +S   S  S  S  S S E E    E    E   E
|--------------------------11---12-------|
|-(13)-15-13-----------------------------|
|------------14-12-----------------------|
|----------------------------------------|
|----------------------------------------|
|----------------------------------------|
|
|   H                  S S  S S  S S S S
|----------------------------------------|
|----------------------------------------|
|----------------------------------------|
|----------------------------------------|
|----------------------3----3----3-0-----|
|------------------------------------3---|


   Q     Q        H              W
|--3--------------------------|------------------------------------|
|--5--------------------------|------------------------------------|
|-----------------------------|------------------------------------|
|-----------------------------|------------------------------------|
|-----------------------------|------------------------------------|
|-----------------------------|------------------------------------|
|
|  Q     S  E  S  E E  E  S S    E  E S S  S S  Q        E   S S
|-17--------------------------|-12-10-8---10-8---------------8-----|
|----------16-15-13------13---|----------------10-------10---------|
|---------------------14------|------------------------------------|
|-----------------------------|------------------------------------|
|-----------------------------|------------------------------------|
|-----------------------------|------------------------------------|
|
|  S S E Q        H              H              S S S S  S S S S
|-----------------------------|------------------------------------|
|-----------------------------|------------------------------------|
|-----------------------------|------------------------------------|
|-----------------------------|------------------------------------|
|--3--------------------------|-----------------3---3----3-0-------|
|-----------------------------|------------------------------3-----|


   Q        Q        H              S  S E E    S S H
|--3-----------------------------|---------------------------------|
|--------------------------------|--3-----------3------------------|
|--------------------------------|--------------4------------------|
|--------------------------------|---------------------------------|
|--------------------------------|---------------------------------|
|--------------------------------|---------------------------------|
|
|  E S  S  +S   E S  Q   +S  S E    S  S E S  S E   E S  S  +E   E
|-12---15-(15)-------------------|----15---------------------------|
|--------------17----------------|-17--------17---------17-(17)-17-|
|--------------------------------|---------------------------------|
|-------------------19--(19)-----|---------------------------------|
|--------------------------------|---------------------------------|
|--------------------------------|---------------------------------|
|
| Gtr IV
|  W                                W
|--------------------------------|---------------------------------|
|--------------------------------|---------------------------------|
|--------------------------------|---------------------------------|
|--------------------------------|---------------------------------|
|--------------------------------|---------------------------------|
|--------------------------------|---------------------------------|


 Chorus
    Q        Q      S S E +S  S  S S
|-------------------5---5-(5)---------|
|------------5------6---6-(6)---------|
|------------5------5---5-(5)---------|
|-------------------------------------|
|---3----------------------------3----|
|-------------------------------------|
|
|  +E   S S  S S  E Q      E     E
|-------------------------------------|
|-(17)-15---15---15-------15----13----|
|-------------------------------------|
|-------------------------------------|
|-------------------------------------|
|-------------------------------------|
|
|   H               Q      E     E
|-------------------------------------|
|-------------------------------------|
|--------------------------2-----0----|
|-------------------------------------|
|-------------------------------------|
|-------------------------------------|


    Q        Q     S S  E +S  S  S S
|------------------5----5-(5)--------|
|------------5-----6----6-(6)--------|
|------------5-----5----5-(5)--------|
|------------------------------------|
|---3----------------------------3---|
|------------------------------------|
|
| Gtr II
|   Q        S S E Q       S  S  E
|------------------------------------|
|-----------17------------18---------|
|-----------17-----------------------|
|-----------17-----------------------|
|------------------------------------|
|------------------------------------|
|
| Gtr III
|  +S  S  E  Q     E    E  E     E
|-------------------------------12---|
|-(13)-----------------13------------|
|--------14--------------------------|
|------------------------------------|
|------------------------------------|
|------------------------------------|


    Q          Q     S S E +S  S  S S   Q    Q      S S E +S  S  S S
|--------------------5---5-(5)--------|-------------5---5-(5)--------|
|--------------5-----6---6-(6)--------|------5------6---6-(6)--------|
|--------------5-----5---5-(5)--------|------5------5---5-(5)--------|
|-------------------------------------|------------------------------|
|---3-----------------------------3---|-3------------------------3---|
|-------------------------------------|------------------------------|
|
|   Q          S S E Q      S  S  E     Q    S S  E Q      S  S  E
|-------------------------------------|------------------------------|
|-------------17-----------18---------|-----17------------18---------|
|-------------17-----------17---------|-----17-----------------------|
|-------------17----------------------|-----17-----------------------|
|-------------------------------------|------------------------------|
|-------------------------------------|------------------------------|
|
|  +S  S  S S  E   E Q      E     E     E E  E    E S S E  E     S S
|-(12)-------------8------------------|-------------8----------------|
|--------10----------------------10---|-8--------10-------------10---|
|-------------------------------------|------------------------------|
|-------------------------------------|------------------------------|
|-------------------------------------|------------------------------|
|-------------------------------------|------------------------------|


   Q   E    E  S S E +S  S  S S     H                 S S  E  +S  S  S S
|--------------5---5-(5)--------|---------------------5----5--(5)--------|
|------5-------6---6-(6)--------|---------------------6----6--(6)--------|
|------5-------5----------------|---------------------5----5--(5)--------|
|-------------------------------|----------------------------------------|
|--3------------------------3---|---3--------------------------------3---|
|-------------------------------|----------------------------------------|
|
|  Q   E    E  Q      S  S  E       Q          S  S E Q        S  S  E
|-------------------------------|----------------------------------------|
|-----17-------------18---------|-------------17--------------18---------|
|-----17-------------17---------|----------------------------------------|
|-----17------------------------|-------------17-------------------------|
|-------------------------------|----------------------------------------|
|-------------------------------|----------------------------------------|
|
|  Q   S  S E  Q      S  S  E      +E   S  S  +S  S E E    E  +S  S  E
|-17--15-17---------------------|-----------------------------------12---|
|-------------17-----16----17---|-(17)-15-13-(13)---------13-(13)--------|
|-------------------------------|----------------------------------------|
|-------------------------------|----------------------------------------|
|-------------------------------|----------------------------------------|
|-------------------------------|----------------------------------------|


    Q        E E S S  E  +S  S  E
|----------------5-----------------|
|------------5---6----6--(6)-------|
|------------5--------5--(5)-------|
|----------------------------------|
|---3------------------------------|
|----------------------------------|
|
|   Q        E E Q        S  S  E
|----------------------------------|
|-----------17-----------18--------|
|-----------17---------------------|
|-----------17---------------------|
|----------------------------------|
|----------------------------------|
|
|  +S   E S  Q   E    E  +S  S  E
|-(12)-12--------------------------|
|--------------------13-(13)-------|
|------------------------------14--|
|----------------------------------|
|----------------------------------|
|----------------------------------|


 Interlude
  S S  E   E S S  E E  E E    Q    Q     S S E +S  S S S
|--------------------------|-------------5---5-(5)-------|
|-3----------3-------------|-------5-----6---6-(6)-------|
|-4----4-----4----4----4---|-------5-----5---5-(5)-------|
|--------------------------|-----------------------------|
|--------------------------|--3----------------------3---|
|--------------------------|-----------------------------|
|
| E    S S Q      E E  E E    Q    S S E Q      S  S E
|--------------------------|-----------------------------|
|--------------------------|------17-----------18--------|
|--------------------------|------17---------------------|
|-----17---------17---17---|------17---------------------|
|----------------17---17---|-----------------------------|
|--------------------------|-----------------------------|
|
| H               H           E E  Q     H
|--------------------------|-----------------------------|
|----------------15--------|-13--------------------------|
|--------------------------|-----------------------------|
|--------------------------|-----------------------------|
|--------------------------|-----------------------------|
|--------------------------|-----------------------------|


  Q   Q     S S E +S  S S S
|-----------5---5-(5)-------|
|-----5-----6---6-(6)-------|
|-----5-----5---5-(5)-------|
|---------------------------|
|-3---------------------3---|
|---------------------------|
|
| Q   S S E Q      S  S E
|---------------------------|
|----17-----------18--------|
|----17-----------17--------|
|----17---------------------|
|---------------------------|
|---------------------------|
|
| W
|---------------------------|
|---------------------------|
|---------------------------|
|---------------------------|
|---------------------------|
|---------------------------|


  Q   Q     S S E +S  S S S
|-----------5---5-(5)-------|
|-----5-----6---6-(6)-------|
|-----5-----5---5-(5)-------|
|---------------------------|
|-3---------------------3---|
|---------------------------|
|
| Q   S S E Q      S  S E
|---------------------------|
|----17-----------18--------|
|----17-----------17--------|
|----17---------------------|
|---------------------------|
|---------------------------|


  Q   Q     S S E +S  S S S   Q   E E S S E +S  S S S
|-----------5---5-(5)-------|---------5---5-(5)-------|
|-----5-----6---6-(6)-------|-----5---6---6-(6)-------|
|-----5-----5---5-(5)-------|-----5---5---5-(5)-------|
|---------------------------|-------------------------|
|-3---------------------3---|-3-------------------3---|
|---------------------------|-------------------------|
|
| Q   S S E Q      S  S E     Q   E E Q      S  S E
|---------------------------|-------------------------|
|----17-----------18--------|----17---------18--------|
|----17---------------------|----17-------------------|
|----17---------------------|----17-------------------|
|---------------------------|-------------------------|
|---------------------------|-------------------------|


  Q   E   E S S E +S  S S S   Q   E E S S E +S  S E
|-----------5---5-(5)-------|---------5---5-(5)-----|
|-----5-----6---6-(6)-------|-----5---6---6-(6)-----|
|-----5-----5---5-(5)-------|-----5---5---5-(5)-----|
|---------------------------|-----------------------|
|-3---------------------3---|-3---------------------|
|---------------------------|-----------------------|
|
| Q   S S E Q      S  S E     Q   E E Q      S  S E
|---------------------------|-----------------------|
|----17-----------18--------|----17---------18------|
|----17---------------------|----17---------17------|
|----17---------------------|----17-----------------|
|---------------------------|-----------------------|
|---------------------------|-----------------------|
|
| Gtr III
| W                           W
|---------------------------|-----------------------|
|---------------------------|-----------------------|
|---------------------------|-----------------------|
|---------------------------|-----------------------|
|---------------------------|-----------------------|
|---------------------------|-----------------------|


  Q      E S S  H
|-------------------------------|
|----------3--------------------|
|----------4--------------------|
|-------------------------------|
|-------------------------------|
|-------------------------------|
|
| E  S S Q      E  E    E  E
|-------------------------------|
|-------------------------------|
|-------------------------------|
|---17---------17------17-------|
|--------------17---------------|
|-------------------------------|
|
| H             E  S S  E  S S
|-------------------------------|
|-----------------13---13-------|
|--------------14---------14----|
|-------------------------------|
|-------------------------------|
|-------------------------------|


 Verse
   E E Q     H               W
|--3----------------------|-------------------------------------|
|--5----------------------|-------------------------------------|
|--5----------------------|-------------------------------------|
|-------------------------|-------------------------------------|
|-------------------------|-------------------------------------|
|-------------------------|-------------------------------------|
|
| Gtr III
|  Q   E  E  S  S  E E  E    E  E  S S S  S  +Q        S  S S S
|-17----------------------|----12-10-8---10-(10)------------8---|
|--------17-15-13---------|-13---------------------------10-----|
|-----------------14---14-|-------------------------------------|
|-------------------------|-------------------------------------|
|-------------------------|-------------------------------------|
|-------------------------|-------------------------------------|
|
| Gtr V
|  E E Q     H               H                S  S S S S  S S S
|-------------------------|-------------------------------------|
|-------------------------|-------------------------------------|
|-------------------------|-------------------------------------|
|-------------------------|-------------------------------------|
|--3----------------------|-------------------3----3------0-----|
|-------------------------|---------------------------------3---|


   Q          Q         H
|--3--------------------------------|
|--5--------------------------------|
|-----------------------------------|
|-----------------------------------|
|-----------------------------------|
|-----------------------------------|
|
|  S E    S  +S  S  E  +E  E  E  E
|-12-----17-(17)--------------------|
|------------------17-(17)---17-15--|
|-----------------------------------|
|-----------------------------------|
|-----------------------------------|
|-----------------------------------|
|
|  E   E      Q         H
|-----------------------------------|
|-----------------------------------|
|-----------------------------------|
|-----------------------------------|
|--3--------------------------------|
|-----------------------------------|


  W
|---------------------------------------|
|---------------------------------------|
|---------------------------------------|
|---------------------------------------|
|---------------------------------------|
|---------------------------------------|
|
| S  S  S  S  +E  E E    E    S  S  E
|-----------------------12---13-12-17---|
|---15-13-------------------------------|
|---------14-(14)-----------------------|
|---------------------------------------|
|---------------------------------------|
|---------------------------------------|
|
| H                 S S  S S  S  S  S S
|---------------------------------------|
|---------------------------------------|
|---------------------------------------|
|---------------------------------------|
|-------------------3----3----3--0------|
|-----------------------------------3---|


    Q       Q          H             W
|---3-----------------------------|----------------------------------|
|---5-----------------------------|----------------------------------|
|---------------------------------|----------------------------------|
|---------------------------------|----------------------------------|
|---------------------------------|----------------------------------|
|---------------------------------|----------------------------------|
|
|  +S  S E  S  S S  S  E E E  S S    Q   S E  S  +E     S S E    S S
|-(17)----------------------------|-12--10-8-10-(10)---12------------|
|----------17-15---13--------13---|-----------------------------13---|
|---------------------14----------|----------------------------------|
|---------------------------------|----------------------------------|
|---------------------------------|----------------------------------|
|---------------------------------|----------------------------------|
|
|   S  S E  Q          H             H            S  S  S S S S  S S
|---------------------------------|----------------------------------|
|---------------------------------|----------------------------------|
|---------------------------------|----------------------------------|
|---------------------------------|----------------------------------|
|---3-----------------------------|---------------3-----3---3-0------|
|---------------------------------|------------------------------3---|


   Q       Q        H                S S  E   E  S S H
|--3------------------------------|--------------------------|
|---------------------------------|--3-----------3-----------|
|---------------------------------|--------------4-----------|
|---------------------------------|--------------------------|
|---------------------------------|--------------------------|
|---------------------------------|--------------------------|
|
|  E.  S  +S   S E  S  S  S S  Q     E    S S E  S S Q  E  E
|-12--15-(15)-15------------------|-12---15------------------|
|------------------16-15-13---13--|-------------17--------17-|
|---------------------------------|--------------------------|
|---------------------------------|--------------------------|
|---------------------------------|--------------------------|
|---------------------------------|--------------------------|
|
| Gtr IV
|  W                                 W
|---------------------------------|--------------------------|
|---------------------------------|--------------------------|
|---------------------------------|--------------------------|
|---------------------------------|--------------------------|
|---------------------------------|--------------------------|
|---------------------------------|--------------------------|


 Out-Chorus
    Q        Q      S S  E   +S  S  S S
|-------------------5----5---(5)---------|
|------------5------6----6---(6)---------|
|------------5------5--------------------|
|----------------------------------------|
|---3-------------------------------3----|
|----------------------------------------|
|
|  +E   S S  S S  E E    S S  E     E
|----------------------------12----10----|
|-(17)-15---15---15-----13---------------|
|----------------------------------------|
|----------------------------------------|
|----------------------------------------|
|----------------------------------------|
|
|   H               E    E    E     E
|----------------------------------------|
|-----------------------------------3----|
|------------------------5----0----------|
|------------------------2----------3----|
|----------------------------------------|
|----------------------------------------|


  Q    Q     S S E +S  S  S S     Q          Q     S S E +S  S  S S
|------------5---5-(5)--------|--------------------5---5-(5)--------|
|------5-----6---6-(6)--------|--------------5-----6---6-(6)--------|
|------5-----5---5-(5)--------|--------------5-----5---5-(5)--------|
|-----------------------------|-------------------------------------|
|-3-----------------------3---|---3-----------------------------3---|
|-----------------------------|-------------------------------------|
|
| Gtr II
| Q    S S E Q      S  S  E       Q          S S E Q      S  S  E
|-----------------------------|-------------------------------------|
|-----17-----------18---------|-------------17-----------18---------|
|-----17----------------------|-------------17-----------17---------|
|-----17----------------------|-------------17----------------------|
|-----------------------------|-------------------------------------|
|-----------------------------|-------------------------------------|
|
| Gtr III
| E E  Q     E   E  E     E      +S  S  S S  E   E Q      E     E
|-8--------------8-------12---|-(12)-------------8------------------|
|-----------------------------|--------10----------------------10---|
|-----------------------------|-------------------------------------|
|-----------------------------|-------------------------------------|
|-----------------------------|-------------------------------------|
|-----------------------------|-------------------------------------|


  Q    Q      S S E +S  S  S S
|-------------5---5-(5)---------|
|------5------6---6-(6)---------|
|------5------5---5-(5)---------|
|-------------------------------|
|-3------------------------3----|
|-------------------------------|
|
| Q    S S  E Q      S  S  E
|-------------------------------|
|-----17------------18----------|
|-----17------------------------|
|-----17------------------------|
|-------------------------------|
|-------------------------------|
|
| E E  E    E S S E  E     S S
|-------------8-----------------|
|-8--------10-------------10----|
|-------------------------------|
|-------------------------------|
|-------------------------------|
|-------------------------------|


   Q   E    E  S S E +S  S  S S     H                 S S  E  +S  S  S S
|--------------5---5-(5)--------|---------------------5----5--(5)--------|
|------5-------6---6-(6)--------|---------------------6----6--(6)--------|
|------5-------5----------------|---------------------5----5--(5)--------|
|-------------------------------|----------------------------------------|
|--3------------------------3---|---3--------------------------------3---|
|-------------------------------|----------------------------------------|
|
|  Q   E    E  Q      S  S  E       Q          S  S E Q        S  S  E
|-------------------------------|----------------------------------------|
|-----17-------------18---------|-------------17--------------18---------|
|-----17-------------17---------|----------------------------------------|
|-----17------------------------|-------------17-------------------------|
|-------------------------------|----------------------------------------|
|-------------------------------|----------------------------------------|
|
|  Q   S  S E  Q      S  S  E      +E   S  S  +S  S E E    E  +S  S  E
|-17--15-17---------------------|-----------------------------------12---|
|-------------17-----16----17---|-(17)-15-13-(13)---------13-(13)--------|
|-------------------------------|----------------------------------------|
|-------------------------------|----------------------------------------|
|-------------------------------|----------------------------------------|
|-------------------------------|----------------------------------------|


    Q        E E S S  E  +S  S  S S
|----------------5------------------|
|------------5---6----6--(6)--------|
|------------5--------5--(5)--------|
|-----------------------------------|
|---3---------------------------3---|
|-----------------------------------|
|
|   Q        E E Q        S  S  E
|-----------------------------------|
|-----------17-----------18---------|
|-----------17----------------------|
|-----------17----------------------|
|-----------------------------------|
|-----------------------------------|
|
|  +S   E S  Q   E    E  +S  S  E
|-(12)-12---------------------------|
|--------------------13-(13)--------|
|------------------------------14---|
|-----------------------------------|
|-----------------------------------|
|-----------------------------------|


   Q   E   E S S E +E     E     Q        Q      S S E   +S  S  S S
|------------5--------------|-------------------5---5---(5)--------|
|------1-----6---6-(6)------|------------5------6---6---(6)--------|
|------------5---5-(5)------|------------5------5------------------|
|---------------------------|--------------------------------------|
|--3----------------------3-|---3------------------------------3---|
|---------------------------|--------------------------------------|
|
|  Q   S S E Q      S  S  E     Q        S S  E Q        S  S  E
|---------------------------|--------------------------------------|
|-----17-----------18-------|-----------17--------------18---------|
|-----17-----------17-------|-----------17--------------17---------|
|-----17-----------19-------|-----------17-------------------------|
|---------------------------|--------------------------------------|
|---------------------------|--------------------------------------|
|
|  Q   Q     Q      E     E    +E   S S  S S  E E   S S  E     E
|------------------------12-|-(12)-10---10---10-----8---12----10---|
|---------------------------|--------------------------------------|
|-12------------------------|--------------------------------------|
|---------------------------|--------------------------------------|
|---------------------------|--------------------------------------|
|---------------------------|--------------------------------------|


  Q    Q     S S E +S  S  S S
|------------5---5-(5)--------|
|------5-----6---6-(6)--------|
|------5-----5---5-(5)--------|
|-----------------------------|
|-3-----------------------3---|
|-----------------------------|
|
| Q    S S E Q      S  S  E
|-----------------------------|
|-----17-----------18---------|
|-----17----------------------|
|-----17----------------------|
|-----------------------------|
|-----------------------------|
|
| E E  Q     E   E  E     E
|-8--------------8-------12---|
|-----------------------------|
|-----------------------------|
|-----------------------------|
|-----------------------------|
|-----------------------------|


    Q          Q     S S E +S  S  S S
|--------------------5---5-(5)--------|
|--------------5-----6---6-(6)--------|
|--------------5-----5---5-(5)--------|
|-------------------------------------|
|---3-----------------------------3---|
|-------------------------------------|
|
|   Q          S S E Q      S  S  E
|-------------------------------------|
|-------------17-----------18---------|
|-------------17-----------17---------|
|-------------17----------------------|
|-------------------------------------|
|-------------------------------------|
|
|  +S  S  S S  E   E Q      E     E
|-(12)-------------8------------------|
|--------10----------------------10---|
|-------------------------------------|
|-------------------------------------|
|-------------------------------------|
|-------------------------------------|


 Begin Fade
  Q    Q     S S E +S  S S S   Q  +S  S E H
|------------5---5-(5)-------|-----------------*|
|------5-----6---6-(6)-------|-----------------*|
|------5-----5---5-(5)-------|-----------------*|
|----------------------------|-----------------*|
|-3----------------------3---|-3--(3)----------*|
|----------------------------|-----------------*|
|
| Q    S S E Q      S  S E     W
|----------------------------|-----------------*|
|-----17-----------18--------|-----------------*|
|-----17-----------17--------|-----------------*|
|-----17---------------------|-----------------*|
|----------------------------|-----------------*|
|----------------------------|-----------------*|
|
| E E  Q     H                 W
|----------------------------|-----------------*|
|-8--------------------------|-----------------*|
|----------------------------|-----------------*|
|----------------------------|-----------------*|
|----------------------------|-----------------*|
|----------------------------|-----------------*|


Duration Legend
---------------
W - whole; H - half; Q - quarter; E - 8th; S - 16th; T - 32nd; X - 64th; a - acciaccatura
+ - note tied to previous; . - note dotted; .. - note double dotted
Uncapitalized letters represent notes that are staccato (1/2 duration)
Irregular groupings are notated above the duration line
Duration letters will always appear directly above the note/fret number it represents the
duration for.  Duration letters with no fret number below them represent rests.  Multi-
bar rests are notated in the form Wxn, where n is the number of bars to rest for.  Low
melody durations appear below the staff

Tablature Legend
----------------
 h   - hammer-on
 p   - pull-off
 b   - bend
 pb  - pre-bend
 r   - bend release (if no number after the r, then release immediately)
 /\  - slide into or out of (from/to "nowhere")
 s   - legato slide
 S   - shift slide
  - natural harmonic
[n]  - artificial harmonic
n(n) - tapped harmonic
 ~   - vibrato
 tr  - trill
 T   - tap
 TP  - trem. picking
 PM  - palm muting
\n/  - tremolo bar dip; n = amount to dip
 \n  - tremolo bar down
 n/  - tremolo bar up
/n\  - tremolo bar inverted dip
 =   - hold bend; also acts as connecting device for hammers/pulls
 <>  - volume swell (louder/softer)
 x   - on rhythm slash represents muted slash
 o   - on rhythm slash represents single note slash

Misc Legend
-----------
 |  - bar
||  - double bar
||o - repeat start
o|| - repeat end
*|  - double bar (ending)
 :  - bar (freetime)
 $  - Segno
 &  - Coda
Tempo markers -  = BPM(8/16=s8/s16), where s8 = swing 8ths, s16 = swing 16ths


***************************************************************************************
* Generated using Power Tab Editor by Brad Larsen - http://powertab.guitarnetwork.org *
***************************************************************************************
comments
We did not receive enough feedback on this tab! Please rate:
print report bad tab
1 2 3 4 5
I want to post or [tab]
guest
You may want to rate the tab now too:
select rating
Please do not post tabs as comments. Select "correction" instead!