Oops, an error
Loading. Please wait.

Backstreet Girl Tab

ver2
ver2

Whole song

More versions @911Tabs.com
2,073 views 9 this week
4 commentsread comments
1 2 3 4 5
accurate
x 1
Autoscroll
+/-
esc
set tempo
stop
Contributor
Difficulty
intermediate
WARNING: You are trying to view
                                    content from Ultimate-Guitar.com
                                    in an unauthorized application,
                                    which is prohibited.

                                    Please use an official Ultimate
                                    Guitar Tabs application for iPhone,
                                    iPad or Android to access legitimate
                                    chords, guitar, bass, and drum tabs
                                    from Ultimate-Guitar.com database.

                                    Type "ultimate guitar tabs" in Apple
                                    App Store's or Android Market's
                                    search to find the application.
This song is actually picked in a particular pattern - and after listening to the song
for ages, and pulling up the submitted tabs (all of which I can see apart from the 
Guitar Pro version) they fell short in giving a true rendition of the song as it's 
played on the record.

So here goes what I've sorted after spending some time parsing it out by ear, and broken
into sections which I'll label against the verses below:

Intro:

Pt.1 & 2 played in succession twice...

Pt.1
e|-----2--------0--------3-----1-1---------|
B|--------3--------1----0-1r0--0-0---------|
G|---------------------0--0----0-0---------|
D|-----------------------------------------|
A|-----------------------------------------|
E|--3--------3--------3------3-------------|


Pt.2
e|--------------------------------1--11----|
B|------3---------1--------0--0-1-0--00----|
G|----2----2----0---0----0----0-0-0--00----|
D|--0--------------------------------------|
A|------------3----------------------------|
E|---------------------3------------3------|


Pt.3
e|-----------------------------------5-------2--------0-------1-----2---2222---22--|
B|------5---------4---------5-------555--------3--------1----0-1r0--3---3333---33--|
G|---------5---------4---------5----555----0--------0-------0-------0h2-2220h2-22--|
D|----7---------6---------7---------777-----------------------------0---0000---00--|
A|---------------------------------------2--------3--------------------------------|
E|--5---------4---------5---------5------------------------3-----------------------|



Backstreet Girl by The Rolling Stones 
(originally released on the UK LP: Between the Buttons, in the US on Flowers)
Tab by: Dave Johnson

(pt. 1)
I don't want you to be high
(pt. 2)
I don't want you to be down
(1)
Don't want to tell you no lies
(2)
Just want you to be around

(pt. 3)
Please come right up to my ears

You will be able to hear what I say

(1)
Don't want you out in my world
(2)
Just you be my backstreet girl

(1 & 2)

(1)
Please don't be part of my life
(2)
Please keep yourself to your self
(1)
Please don't you bother my wife
(2)
That way you won't get no help

(3)
Don't try to ride on my horse

You're rather common and coarse any way

(1)
Don't want you out in my world
(2)
Just you be my backstreet girl

Instrum: (1 & 2) played twice, then (3), then one last (1 & 2)

(1)
Please don't call me at home
(2)
Please don't come come knocking at night
(1)
Please never ring on the phone
(2)
Your manners are never quite right


(3)
Please take the favors I grant

Curtsy and look nonchalant just for me

(1)
Don't want you part of my world
(2)
Just you be my backstreet girl

(1)

(2)
Just you be my backstreet giirrrll...


My first post after many years of using these tabs...so hopefully I'll make some
time to add my own contributions to the community.  Thank you for the comments.
Please let me know how you liked it.
comments
We did not receive enough feedback on this tab! Please rate:
1 2 3 4 5
4 comments total. Showing first comments.
0 reply
Fezzick wrote on November 10 2010, 02:09 pm

Well I'd like to Edit this if I can, but not sure how...

Just noticed that the end of pt 1&2 where a 1 (F) is shown on the 1st string, it should be a 3 (G). Also toward the end of pt 3 - just before the D chord is played, the same issue occurred.

My apologies!

UPDATE:


Pt.1
e|-----2--------0--------3-----3-3---------|
B|--------3--------1----0-1r0--0-0---------|
G|---------------------0--0----0-0---------|
D|-----------------------------------------|
A|-----------------------------------------|
E|--3--------3--------3------3-------------|

Pt.2
e|--------------------------------3--33----|
B|------3---------1--------0--0-1-0--00----|
G|----2----2----0---0----0----0-0-0--00----|
D|--0--------------------------------------|
A|------------3----------------------------|
E|---------------------3------------3------|

Pt.3
e|-----------------------------------5-------2--------0-------3-----2---2222---22--|
B|------5---------4---------5-------555--------3--------1----0-1r0--3---3333---33--|
G|---------5---------4---------5----555----0--------0-------0-------0h2-2220h2-22--|
D|----7---------6---------7---------777-----------------------------0---0000---00--|
A|---------------------------------------2--------3--------------------------------|
E|--5---------4---------5---------5------------------------3-----------------------|

0 reply
Fezzick wrote on June 21 2013, 04:08 pm


Pt.1
e|-----2--------0--------3-----3-3---------|
B|--------3--------1----0-1r0--0-0---------|
G|---------------------0--0----0-0---------|
D|-----------------------------------------|
A|-----------------------------------------|
E|--3--------3--------3------3-------------|

Pt.2
e|--------------------------------3--33----|
B|------3---------1--------0--0-1-0--00----|
G|----2----2----0---0----0----0-0-0--00----|
D|--0--------------------------------------|
A|------------3----------------------------|
E|---------------------3------------3------|

Pt.3
e|-----------------------------------5-------2--------0-------3-----2---2222---22--|
B|------5---------4---------5-------555--------3--------1----0-1r0--3---3333---33--|
G|---------5---------4---------5----555----0--------0-------0-------0h2-2220h2-22--|
D|----7---------6---------7---------777-----------------------------0---0000---00--|
A|---------------------------------------2--------3--------------------------------|
E|--5---------4---------5---------5------------------------3-----------------------|

0 reply
dec457 wrote on October 23 2013, 05:32 pm

pt 1 and pt 2 are very good but on part three i dont think its right after the first 4 notes

I want to post or [tab]
guest
You may want to rate the tab now too:
select rating
Please do not post tabs as comments. Select "correction" instead!