Oops, an error
Loading. Please wait.

Brown Sugar Tab

ver4
ver4

Intro

Whole song

Video

More versions @911Tabs.com
177,159 views 372 this week
21 commentsread comments
1 2 3 4 5
accurate
x 33
Autoscroll
+/-
esc
set tempo
stop
Contributor
Difficulty
intermediate
WARNING: You are trying to view
                                    content from Ultimate-Guitar.com
                                    in an unauthorized application,
                                    which is prohibited.

                                    Please use an official Ultimate
                                    Guitar Tabs application for iPhone,
                                    iPad or Android to access legitimate
                                    chords, guitar, bass, and drum tabs
                                    from Ultimate-Guitar.com database.

                                    Type "ultimate guitar tabs" in Apple
                                    App Store's or Android Market's
                                    search to find the application.
BROWN SUGAR
As recorded by Rolling Stones
Transcribed By Paul Bell
Gtr I (E A D G B E) - Standard
Gtr II (D G D G B D) - Open G
Gtr III (E A D G B E) - Standard


  Q=120
 4/4
  Gtr I
  W                 H       E E E E   +W                  H       E E E E
|-----------------|-----------------|-------------------|------------------|
|-----------------|-----------------|-------------------|------------------|
|-----------------|-----------------|-------------------|------------------|
|-----------------|-------------3-5-|-(5)---------------|-------------3-5--|
|-----------------|---------3-5-----|-------------------|---------3-5------|
|-----------------|-----------------|-------------------|------------------|
|
| Gtr II
| Q   E E  E Q  E   E E E E Q   E E    Q    E E  E Q  E   E E E E E E E E
|-----------------|-----------------|-------------------|------------------|
|----13---12----5-|---5---6-6---5---|------13---12----5-|---5---6-6-5-5----|
|----12---12----5-|---5---5-5---5---|------12---12----5-|---5---5-5-5-5----|
|----14---12----5-|---5---7-7---5---|------14---12----5-|---5---7-7-5-5----|
|-----------------|-----------------|-------------------|------------------|
|-----------------|-----------------|-------------------|------------------|


                                                            Gtrs I, III
  +W                  H       E E E E   +W                  H       Q  E S S
|-------------------|-----------------|-------------------|-------------------|
|-------------------|-----------------|-------------------|--------------8-8--|
|-------------------|-----------------|-------------------|--------------8-8--|
|-(5)---------------|-------------3-5-|-(5)---------------|--------------8-8--|
|-------------------|---------3-5-----|-------------------|-------------------|
|-------------------|-----------------|-------------------|-------------------|
|
|  Q    E E  E Q  E   E E E E E E E E    Q    E E  E Q  E   E E E E Q  E E
|-------------------|-----------------|-------------------|-------------------|
|------13---12----5-|---5---6-6-6-5---|------13---12----5-|---5---6-6--5------|
|------12---12----5-|---5---5-5-5-5---|------12---12----5-|---5---5-5--5------|
|------14---12----5-|---5---7-7-7-5---|------14---12----5-|---5---7-7--5------|
|-------------------|-----------------|-------------------|-------------------|
|-------------------|-----------------|-------------------|-------------------|


  Gtr III
  Q  Q  Q   Q      Q    Q  Q   Q      Q    Q   Q   Q      Q    Q   Q  E S S
|---------------|------------------|--4----4---6---6---|---------------------|
|-8--8--8---8---|--5----5--5---5---|--4----4---6---6---|--5----5---5--5-5-5--|
|-8--8--8---8---|--5----5--5---5---|--5----5---7---7---|--5----5---5--5-5-5--|
|-8--8--8---8---|--5----5--5---5---|--6----6---8---8---|--5----5---5--5-5-5--|
|-6--6--6---6---|--7----7--7---7---|--6----6---8---8---|--7----7---7--7-7-7--|
|---------------|--8----8--8---8---|--4----4---6---6---|--8----8---8--8-8-8--|
|
| Gtr I
| H     Q   E E   +E  E Q  Q   Q      Q    Q   Q   Q      Q    Q   Q  Q
|---------------|------------------|-------------------|---------------------|
|-8-----8-----5-|-(5)-5-5--5-------|--1----1---3---3---|--5----5---5--5------|
|-8-----8-----5-|-(5)-5-5--5-------|--1----1---3---3---|--5----5---5--5------|
|-8-----8-----5-|-(5)-5-5--5-------|--1----1---3---3---|--5----5---5--5------|
|---------------|------------------|-------------------|---------------------|
|---------------|------------------|-------------------|---------------------|
|
| Gtr II
| Q  Q  E Q   E   +E  E Q  E Q   E   +E  E E E E Q   E   +E  E E E Q  E E
|---------------|------------------|-------------------|---------------------|
|----6--6-4---5-|-(5)-6-6--6-5---1-|-(1)-2-1-2-4-3---6-|-(6)-6-6---5----4----|
|----3--3-3---5-|-(5)---5--5-5---1-|-(1)-3-1-3-5-3---5-|-(5)-5-5---5----3----|
|-------------5-|-(5)---5--5-5-----|-----------------5-|-(5)-5-5---5----5----|
|---------------|------------------|-------------------|---------------------|
|---------------|------------------|-------------------|---------------------|


   Q   Q   Q   Q      Q    Q  Q   Q      Q    Q   Q   Q      Q    Q  Q  Q
|------------------|------------------|--4----4---6---6---|----------------|
|--8---8---8---8---|--5----5--5---5---|--4----4---6---6---|--5----5--5--5--|
|--8---8---8---8---|--5----5--5---5---|--5----5---7---7---|--5----5--5--5--|
|--8---8---8---8---|--5----5--5---5---|--6----6---8---8---|--5----5--5--5--|
|--6---6---6---6---|--7----7--7---7---|--6----6---8---8---|--7----7--7--7--|
|------------------|--8----8--8---8---|--4----4---6---6---|--8----8--8--8--|
|
|  H       E E E E   +Q    Q  E Q   E    Q    Q   Q   Q      Q    Q  Q  Q
|------------------|------------------|-------------------|----------------|
|--8-------8-8-----|------------------|--1----1---3---3---|--5----5--5--5--|
|--8-------8-8---5-|-(5)---5--5-5-----|--1----1---3---3---|--5----5--5--5--|
|--8-------8-8---5-|-(5)---5--7-5-----|--1----1---3---3---|--5----5--5--5--|
|------------------|------------------|-------------------|----------------|
|------------------|------------------|-------------------|----------------|
|
| +Q   E E E Q   E   +E  E Q  E Q   E   +E  E E E E Q   E   +E  E Q  Q  Q
|------------------|------------------|-------------------|----------------|
|-(4)--6---6-4---5-|-(5)-6-6--6-5---1-|-(1)-2-1-2-4-3---6-|-(6)-6-6--5--5--|
|-(3)------3-3---5-|-(5)---5--5-5---1-|-(1)-3-1-3-5-3---5-|-(5)-5-5--5--5--|
|-(5)------5-5---5-|-(5)---5--5-5-----|-----------------5-|-(5)-5-5--5--5--|
|------------------|------------------|-------------------|----------------|
|------------------|------------------|-------------------|----------------|


  Q   Q   Q   Q     Q   Q   Q   Q
|-0---0---0---0---|-0---0---0---0---|
|-1---1---1---1---|-1---1---1---1---|
|-0---0---0---0---|-0---0---0---0---|
|-2---2---2---2---|-2---2---2---2---|
|-3---3---3---3---|-3---3---3---3---|
|-----------------|-----------------|
|
| E E E E Q   E E   E E E E Q   E E
|-----------------|-----------------|
|---5-----5-------|---5-----5-------|
|---5-----5-------|---5-----5-------|
|-----7-5-----7-5-|-----7-5-----7-5-|
|-----------------|-----------------|
|-----------------|-----------------|
|
| E E Q   E E Q     E E Q   E E Q
|-----------------|-----------------|
|---5-----5-------|---5-----5-------|
|---5-----5-------|---5-----5-------|
|---5-----5-------|---5-----5-------|
|-----------------|-----------------|
|-----------------|-----------------|


  Q     Q     Q    Q       Q     Q    Q   Q
|-1-----1-----1----1----|--1-----1----1---1---|
|-1-----1-----1----1----|--1-----1----1---1---|
|-2-----2-----2----2----|--2-----2----2---2---|
|-3-----3-----3----3----|--3-----3----3---3---|
|-3-----3-----3----3----|--3-----3----3---3---|
|-1-----1-----1----1----|--1-----1----1---1---|
|
| E  E  E  E  Q    E  E    E  E  E E  Q   Q
|-----------------------|---------------------|
|---10-------10---------|-10----11---10-------|
|---10-------10---------|-10----10---10-------|
|------12-10------12-10-|-10----10---10-------|
|-----------------------|---------------------|
|-----------------------|---------------------|
|
| E  E  E  E  E E  Q       E  E  E E  E Q   E
|-----------------------|---------------------|
|---10-11----10---------|----10-11---10-----5-|
|---10-10----10---------|----10-10---10-----5-|
|---10-12----10---------|----10-12---10-----5-|
|-----------------------|---------------------|
|-----------------------|---------------------|


   Q    Q   Q   Q     Q   Q   Q   Q      Q    Q   Q  Q     Q   Q  Q  E S S
|--0----0---0---0---|-0---0---0---0---|------------------|-0---0--0--0-0-0--|
|--1----1---1---1---|-1---1---1---1---|--3----3---3--3---|-1---1--1--1-1-1--|
|--0----0---0---0---|-0---0---0---0---|--3----3---3--3---|-0---0--0--0-0-0--|
|--2----2---2---2---|-2---2---2---2---|--3----3---3--3---|-2---2--2--2-2-2--|
|--3----3---3---3---|-3---3---3---3---|--1----1---1--1---|-3---3--3--3-3-3--|
|-------------------|-----------------|------------------|------------------|
|
|  E  E E E Q   E E   E E E E Q   E E    E  E E E Q  E E   E E Q  Q  Q
|-------------------|-----------------|------------------|------------------|
|-----5-----5-------|---5-----5-------|-----3-----3------|---5-5--5--5------|
|-----5-----5-------|---5-----5-------|-----3-----3------|---5-5--5--5------|
|-------7-5-----7-5-|-----7-5-----7-5-|-------5-3----5-3-|---5-5--5--5------|
|-------------------|-----------------|------------------|------------------|
|-------------------|-----------------|------------------|------------------|
|
| +Q    E Q   E Q     E Q   E E E E E   +Q    Q   Q  E E   E E Q  Q  Q
|-------------------|-----------------|------------------|------------------|
|-(5)---5-----5-----|-5-----5---5---6-|-(6)---6---6--5-5-|---6-5--5--5------|
|-(5)---5-----5-----|-5-----5---5---7-|-(7)---7---7--5-5-|---5-5--5--5------|
|-(5)---5-----5-----|-5-----5---5---8-|-(8)---8---8--5-5-|---7-5--5--5------|
|-------------------|-----------------|------------------|------------------|
|-------------------|-----------------|------------------|------------------|


  Q   Q  Q      Q         Q    Q   Q   Q
|-3---3--3------3------|--3----3---3---3---|
|-0---0--0------0------|--0----0---0---0---|
|-0---0--0------0------|--0----0---0---0---|
|-0---0--0------0------|--0----0---0---0---|
|-2---2--2------2------|--2----2---2---2---|
|-3---3--3------3------|--3----3---3---3---|
|
| H      T S. E T S. E   +Q    E E E E Q
|----------------------|-------------------|
|----------------------|-------------------|
|----------------------|-----------5-------|
|---------------7s9--5-|-(5)---8-5---8-5---|
|-------------5--------|-------------------|
|--------5s7-----------|-------------------|
|
| H.            E    E    E  Q   H       E
|----------------------|-------------------|
|----------------------|-----------------5-|
|----------------------|--5--3-----------5-|
|---------------3------|--5--3-----------5-|
|--------------------5-|---------5---------|
|-3--------------------|-------------------|


   Q    Q   Q   Q      Q    Q   Q   E S S
|--0----0---0---0---|--0----0---0---0-0-0--|
|--1----1---1---1---|--1----1---1---1-1-1--|
|--0----0---0---0---|--0----0---0---0-0-0--|
|--2----2---2---2---|--2----2---2---2-2-2--|
|--3----3---3---3---|--3----3---3---3-3-3--|
|-------------------|----------------------|
|
|  E  E E E E E E E   +E  E E E E E E S S
|-------------------|----------------------|
|-----5-----5-5---5-|-(5)-5-----5-5--------|
|-----5-----5-5---5-|-(5)-5-----5-5--------|
|-------7-5---------|-------7-5------------|
|-------------------|----------------------|
|-------------------|-----------------3-3--|
|
| +Q    E E E E E E   +Q    E E E E Q
|-------------------|----------------------|
|-(5)---6---5-6---5-|-(5)---6---5-6--------|
|-(5)---5---5-5---5-|-(5)---5---5-5--------|
|-(5)---7---5-7---5-|-(5)---7---5-7--------|
|-------------------|----------------------|
|-------------------|----------------------|


  Q   Q  Q      Q         Q    Q   Q   Q
|-3---3--3------3------|--3----3---3---3---|
|-0---0--0------0------|--0----0---0---0---|
|-0---0--0------0------|--0----0---0---0---|
|-0---0--0------0------|--0----0---0---0---|
|-2---2--2------2------|--2----2---2---2---|
|-3---3--3------3------|--3----3---3---3---|
|
| H      T S. E T S. E   +Q    E E E E Q
|----------------------|-------------------|
|----------------------|-------------------|
|----------------------|-----------5-------|
|---------------7s9--5-|-(5)---8-5---8-5---|
|-------------5--------|-------------------|
|-3------5s7-----------|-------------------|
|
| H.            E    E    E  Q   H       E
|----------------------|-------------------|
|----------------------|-----------------5-|
|----------------------|--5--3-----------5-|
|---------------3------|--5--3-----------5-|
|--------------------5-|---------5---------|
|-3--------------------|-------------------|


   Q    Q   Q   Q      Q    Q   Q   E S S
|--0----0---0---0---|--0----0---0---0------|
|--1----1---1---1---|--1----1---1---1-8-8--|
|--0----0---0---0---|--0----0---0---0-8-8--|
|--2----2---2---2---|--2----2---2---2-8-8--|
|--3----3---3---3---|--3----3---3---3-6-6--|
|-------------------|----------------------|
|
|  E  E E E E E E E   +E  E E E E E Q
|-------------------|----------------------|
|-----5-----5-5---5-|-(5)-5-----5-5--------|
|-----5-----5-5---5-|-(5)-5-----5-5--------|
|-------7-5---------|-------7-5------------|
|-------------------|----------------------|
|-------------------|----------------------|
|
| +Q    E E E E E E   +Q    E E E E E S S
|-------------------|----------------------|
|-(5)---6---5-6---5-|-(5)---6---5-6---8-8--|
|-(5)---5---5-5---5-|-(5)---5---5-5---8-8--|
|-(5)---7---5-7---5-|-(5)---7---5-7---8-8--|
|-------------------|----------------------|
|-------------------|----------------------|


  Q  Q   Q   Q      Q    Q  Q   Q      Q    Q   Q   Q      Q    Q  Q  Q
|----------------|------------------|--4----4---6---6---|----------------|
|-8--8---8---8---|--5----5--5---5---|--4----4---6---6---|--5----5--5--5--|
|-8--8---8---8---|--5----5--5---5---|--5----5---7---7---|--5----5--5--5--|
|-8--8---8---8---|--5----5--5---5---|--6----6---8---8---|--5----5--5--5--|
|-6--6---6---6---|--7----7--7---7---|--6----6---8---8---|--7----7--7--7--|
|----------------|--8----8--8---8---|--4----4---6---6---|--8----8--8--8--|
|
| H      E E E E   +Q    Q  E Q   E    Q    Q   Q   Q      Q    Q  Q  Q
|----------------|------------------|-------------------|----------------|
|-8------8-8-----|------------------|--1----1---3---3---|--5----5--5--5--|
|-8------8-8---5-|-(5)---5--5-5-----|--1----1---3---3---|--5----5--5--5--|
|-8------8-8---5-|-(5)---5--7-5-----|--1----1---3---3---|--5----5--5--5--|
|----------------|------------------|-------------------|----------------|
|----------------|------------------|-------------------|----------------|
|
| Q  E E E Q   E   +E  E Q  E Q   E   +E  E E E E Q   E   +E  E Q  Q  Q
|----------------|------------------|-------------------|----------------|
|-4--6---6-4---5-|-(5)-6-6--6-5---1-|-(1)-2-1-2-4-3---6-|-(6)-6-6--5--5--|
|-3------3-4---5-|-(5)---5--5-5---1-|-(1)-3-1-3-5-3---5-|-(5)-5-5--5--5--|
|-5------5-4---5-|-(5)---5--5-5-----|-----------------5-|-(5)-5-5--5--5--|
|----------------|------------------|-------------------|----------------|
|----------------|------------------|-------------------|----------------|


  Q   Q   Q   Q     Q   Q   Q   Q
|-0---0---0---0---|-0---0---0---0---|
|-1---1---1---1---|-1---1---1---1---|
|-0---0---0---0---|-0---0---0---0---|
|-2---2---2---2---|-2---2---2---2---|
|-3---3---3---3---|-3---3---3---3---|
|-----------------|-----------------|
|
| E E E E Q   E E   E E E E Q   E E
|-----------------|-----------------|
|---5-----5-------|---5-----5-------|
|---5-----5-------|---5-----5-------|
|-----7-5-----7-5-|-----7-5-----7-5-|
|-----------------|-----------------|
|-----------------|-----------------|
|
| E E Q   E E Q     E E Q   E E Q
|-----------------|-----------------|
|---5-----5-------|---5-----5-------|
|---5-----5-------|---5-----5-------|
|---5-----5-------|---5-----5-------|
|-----------------|-----------------|
|-----------------|-----------------|


  Q     Q     Q    Q       Q     Q    Q   Q
|-1-----1-----1----1----|--1-----1----1---1---|
|-1-----1-----1----1----|--1-----1----1---1---|
|-2-----2-----2----2----|--2-----2----2---2---|
|-3-----3-----3----3----|--3-----3----3---3---|
|-3-----3-----3----3----|--3-----3----3---3---|
|-1-----1-----1----1----|--1-----1----1---1---|
|
| E  E  E  E  Q    E  E    E  E  E E  Q   Q
|-----------------------|---------------------|
|---10-------10---------|-10----11---10-------|
|---10-------10---------|-10----10---10-------|
|------12-10------12-10-|-10----10---10-------|
|-----------------------|---------------------|
|-----------------------|---------------------|
|
| E  E  E  E  E E  Q       E  E  E E  E Q   E
|-----------------------|---------------------|
|---10-11----10---------|----10-11---10-----5-|
|---10-10----10---------|----10-10---10-----5-|
|---10-12----10---------|----10-12---10-----5-|
|-----------------------|---------------------|
|-----------------------|---------------------|


   Q    Q   Q   Q     Q   Q   Q   Q      Q    Q   Q  Q     Q   Q  Q  E S S
|--0----0---0---0---|-0---0---0---0---|------------------|-0---0--0--0-0-0--|
|--1----1---1---1---|-1---1---1---1---|--3----3---3--3---|-1---1--1--1-1-1--|
|--0----0---0---0---|-0---0---0---0---|--3----3---3--3---|-0---0--0--0-0-0--|
|--2----2---2---2---|-2---2---2---2---|--3----3---3--3---|-2---2--2--2-2-2--|
|--3----3---3---3---|-3---3---3---3---|--1----1---1--1---|-3---3--3--3-3-3--|
|-------------------|-----------------|------------------|------------------|
|
|  E  E E E Q   E E   E E E E Q   E E    E  E E E Q  E E   E E Q  Q  Q
|-------------------|-----------------|------------------|------------------|
|-----5-----5-------|---5-----5-------|-----3-----3------|---5-5--5--5------|
|-----5-----5-------|---5-----5-------|-----3-----3------|---5-5--5--5------|
|-------7-5-----7-5-|-----7-5-----7-5-|-------5-3----5-3-|---5-5--5--5------|
|-------------------|-----------------|------------------|------------------|
|-------------------|-----------------|------------------|------------------|
|
| +Q    E Q   E Q     E Q   E E E E E   +Q    Q   Q  E E   E E Q  Q  Q
|-------------------|-----------------|------------------|------------------|
|-(5)---5-----5-----|-5-----5---5---6-|-(6)---6---6--5-5-|---6-5--5--5------|
|-(5)---5-----5-----|-5-----5---5---7-|-(7)---7---7--5-5-|---5-5--5--5------|
|-(5)---5-----5-----|-5-----5---5---8-|-(8)---8---8--5-5-|---7-5--5--5------|
|-------------------|-----------------|------------------|------------------|
|-------------------|-----------------|------------------|------------------|


  Q   Q  Q      Q         Q    Q   Q   Q
|-3---3--3------3------|--3----3---3---3---|
|-0---0--0------0------|--0----0---0---0---|
|-0---0--0------0------|--0----0---0---0---|
|-0---0--0------0------|--0----0---0---0---|
|-2---2--2------2------|--2----2---2---2---|
|-3---3--3------3------|--3----3---3---3---|
|
| H      T S. E T S. E   +Q    E E E E Q
|----------------------|-------------------|
|----------------------|-------------------|
|----------------------|-----------5-------|
|---------------7s9--5-|-(5)---8-5---8-5---|
|-------------5--------|-------------------|
|--------5s7-----------|-------------------|
|
| H.            E    E    E  Q   H       E
|----------------------|-------------------|
|----------------------|-----------------5-|
|----------------------|--5--3-----------5-|
|---------------3------|--5--3-----------5-|
|--------------------5-|---------5---------|
|-3--------------------|-------------------|


   Q    Q   Q   Q      Q    Q   Q   E S S
|--0----0---0---0---|--0----0---0---0-0-0--|
|--1----1---1---1---|--1----1---1---1-1-1--|
|--0----0---0---0---|--0----0---0---0-0-0--|
|--2----2---2---2---|--2----2---2---2-2-2--|
|--3----3---3---3---|--3----3---3---3-3-3--|
|-------------------|----------------------|
|
|  E  E E E E E E E   +E  E E E E E E S S
|-------------------|----------------------|
|-----5-----5-5---5-|-(5)-5-----5-5--------|
|-----5-----5-5---5-|-(5)-5-----5-5--------|
|-------7-5---------|-------7-5------------|
|-------------------|----------------------|
|-------------------|-----------------3-3--|
|
| +Q    E E E E E E   +Q    E E E E Q
|-------------------|----------------------|
|-(5)---6---5-6---5-|-(5)---6---5-6--------|
|-(5)---5---5-5---5-|-(5)---5---5-5--------|
|-(5)---7---5-7---5-|-(5)---7---5-7--------|
|-------------------|----------------------|
|-------------------|----------------------|


  Q   Q  Q      Q         Q    Q   Q   Q
|-3---3--3------3------|--3----3---3---3---|
|-0---0--0------0------|--0----0---0---0---|
|-0---0--0------0------|--0----0---0---0---|
|-0---0--0------0------|--0----0---0---0---|
|-2---2--2------2------|--2----2---2---2---|
|-3---3--3------3------|--3----3---3---3---|
|
| H      T S. E T S. E   +Q    E E E E Q
|----------------------|-------------------|
|----------------------|-------------------|
|----------------------|-----------5-------|
|---------------7s9--5-|-(5)---8-5---8-5---|
|-------------5--------|-------------------|
|-3------5s7-----------|-------------------|
|
| H.            E    E    E  Q   H       E
|----------------------|-------------------|
|----------------------|-----------------5-|
|----------------------|--5--3-----------5-|
|---------------3------|--5--3-----------5-|
|--------------------5-|---------5---------|
|-3--------------------|-------------------|


   Q    Q   Q   Q      Q    Q   Q   E S S
|--0----0---0---0---|--0----0---0---0------|
|--1----1---1---1---|--1----1---1---1-8-8--|
|--0----0---0---0---|--0----0---0---0-8-8--|
|--2----2---2---2---|--2----2---2---2-8-8--|
|--3----3---3---3---|--3----3---3---3-6-6--|
|-------------------|----------------------|
|
|  E  E E E E E E E   +E  E E E E E Q
|-------------------|----------------------|
|-----5-----5-5---5-|-(5)-5-----5-5--------|
|-----5-----5-5---5-|-(5)-5-----5-5--------|
|-------7-5---------|-------7-5------------|
|-------------------|----------------------|
|-------------------|----------------------|
|
| +Q    E E E E E E   +Q    E E E E E S S
|-------------------|----------------------|
|-(5)---6---5-6---5-|-(5)---6---5-6---8-8--|
|-(5)---5---5-5---5-|-(5)---5---5-5---8-8--|
|-(5)---7---5-7---5-|-(5)---7---5-7---8-8--|
|-------------------|----------------------|
|-------------------|----------------------|


  Q   Q    Q   Q      Q    Q  Q   Q      Q    Q   Q   Q      Q    Q  Q  E S S
|------------------|------------------|--4----4---6---6---|--------------------|
|-8---8----8---8---|--5----5--5---5---|--4----4---6---6---|--5----5--5--5-5-5--|
|-8---8----8---8---|--5----5--5---5---|--5----5---7---7---|--5----5--5--5-5-5--|
|-8---8----8---8---|--5----5--5---5---|--6----6---8---8---|--5----5--5--5-5-5--|
|-6---6----6---6---|--7----7--7---7---|--6----6---8---8---|--7----7--7--7-7-7--|
|------------------|--8----8--8---8---|--4----4---6---6---|--8----8--8--8-8-8--|
|
| H        Q   E E   +E  E Q  Q   Q      Q    Q   Q   Q      Q    Q  Q  Q
|------------------|------------------|-------------------|--------------------|
|-8--------8-----5-|-(5)-5-5--5-------|--1----1---3---3---|--5----5--5--5------|
|-8--------8-----5-|-(5)-5-5--5-------|--1----1---3---3---|--5----5--5--5------|
|-8--------8-----5-|-(5)-5-5--5-------|--1----1---3---3---|--5----5--5--5------|
|------------------|------------------|-------------------|--------------------|
|------------------|------------------|-------------------|--------------------|
|
| Q   E E  E Q   E   +E  E Q  E Q   E   +E  E E E E Q   E   +E  E Q  Q  E S S
|------------------|------------------|-------------------|--------------------|
|-8---9----9-8---5-|-(5)-6-6--6-5---1-|-(1)-2-1-2-4-3---6-|-(6)-6-5--5----8-8--|
|-8--10---10-8---5-|-(5)---5--5-5---1-|-(1)-3-1-3-5-3---5-|-(5)-5-5--5----8-8--|
|-8--------------5-|-(5)---5--5-5-----|-----------------5-|-(5)-5-5--5----8-8--|
|------------------|------------------|-------------------|--------------------|
|------------------|------------------|-------------------|--------------------|


  Q   Q    Q   Q      Q    Q  Q   Q      Q    Q   Q   Q      Q    Q  Q  E S S
|------------------|------------------|--4----4---6---6---|--------------------|
|-8---8----8---8---|--5----5--5---5---|--4----4---6---6---|--5----5--5--5-5-5--|
|-8---8----8---8---|--5----5--5---5---|--5----5---7---7---|--5----5--5--5-5-5--|
|-8---8----8---8---|--5----5--5---5---|--6----6---8---8---|--5----5--5--5-5-5--|
|-6---6----6---6---|--7----7--7---7---|--6----6---8---8---|--7----7--7--7-7-7--|
|------------------|--8----8--8---8---|--4----4---6---6---|--8----8--8--8-8-8--|
|
| H        E E E E   +Q    Q  E Q   E    Q    Q   Q   Q      Q    Q  Q  Q
|------------------|------------------|-------------------|--------------------|
|-8--------8-8-----|------------------|--1----1---3---3---|--5----5--5--5------|
|-8--------8-8---5-|-(5)---5--5-5-----|--1----1---3---3---|--5----5--5--5------|
|-8--------8-8---5-|-(5)---5--7-5-----|--1----1---3---3---|--5----5--5--5------|
|------------------|------------------|-------------------|--------------------|
|------------------|------------------|-------------------|--------------------|
|
| Q   E E  E Q   E   +E  E Q  E Q   E   +E  E E E E Q   E   +E  E Q  Q  E S S
|------------------|------------------|-------------------|--------------------|
|-8---9----9-8---5-|-(5)-6-6--6-5---1-|-(1)-2-1-2-4-3---6-|-(6)-6-5--5----8-8--|
|-8--10---10-8---5-|-(5)---5--5-5---1-|-(1)-3-1-3-5-3---5-|-(5)-5-5--5----8-8--|
|-8--------------5-|-(5)---5--5-5-----|-----------------5-|-(5)-5-5--5----8-8--|
|------------------|------------------|-------------------|--------------------|
|------------------|------------------|-------------------|--------------------|


  Q   Q    Q   Q      Q    Q  Q   Q      Q    Q   Q   Q      Q    Q  Q  E S S
|------------------|------------------|--4----4---6---6---|--------------------|
|-8---8----8---8---|--5----5--5---5---|--4----4---6---6---|--5----5--5--5-5-5--|
|-8---8----8---8---|--5----5--5---5---|--5----5---7---7---|--5----5--5--5-5-5--|
|-8---8----8---8---|--5----5--5---5---|--6----6---8---8---|--5----5--5--5-5-5--|
|-6---6----6---6---|--7----7--7---7---|--6----6---8---8---|--7----7--7--7-7-7--|
|------------------|--8----8--8---8---|--4----4---6---6---|--8----8--8--8-8-8--|
|
| H        Q   E E   +E  E Q  Q   Q      Q    Q   Q   Q      Q    Q  Q  Q
|------------------|------------------|-------------------|--------------------|
|-8--------8-----5-|-(5)-5-5--5-------|--1----1---3---3---|--5----5--5--5------|
|-8--------8-----5-|-(5)-5-5--5-------|--1----1---3---3---|--5----5--5--5------|
|-8--------8-----5-|-(5)-5-5--5-------|--1----1---3---3---|--5----5--5--5------|
|------------------|------------------|-------------------|--------------------|
|------------------|------------------|-------------------|--------------------|
|
| Q   E E  E Q   E   +E  E Q  E Q   E   +E  E E E E Q   E   +E  E Q  Q  E S S
|------------------|------------------|-------------------|--------------------|
|-8---9----9-8---5-|-(5)-6-6--6-5---1-|-(1)-2-1-2-4-3---6-|-(6)-6-5--5----8-8--|
|-8--10---10-8---5-|-(5)---5--5-5---1-|-(1)-3-1-3-5-3---5-|-(5)-5-5--5----8-8--|
|-8--------------5-|-(5)---5--5-5-----|-----------------5-|-(5)-5-5--5----8-8--|
|------------------|------------------|-------------------|--------------------|
|------------------|------------------|-------------------|--------------------|


  Q   Q    Q   Q      Q    Q  Q   Q
|------------------|------------------|
|-8---8----8---8---|--5----5--5---5---|
|-8---8----8---8---|--5----5--5---5---|
|-8---8----8---8---|--5----5--5---5---|
|-6---6----6---6---|--7----7--7---7---|
|------------------|--8----8--8---8---|
|
| H        E E E E   +Q    Q  E Q   E
|------------------|------------------|
|-8--------8-8-----|------------------|
|-8--------8-8---5-|-(5)---5--5-5-----|
|-8--------8-8---5-|-(5)---5--7-5-----|
|------------------|------------------|
|------------------|------------------|
|
| Q   E E  E Q   E   +E  E Q  E Q   E
|------------------|------------------|
|-8---9----9-8---5-|-(5)-6-6--6-5---1-|
|-8--10---10-8---5-|-(5)---5--5-5---1-|
|-8--------------5-|-(5)---5--5-5-----|
|------------------|------------------|
|------------------|------------------|


   Q    Q   Q   Q      Q    Q   Q   E S S
|--4----4---6---6---|--0----0---0---0-3-3--|
|--4----4---6---6---|--1----1---1---1-0-0--|
|--5----5---7---7---|--0----0---0---0-0-0--|
|--6----6---8---8---|--2----2---2---2-0-0--|
|--6----6---8---8---|--3----3---3---3-2-2--|
|--4----4---6---6---|-----------------3-3--|
|
|  Q    Q   Q   Q      Q    Q   Q   E S S
|-------------------|----------------------|
|--1----1---3---3---|--5----5---5---5------|
|--1----1---3---3---|--5----5---5---5------|
|--1----1---3---3---|--5----5---5---5------|
|-------------------|----------------------|
|-------------------|-----------------3-3--|
|
| +E  E E E E Q   E   +E  E E E E E E E
|-------------------|----------------------|
|-(1)-2-1-2-4-3---5-|-(5)-6-5---5---5------|
|-(1)-3-1-3-5-3---5-|-(5)-5-5---5---5------|
|-----------------5-|-(5)-5-5---5---5------|
|-------------------|----------------------|
|-------------------|----------------------|


  Q   Q  Q      Q         Q    Q   Q   Q
|-3---3--3------3------|--3----3---3---3---|
|-0---0--0------0------|--0----0---0---0---|
|-0---0--0------0------|--0----0---0---0---|
|-0---0--0------0------|--0----0---0---0---|
|-2---2--2------2------|--2----2---2---2---|
|-3---3--3------3------|--3----3---3---3---|
|
| H      T S. E T S. E   +Q    E E E E Q
|----------------------|-------------------|
|----------------------|-------------------|
|----------------------|-----------5-------|
|---------------7s9--5-|-(5)---8-5---8-5---|
|-------------5--------|-------------------|
|-3------5s7-----------|-------------------|
|
| H.            E    E    E  Q   H       E
|----------------------|-------------------|
|----------------------|-----------------5-|
|----------------------|--5--3-----------5-|
|---------------3------|--5--3-----------5-|
|--------------------5-|---------5---------|
|-3--------------------|-------------------|


   Q    Q   Q   Q      Q    Q   Q   E S S
|--0----0---0---0---|--0----0---0---0-0-0--|
|--1----1---1---1---|--1----1---1---1-1-1--|
|--0----0---0---0---|--0----0---0---0-0-0--|
|--2----2---2---2---|--2----2---2---2-2-2--|
|--3----3---3---3---|--3----3---3---3-3-3--|
|-------------------|----------------------|
|
|  E  E E E E E E E   +E  E E E E E E S S
|-------------------|----------------------|
|-----5-----5-5---5-|-(5)-5-----5-5--------|
|-----5-----5-5---5-|-(5)-5-----5-5--------|
|-------7-5---------|-------7-5------------|
|-------------------|----------------------|
|-------------------|-----------------3-3--|
|
| +Q    E E E E E E   +Q    E E E E Q
|-------------------|----------------------|
|-(5)---6---5-6---5-|-(5)---6---5-6--------|
|-(5)---5---5-5---5-|-(5)---5---5-5--------|
|-(5)---7---5-7---5-|-(5)---7---5-7--------|
|-------------------|----------------------|
|-------------------|----------------------|


  Q   Q  Q      Q         Q    Q   Q   Q
|-3---3--3------3------|--3----3---3---3---|
|-0---0--0------0------|--0----0---0---0---|
|-0---0--0------0------|--0----0---0---0---|
|-0---0--0------0------|--0----0---0---0---|
|-2---2--2------2------|--2----2---2---2---|
|-3---3--3------3------|--3----3---3---3---|
|
| H      T S. E T S. E   +Q    E E E E Q
|----------------------|-------------------|
|----------------------|-------------------|
|----------------------|-----------5-------|
|---------------7s9--5-|-(5)---8-5---8-5---|
|-------------5--------|-------------------|
|-3------5s7-----------|-------------------|
|
| H.            E    E    E  Q   H       E
|----------------------|-------------------|
|----------------------|-----------------5-|
|----------------------|--5--3-----------5-|
|---------------3------|--5--3-----------5-|
|--------------------5-|---------5---------|
|-3--------------------|-------------------|


   Q    Q   Q   Q      Q    Q   Q   Q
|--0----0---0---0---|--0----0---0---0---|
|--1----1---1---1---|--1----1---1---1---|
|--0----0---0---0---|--0----0---0---0---|
|--2----2---2---2---|--2----2---2---2---|
|--3----3---3---3---|--3----3---3---3---|
|-------------------|-------------------|
|
|  E  E E E E E E E   +E  E E E E E E E
|-------------------|-------------------|
|-----5-----5-5---5-|-(5)-5-----5-5---5-|
|-----5-----5-5---5-|-(5)-5-----5-5---5-|
|-------7-5---------|-------7-5---------|
|-------------------|-------------------|
|-------------------|-------------------|
|
| +Q    E E E E E E   +Q    E E E E E E
|-------------------|-------------------|
|-(5)---6---5-6---5-|-(5)---6---5-6---5-|
|-(5)---5---5-5---5-|-(5)---5---5-5---5-|
|-(5)---7---5-7---5-|-(5)---7---5-7---5-|
|-------------------|-------------------|
|-------------------|-------------------|


  Q   Q   Q   Q     Q   Q   Q   Q
|-0---0---0---0---|-0---0---0---0---|
|-1---1---1---1---|-1---1---1---1---|
|-0---0---0---0---|-0---0---0---0---|
|-2---2---2---2---|-2---2---2---2---|
|-3---3---3---3---|-3---3---3---3---|
|-----------------|-----------------|
|
| E E E E Q   E E   E E E E Q   E E
|-----------------|-----------------|
|---5-----5-------|---5-----5-------|
|---5-----5-------|---5-----5-------|
|-----7-5-----7-5-|-----7-5-----7-5-|
|-----------------|-----------------|
|-----------------|-----------------|
|
| E E Q   E E Q     E E Q   E E Q
|-----------------|-----------------|
|---5-----5-------|---5-----5-------|
|---5-----5-------|---5-----5-------|
|---5-----5-------|---5-----5-------|
|-----------------|-----------------|
|-----------------|-----------------|


  Q     Q    Q    Q      Q     Q     Q    Q
|-1-----1----1----1----|-1-----1-----1----1---|
|-1-----1----1----1----|-1-----1-----1----1---|
|-2-----2----2----2----|-2-----2-----2----2---|
|-3-----3----3----3----|-3-----3-----3----3---|
|-3-----3----3----3----|-3-----3-----3----3---|
|-1-----1----1----1----|-1-----1-----1----1---|
|
| Q     Q    E  E E  E   E  E  E  E  Q    Q
|----------------------|----------------------|
|------10------10---10-|---10----10--3---10---|
|------10------10---10-|---10----10--3---10---|
|------10------10---10-|---10----10--3---10---|
|----------------------|----------------------|
|----------------------|----------------------|
|
| E  E  E E  E  E Q      E  E  E  E  E Q    E
|----------------------|----------------------|
|---10-11---10---------|---10-11----10------5-|
|---10-10---10---------|---10-10----10------5-|
|---10-12---10---------|---10-12----10------5-|
|----------------------|----------------------|
|----------------------|----------------------|


   Q    Q   Q   Q     Q   Q    Q   Q      Q    Q  Q   Q      Q    Q  Q  E S S
|--0----0---0---0---|-0---0----0---0---|------------------|--0----0--0--0-3-3--|
|--1----1---1---1---|-1---1----1---1---|--3----3--3---3---|--1----1--1--1-0-0--|
|--0----0---0---0---|-0---0----0---0---|--3----3--3---3---|--0----0--0--0-0-0--|
|--2----2---2---2---|-2---2----2---2---|--3----3--3---3---|--2----2--2--2-0-0--|
|--3----3---3---3---|-3---3----3---3---|--1----1--1---1---|--3----3--3--3-2-2--|
|-------------------|------------------|------------------|---------------3-3--|
|
|  E  E Q   Q   E E   E E E E  Q   Q      E  E Q  Q.    E   +E  E Q  Q  Q
|-------------------|------------------|------------------|--------------------|
|-----5-6---5-----5-|---5---5-10---5---|-----3-3--3-----5-|-(5)-3-5--5--5------|
|-----5-5---5-----5-|---5---5-10---5---|-----3-3--3-----5-|-(5)-3-5--5--5------|
|-----5-7---5-----5-|---5---5-10---5---|-----3-3--3-----5-|-(5)-3-5--5--5------|
|-------------------|------------------|------------------|--------------------|
|-------------------|------------------|------------------|--------------------|
|
| +Q    E Q   E Q     E Q   E  E E E E   +Q    Q  Q   E E    E  E Q  Q  E S S
|-------------------|------------------|------------------|--------------------|
|-(5)---5-----5-----|-5-----5----5---6-|-(6)---6--6---5-5-|--5--3-5--5--5------|
|-(5)---5-----5-----|-5-----5----5---7-|-(7)---7--7---5-5-|--5--3-5--5--5------|
|-(5)---5-----5-----|-5-----5----5---8-|-(8)---8--8---5-5-|--5--3-5--5--5------|
|-------------------|------------------|------------------|--------------------|
|-------------------|------------------|------------------|---------------3-3--|


  Q   Q  Q      Q         Q    Q   Q   Q
|-3---3--3------3------|--3----3---3---3---|
|-0---0--0------0------|--0----0---0---0---|
|-0---0--0------0------|--0----0---0---0---|
|-0---0--0------0------|--0----0---0---0---|
|-2---2--2------2------|--2----2---2---2---|
|-3---3--3------3------|--3----3---3---3---|
|
| H      T S. E T S. E   +Q    E E E E Q
|----------------------|-------------------|
|----------------------|-------------------|
|----------------------|-----------5-------|
|---------------7s9--5-|-(5)---8-5---8-5---|
|-------------5--------|-------------------|
|--------5s7-----------|-------------------|
|
| H.            E    E    E  Q   H       E
|----------------------|-------------------|
|----------------------|-----------------5-|
|----------------------|--5--3-----------5-|
|---------------3------|--5--3-----------5-|
|--------------------5-|---------5---------|
|-3--------------------|-------------------|


   Q    Q   Q   Q      Q    Q   Q   E S S
|--0----0---0---0---|--0----0---0---0-3-3--|
|--1----1---1---1---|--1----1---1---1-0-0--|
|--0----0---0---0---|--0----0---0---0-0-0--|
|--2----2---2---2---|--2----2---2---2-0-0--|
|--3----3---3---3---|--3----3---3---3-2-2--|
|-------------------|-----------------3-3--|
|
|  E  E E E E E E E   +E  E E E E E E S S
|-------------------|----------------------|
|-----5-----5-5---5-|-(5)-5-----5-5--------|
|-----5-----5-5---5-|-(5)-5-----5-5--------|
|-------7-5---------|-------7-5------------|
|-------------------|----------------------|
|-------------------|-----------------3-3--|
|
| +Q    E E E E E E   +Q    E E E E Q
|-------------------|----------------------|
|-(5)---6---5-6---5-|-(5)---6---5-6--------|
|-(5)---5---5-5---5-|-(5)---5---5-5--------|
|-(5)---7---5-7---5-|-(5)---7---5-7--------|
|-------------------|----------------------|
|-------------------|----------------------|


  Q   Q  Q      Q         Q    Q   Q   Q
|-3---3--3------3------|--3----3---3---3---|
|-0---0--0------0------|--0----0---0---0---|
|-0---0--0------0------|--0----0---0---0---|
|-0---0--0------0------|--0----0---0---0---|
|-2---2--2------2------|--2----2---2---2---|
|-3---3--3------3------|--3----3---3---3---|
|
| H      T S. E T S. E   +Q    E E E E Q
|----------------------|-------------------|
|----------------------|-------------------|
|----------------------|-----------5-------|
|---------------7s9--5-|-(5)---8-5---8-5---|
|-------------5--------|-------------------|
|-3------5s7-----------|-------------------|
|
| H.            E    E    E  Q   H       E
|----------------------|-------------------|
|----------------------|-----------------5-|
|----------------------|--5--3-----------5-|
|---------------3------|--5--3-----------5-|
|--------------------5-|---------5---------|
|-3--------------------|-------------------|


   Q    Q   Q   Q      Q    Q   Q   E S S
|--0----0---0---0---|--0----0---0---0-3-3--|
|--1----1---1---1---|--1----1---1---1-0-0--|
|--0----0---0---0---|--0----0---0---0-0-0--|
|--2----2---2---2---|--2----2---2---2-0-0--|
|--3----3---3---3---|--3----3---3---3-2-2--|
|-------------------|-----------------3-3--|
|
|  E  E E E E E E E   +E  E E E E E E S S
|-------------------|----------------------|
|-----5-----5-5---5-|-(5)-5-----5-5--------|
|-----5-----5-5---5-|-(5)-5-----5-5--------|
|-------7-5---------|-------7-5------------|
|-------------------|----------------------|
|-------------------|-----------------3-3--|
|
| +Q    E E E E E E   +Q    E E E E Q
|-------------------|----------------------|
|-(5)---6---5-6---5-|-(5)---6---5-6--------|
|-(5)---5---5-5---5-|-(5)---5---5-5--------|
|-(5)---7---5-7---5-|-(5)---7---5-7--------|
|-------------------|----------------------|
|-------------------|----------------------|


  Q   Q  Q        Q         Q     Q     Q   Q
|-3---3--3--------3------|--3-----3-----3---3--|
|-0---0--0--------0------|--0-----0-----0---0--|
|-0---0--0--------0------|--0-----0-----0---0--|
|-0---0--0--------0------|--0-----0-----0---0--|
|-2---2--2--------2------|--2-----2-----2---2--|
|-3---3--3--------3------|--3-----3-----3---3--|
|
| H      T S.  E  T S. E   +Q     E  E  E E Q
|------------------------|---------------------|
|------------------------|---------------------|
|------------------------|--------------5------|
|-----------------7s9--5-|-(5)----8--5----8-5--|
|--------------5---------|---------------------|
|-3------5s7-------------|---------------------|
|
| Q   Q  E     E  Q         E   E E  Q.     Q
|------------------------|---------------------|
|----12-------12-13------|-12--13---12---------|
|----12-------12-12------|-12--12---12---------|
|----12-------12-14------|-12--14---12---------|
|------------------------|---------------------|
|------------------------|---------------------|


  Q   Q   Q   Q      Q    Q   Q   E  S S
|-0---0---0---0---|--0----0---0---0--3-3--|
|-1---1---1---1---|--1----1---1---1--0-0--|
|-0---0---0---0---|--0----0---0---0--0-0--|
|-2---2---2---2---|--2----2---2---2--0-0--|
|-3---3---3---3---|--3----3---3---3--2-2--|
|-----------------|------------------3-3--|
|
| E E E E E E E E   +E  E E E E E Q
|-----------------|-----------------------|
|---5-----5-5---5-|-(5)-5-----5-5---------|
|---5-----5-5---5-|-(5)-5-----5-5---------|
|-----7-5---------|-------7-5-------------|
|-----------------|-----------------------|
|-----------------|-----------------------|
|
| Q   Q   E E E E   +E  E Q   E E E  E
|-----------------|-----------------------|
|-5---6---5-6---5-|-(5)-5-6---5-6---12----|
|-5---5---5-5---5-|-(5)-5-5---5-5---12----|
|-5---7---5-7---5-|-(5)-5-7---5-7---12----|
|-----------------|-----------------------|
|-----------------|-----------------------|


      Q     Q    Q    Q        Q      Q    Q    Q
||----3-----3----3----3----|---3------3----3----3---|
||o---0-----0----0----0----|---0------0----0----0---|
||----0-----0----0----0----|---0------0----0----0---|
||----0-----0----0----0----|---0------0----0----0---|
||o---2-----2----2----2----|---2------2----2----2---|
||----3-----3----3----3----|---3------3----3----3---|
|
|     E  E  E E  E  E E  E     E   E  E E  Q    E E
||-------------------------|------------------------|
||o------3--5----3----5----|---3------5----3----5---|
||-------4--5----4----5----|---4------5----4----5---|
||-------5--5----5----5----|---5------5----5----5---|
||o------------------------|------------------------|
||-------------------------|------------------------|
|
|    +Q     Q    E  E E  E    +E   E  E E  E  E E E
||-------------------------|------------------------|
||o-(12)---13---12-13---12-|-(12)-12-13---12-13---5-|
||--(12)---12---12-12---12-|-(12)-12-12---12-12---5-|
||--(12)---14---12-14---12-|-(12)-12-14---12-14---5-|
||o------------------------|------------------------|
||-------------------------|------------------------|


   Q    Q   Q   Q      Q    Q   Q   E  S S
|--0----0---0---0---|--0----0---0---0--3-3--||
|--1----1---1---1---|--1----1---1---1--0-0-o||
|--0----0---0---0---|--0----0---0---0--0-0--||
|--2----2---2---2---|--2----2---2---2--0-0--||
|--3----3---3---3---|--3----3---3---3--2-2-o||
|-------------------|------------------3-3--||
|
|  E  E E E E E E E    E  E E E E E E  E
|-------------------|-----------------------||
|-----5-6---5---6---|-----5-6---5---6------o||
|-----5-5---5---5---|-----5-5---5---5-------||
|-----5-7---5---7---|-----5-7---5---7-------||
|-------------------|----------------------o||
|-------------------|-----------------------||
|
| +Q    Q   E E E E   +E  E E E E E E  E
|-------------------|-----------------------||
|-(5)---6---5-6---5-|-(5)-5-6---5-6---12---o||
|-(5)---5---5-5---5-|-(5)-5-5---5-5---12----||
|-(5)---7---5-7---5-|-(5)-5-7---5-7---12----||
|-------------------|----------------------o||
|-------------------|-----------------------||


      Q      Q   Q    Q        Q       Q    Q    Q
||----3------3---3----3----|---3-------3----3----3---|
||o---0------0---0----0----|---0-------0----0----0---|
||----0------0---0----0----|---0-------0----0----0---|
||----0------0---0----0----|---0-------0----0----0---|
||o---2------2---2----2----|---2-------2----2----2---|
||----3------3---3----3----|---3-------3----3----3---|
|
|     E  Q.      E  E E  E     E   Q.       E  E E E
||-------3-------3---------|-------3--------3--------|
||o------3-------3--5-3----|-------3--------3--5-3---|
||------------------5-3----|-------------------5-3---|
||-----------------------5-|-----------------------5-|
||o------------------------|-------------------------|
||-------------------------|-------------------------|
|
|    +Q      Q   E  E E  E    +E   E   E E  E  E E E
||-------------------------|-------------------------|
||o-(12)----13--12-13---12-|-(12)-12--13---12-13---5-|
||--(12)----12--12-12---12-|-(12)-12--12---12-12---5-|
||--(12)----14--12-14---12-|-(12)-12--14---12-14---5-|
||o------------------------|-------------------------|
||-------------------------|-------------------------|


   Q     Q  Q    Q       Q     Q   Q    E  S S  3x
|--0-----0--0----0----|--0-----0---0----0--3-3--||
|--1-----1--1----1----|--1-----1---1----1--0-0-o||
|--0-----0--0----0----|--0-----0---0----0--0-0--||
|--2-----2--2----2----|--2-----2---2----2--0-0--||
|--3-----3--3----3----|--3-----3---3----3--2-2-o||
|---------------------|--------------------3-3--||
|
|  E  Q.    E  E E  E    E  Q.     E  E E  E    3x
|-----8-----8---------|-----8------8------------||
|-----8-----8-10-8----|-----8------8-10-8------o||
|-------------10-8----|--------------10-8-------||
|------------------10-|-------------------10----||
|---------------------|------------------------o||
|---------------------|-------------------------||
|
| +Q     Q  E  E E  E   +E  E  E E E  E E  E    3x
|---------------------|-------------------------||
|-(5)----6--5--6----5-|-(5)-5--6---5--6---12---o||
|-(5)----5--5--5----5-|-(5)-5--5---5--5---12----||
|-(5)----7--5--7----5-|-(5)-5--7---5--7---12----||
|---------------------|------------------------o||
|---------------------|-------------------------||


    Q      Q   Q    Q        Q       Q    Q    Q
|---3------3---3----3----|---3-------3----3----3---|
|---0------0---0----0----|---0-------0----0----0---|
|---0------0---0----0----|---0-------0----0----0---|
|---0------0---0----0----|---0-------0----0----0---|
|---2------2---2----2----|---2-------2----2----2---|
|---3------3---3----3----|---3-------3----3----3---|
|
|   E  Q.      E  E E  E     E   Q.       E  E E E
|------3-------3---------|-------3--------3--------|
|------3-------3--5-3----|-------3--------3--5-3---|
|-----------------5-3----|-------------------5-3---|
|----------------------5-|-----------------------5-|
|------------------------|-------------------------|
|------------------------|-------------------------|
|
|  +Q      Q   E  E E  E    +E   E   E E  E  E E E
|------------------------|-------------------------|
|-(12)----13--12-13---12-|-(12)-12--13---12-13---5-|
|-(12)----12--12-12---12-|-(12)-12--12---12-12---5-|
|-(12)----14--12-14---12-|-(12)-12--14---12-14---5-|
|------------------------|-------------------------|
|------------------------|-------------------------|


   Q     Q  Q    Q       E     E     E          E      +H
|--0-----0--0----0----|--0-----0-----0----------0------(0)-----*|
|--1-----1--1----1----|--1-----1-----1----------1------(1)-----*|
|--0-----0--0----0----|--0-----0-----0----------0------(0)-----*|
|--2-----2--2----2----|--2-----2-----2----------2------(2)-----*|
|--3-----3--3----3----|--3-----3-----3----------3------(3)-----*|
|---------------------|----------------------------------------*|
|
|  E  Q.    E  E E  E    E     E     S     +S   E      +H
|-----8-----8---------|----------------------------------------*|
|-----8-----8-10-8----|-11----11---------------11-----(11)-----*|
|-------------10-8----|-10b12-10b12-10b12r(10)-10b12==(10)r----*|
|------------------10-|----------------------------------------*|
|---------------------|----------------------------------------*|
|---------------------|----------------------------------------*|
|
| +Q     Q  E  E E  E    E     E     E          E      +H
|---------------------|----------------------------------------*|
|-(5)----6--5--6----5-|--5-----6-----6----------5------(5)-----*|
|-(5)----5--5--5----5-|--5-----5-----5----------5------(5)-----*|
|-(5)----7--5--7----5-|--5-----7-----7----------5------(5)-----*|
|---------------------|----------------------------------------*|
|---------------------|----------------------------------------*|




--------------------------------------------------------------------------------


Duration Legend
---------------
W - whole; H - half; Q - quarter; E - 8th; S - 16th; T - 32nd; X - 64th; a - acciaccatura
+ - note tied to previous; . - note dotted; .. - note double dotted
Uncapitalized letters represent notes that are staccato (1/2 duration)
Irregular groupings are notated above the duration line
Duration letters will always appear directly above the note/fret number it represents the
duration for.  Duration letters with no fret number below them represent rests.  Multi-
bar rests are notated in the form Wxn, where n is the number of bars to rest for.  Low
melody durations appear below the staff

Tablature Legend
----------------
 h   - hammer-on
 p   - pull-off
 b   - bend
 pb  - pre-bend
 r   - bend release (if no number after the r, then release immediately)
 /\  - slide into or out of (from/to "nowhere")
 s   - legato slide
 S   - shift slide
 - natural harmonic
[n]  - artificial harmonic
n(n) - tapped harmonic
 ~   - vibrato
 tr  - trill
 T   - tap
 TP  - trem. picking
 PM  - palm muting
\n/  - tremolo bar dip; n = amount to dip
 \n  - tremolo bar down
 n/  - tremolo bar up
/n\  - tremolo bar inverted dip
 =   - hold bend; also acts as connecting device for hammers/pulls
 <> - volume swell (louder/softer)
 x   - on rhythm slash represents muted slash
 o   - on rhythm slash represents single note slash

Misc Legend
-----------
 |  - bar
||  - double bar
||o - repeat start
o|| - repeat end
*|  - double bar (ending)
 :  - bar (freetime)
 $  - Segno
 &  - Coda
Tempo markers -  = BPM(8/16=s8/s16), where s8 = swing 8ths, s16 = swing 16ths
21 comments total. Showing first comments.
0 reply
JohnnyMak wrote on February 6 2005, 12:00 am

freakin awesome

0 reply
Repitition wrote on May 7 2006, 02:37 am

This is right and wrong at the same time. The second guitar is in Open G
(GG(same)DGBD) thats all that is wrong with it.

0 reply
Derigiberble wrote on June 23 2006, 07:05 am

Yes I agree that it is generally played in open G, but if you look at what he plays in my tab, you don't actually need to retune as it can all be played in standard.

I want to post or [tab]
guest
You may want to rate the tab now too:
select rating
Please do not post tabs as comments. Select "correction" instead!