Oops, an error
Loading. Please wait.

Emotional Rescue Bass Tab

5,225 views 18 this week
no commentswrite comment
1 2 3 4 5
accurate
x 1
Autoscroll
+/-
esc
set tempo
stop
Contributor
Difficulty
intermediate
Hey! There's an official Ultimate Guitar app which is ideal
for learning songs when you're away from computer. Get the app
WARNING: You are trying to view
                                    content from Ultimate-Guitar.com
                                    in an unauthorized application,
                                    which is prohibited.

                                    Please use an official Ultimate
                                    Guitar Tabs application for iPhone,
                                    iPad or Android to access legitimate
                                    chords, guitar, bass, and drum tabs
                                    from Ultimate-Guitar.com database.

                                    Type "ultimate guitar tabs" in Apple
                                    App Store's or Android Market's
                                    search to find the application.
-------------------------------------------------------------------------------
                      Emotional Rescue - The Rolling Stones
-------------------------------------------------------------------------------

Tabbed by: TBone142
e-mail: tbone142@freemail.hu

Tuning: standard EADG

Intro:
G|-7---5------------------------7---5----------------------------|
D|--------8-------8--------------------8-8-----------8-6-8-8-8---|
A|------------8h10-------------------------8/10----8-------------|
E|-------------------6---6--6-6-----------------6----------------|

Verse 1:
G|----------------------------------------7---5------------------|
D|------------------8----------------------------8--5------------|
A|-8/10--8----8/10-----10----------------------------------------|
E|---------6--------------6--6--6----------------------6--6--6---|

G|-7--7-------------------------7\5------------------------------|
D|------8-----8-8---8---------------8--------8-8-----------------|
A|---------8------8-----10--8----------8/10----------------------|
E|----------------------------6-------------------6--------------|

G|---------10p7---------------------10-7-10----------------------|
D|-------------8--8-----------8-8-----------8--8-----8-8-8--8----|
A|-----------------------8/10----------------------8-------------|
E|---------------------------------------------------------------|

Bridge:
G|---------------------------------------------------------------|
D|---------------------------------7-7---------------------------|
A|-10---10------10-10-8-10--10--10----10-10-8-8-7-7--------------|
E|-----------10-------------------------------------10-----------|

Verse 2:
G|---------------------------------------------------------------|
D|---------8-------8-----------8----8-8-8----------8-----8-------|
A|-----------8--------------------8--------10-8-10---------------|
E|--------------6-----6--6--6-------------------------6----------|

G|-----------7------7------10---7-----10p7--10----7--10-10-7-----|
D|---------8---8--8---8--8----8-----8-----8-----8----------------|
A|---------------------------------------------------------------|
E|---------------------------------------------------------------|

G|--------------10-----10-----10---------------------------------|
D|------------8-----8------8--------8----8---------------8-------|
A|----------8-------------------------10---8-------8--8----------|
E|--------6-----------------------------------6--6---------------|

G|---------------------------|
D|-8-7-8---8---8---8--8--7--7|
A|---------------------------|
E|---------------------------|

Bridge:
G|---------------------------------------------------------------|
D|--------------------------------------------3------------------|
A|-10--10--8-10---------10-----10---8-8--------3-----------------|
E|---------------3---10-----10----------8-1-----1-1--1-----------|

G|--------------------------------1---1---5---1------------------|
D|-5-------5--------------------3---3---3---3---3----------------|
A|--5-------5----------------------------------------------------|
E|---3--3----3-3-3--3--3--1--1-----------------------------------|

G|-----4-4-5-5-7-7-5-7-5-4-----------2-2-3-5-3-2-3-2-------------|
D|-5-5---------------------5--5--3-3-----------------3--3--3-----|
A|---------------------------------------------------------------|
E|---------------------------------------------------------------|

G|------------------------------------------------------------5/7|
D|-5-------5-5-5-4-5------5-5-5--3-3-2-3------------5----5-4-5---|
A|---5----5--------------5---------------------------------------|
E|-----3---------------3------------------1-1-1-1-1----3---------|

Verse 3:
G|-7---5-----------------------7---5-----------------------------|
D|-------8--7/8----------------------8--7/8----------------------|
A|---------------------------------------------------------------|
E|---------------6--6---6--6-6---------------6--6---6--6-6-------|

G|-7---5-7-------7-5----7----5/7---7-5---------------------------|
D|----------8-8------8----8------------8-8-8---5-8-8-5-----------|
A|-------------------------------------------8---------8---------|
E|-------------------------------------------------------6-6-6/10|

G|7p5------------------------------------------------------------|
D|----8-8-8---5-8-8-8---8-8-8-12--8-8------8-8-----8-8-8-8-8-8---|
A|----------8---------8---------------8h10-----8---------------10|
E|-----------------------------------------------6---------------|

G|---------------------------|
D|--88-8--88-8--88-8--8-7----|
A|---------------------------|
E|---------------------------|

Bridge:
G|---------------------------------------------------------------|
D|-------------8/9------------------------10--8-7--------8-7-8p7-|
A|-10--10-8-10-----10--10--10--10-10--8-8---------8--8-8--------8|
E|---------------------------------------------------------------|

G|---------------------------------------------------------------|
D|---------10-9-10p9------------------------8--7---------8--7----|
A|-10-10-10---------10--10--10--10-10-10--8-----8-8-8--8-----8--8|
E|---------------------------------------------------------------|

G|---------------5-7------7--------------------------------------|
D|-5--5--5--5--5-----5--5---5----7---8---10-------7---8---10-----|
A|-----------------------------8---8---8----8---8---8---8----8---|
E|---------------------------------------------------------------|

G|-------------------------------------2---5---3-2---------------|
D|---5--------h3-5-5-5-5-5-5---3-3--33---3---3------3-3----------|
A|-5----5----5---------------------------------------------------|
E|--------3------------------------------------------------------|

G|---------------------------------------------------------------|
D|-3-5--555--555--555-5-333-x33-x33-x33-x33-x33-x33-x33----------|
A|---------------------------------------------------------------|
E|---------------------------------------------------------------|

G|------------------------------------5-4---5-5-------5-2-----5--|
D|x55-x55-x55-x55-x55-x55-x55-x55-x33-----3-----3-3-3-----3-3---3|
A|---------------------------------------------------------------|
E|---------------------------------------------------------------|

G|-74----4--7----------------|
D|---5-5---------------------|
A|---------------------------|
E|---------------------------|

Verse 4:
G|----7p5-----------10p7----7-10--10--7-10p7--7-10---------------|
D|-------8-8-8-8-8------8-8-----------------8--------------------|
A|---------------------------------------------------------------|
E|---------------------------------------------------------------|

G|----10/12-----------10p7---h7h10--10p7--7-10--10/12------------|
D|---------12-8-8-8-------8-8-------------8----------------------|
A|---------------------------------------------------------------|
E|---------------------------------------------------------------|

G|----10p7---h7h10--10p7---h7h10-10-10--10p7---h7h10p7-----------|
D|--------8-8-----------8-8-----------------8-8-------8----------|
A|---------------------------------------------------------------|
E|---------------------------------------------------------------|

G|----10p7---h7h10-10-10/12--10p7---h7h10-10---------------------|
D|--------8-8--------------------8-8-----------8----8----8\7-----|
A|---------------------------------------------------------------|
E|-----------------------------------------------6----6----------|

Bridge:
G|-------------------4/5-----------------------------------------|
D|----6\5-5-5--3-5-5-----5--7-7--7--7--5p7-----------------------|
A|---------------------------------------------------------------|
E|---------------------------------------------------------------|

Outro:
G|-7-5-7-----------------------7-5-7-----------------------------|
D|-------8---------------------------8------8--8--7/8-8-7/8-8-8--|
A|---------------------------------------------------------------|
E|---------6-6--6--6--6--6--6----------6-6-----------------------|

G|-7-5-7-7/10-----------7-10-7--8-7------------------------------|
D|-------------8--8---8-------------8--8--8--8--8--8------8------|
A|---------------------------------------------------------------|
E|---------------------------------------------------6-6----6-6--|

G|---------------------------------------------------------------|
D|-8------8------8---------------8-------------8-----------------|
A|----------------------7/8-8-----------6-5-----------7/8-7------|
E|---6-6----6-6----6-6--------6----6-6------6----6-6--------6----|

G|---------------------------------------------------------------|
D|-8------8-----8-----8------8------------8-----------8----------|
A|---------------------------------------------------------------|
E|---6-6-----6-----6-----6----66-6-6-6-6---66-6-6--6---66-6-6-6-6|

G|-8-------------------------------------------------------------|
D|---------------------------------------------------------------|
A|-----------------5------5------5------5------8------5----------|
E|--66-6-6-6-6---6---6--6---6--6---6--6---6--6---6--6---6--------|

G|---------------------------------------------------------------|
D|---------------------------------------------------------------|
A|-6--5----------8------5----6--5----------8------8----6--5------|
E|------6-6-6--6---6--6---6-------6-6-6--6---6--6---6------------|

G|--6/7---5-------------------6/7---5---------------------6/7---5|
D|8-----8---8--8------------8-----8---8--8--------------8-----8--|
A|-----------------------------------------8---------------------|
E|----------------6--6---6-6-----------------6--6---6-6----------|

G|-----------------6/7---5---------------------6/7---5-----------|
D|-8--8----------8-----8---8--8--------------8-----8---8--8------|
A|---------------------------------------------------------------|
E|------6-6--6--6---------------6-6--6----6-6---------------6--6-|

G|----------6/7---5--------------------6/7---10p7----------------|
D|--------8-----8---8-----8----------------8------8--8-----------|
A|------------------------------8-----8--------------------------|
E|-6-6--6--------------6-----6-----6-------------------6-6--6----|

G|10p7-------------10p7--------------10p7-------------10p7-------|
D|-----8--8-------------8--8--8-8-8-------8--8--8-8-8------8-----|
A|---------------------------------------------------------------|
E|----------6-6--6-----------------------------------------------|

                                                  (fade out...)
G|-7/10--7/10-10p7---------7/10-7/10------------------7h10-10----|
D|-7/10--7/10------8--8--8-7/10-7/10-8--8------8--8--8-----------|
A|----------------------------------------8/10-------------------|
E|---------------------------------------------------------------|

G|-8p7-----7-------8p7-----7----|
D|-----8-8---8---8-----8-8---8--|
A|------------------------------|
E|------------------------------|

===============================================================================
Notes: 

If You have problems with this tab, write me a mail what's wrong with it
instead of giving it a bad rating! It'd better for everyone! Thx!


| /  slide up
| \  slide down
| h  hammer-on
| p  pull-off
| ~  vibrato
| +  harmonic
| x  Mute note
===============================================================================
comments
We did not receive enough feedback on this tab! Please rate:
print report bad tab
1 2 3 4 5
I want to post or [tab]
guest
You may want to rate the tab now too:
select rating
Please do not post tabs as comments. Select "correction" instead!