Oops, an error
Loading. Please wait.

Memo From Turner Tab

ver1
ver1

Whole song

Interactive

More versions @911Tabs.com
6,560 views 15 this week
no commentswrite comment
1 2 3 4 5
please rate
Autoscroll
+/-
esc
set tempo
stop
WARNING: You are trying to view
                                    content from Ultimate-Guitar.com
                                    in an unauthorized application,
                                    which is prohibited.

                                    Please use an official Ultimate
                                    Guitar Tabs application for iPhone,
                                    iPad or Android to access legitimate
                                    chords, guitar, bass, and drum tabs
                                    from Ultimate-Guitar.com database.

                                    Type "ultimate guitar tabs" in Apple
                                    App Store's or Android Market's
                                    search to find the application.
#----------------------------------PLEASE NOTE---------------------------------#
#This file is the author's own work and represents their interpretation of the #
#song. You may only use this file for private study, scholarship, or research. #
#------------------------------------------------------------------------------##

                                MEMO FROM TURNER
                          As recorded by Rolling Stones

Words and Music by Mick Jagger and Keith Richards
Arranged by Mick Jagger and Keith Richards
Transcribed by TLSspider for Power Tab Editor

           E                    A                   E5                    D
      0 2 2 1 0 0          5 0 7 6 5 5          x 7 9 9 0 7          x 5 4 2 3 2

          Bm                   C#m                  A5                    C
      x 2 4 x 3 2          x 4 6 6 5 4          5 5 5 x 5 5          x 3 2 0 1 x

          G/A                  G#
      5 x 5 4 0 3          4 3 1 1 1 4

Gtr I (E B E G# B E) - 'Guitar Open E Tuning'
Gtr II (E A D G B E) - 'Guitar - Std. Tuning'

 Intro
  Moderately H=88
          E5                              A
 4/4
  Gtr II
  H.       Q      W            H.          Q
           |      |            |           |
           /      /            /           /

  Gtr I
  H.       Q      W           +H      E E  E  E
|---------11S=||=12--------|-(12)---------------|
|---------11S=||=12--------|-(12)---------------|
|---------11S=||=12--------|-(12)---------------|
|-------------||-----------|---------10p9----10-|
|-------------||-----------|--------------10----|
|-------------||-----------|--------------------|


    W                 Q   E E Q   Q     W
    |                 |   | | |   |     |
    /                 /   / / /   /     /

   +E  E  H.         +Q   Q   E E Q    +W
|-----------------|---------------5--|-(5)----|
|-----------------|------------------|--------|
|-----------------|-----------4h5----|--------|
|-(10)p9----------|------------------|--------|
|--------10-------|-(10)-------------|--------|
|-----------------|------------------|--------|


  A5 E5                E5
  Q   Q   Q     Q        Q  E E  Q    Q
  |   |   |     |        |  | |  |    |
  /   /   /     /        /  / /  /    /

                         ~~~
  Q   Q   E  E  E  E     H       E E  E  E
|--------------------|---------------------|
|----10-----12----12-|-/12------12-8----12-|
|--------12----12----|-/12------12-8-12----|
|--------------------|-/12-----------------|
|--------------------|---------------------|
|--------------------|---------------------|


                                  A5      A
    H      Q   E E     Q  Q   Q    Q        H         Q  E E
    |      |   | |     |  |   |    |        |         |  | |
    /      /   / /     /  /   /    /        /         /  / /

   +H      H           H      E E  E  E    +E  E  H.
|------------------|--------------------|----------------------|
|-(12)----12\------|--------------------|----------------------|
|---------12\------|-/12----------------|----------------------|
|------------------|-/12-----10p9----10-|-(10)p9---------------|
|------------------|--------------10----|--------10------------|
|------------------|--------------------|----------------------|


  A5
    E    E  E E Q   Q     H    Q  E E
    |    |  | | |   |     |    |  | |
    /    /  / / /   /     /    /  / /

         ~~~~             ~~
   +E   +Q.     Q   Q     W
|----------------------|--------------|
|------------------15S=|=17-----------|
|------------------15S=|=17-----------|
|----------------------|--------------|
|-(10)-(10)------------|--------------|
|----------------------|--------------|


                   E
    Q     Q     Q   Q       H    H        E  E E E  Q   Q
    |     |     |   |       |    |        |  | | |  |   |
    /     /     /   /       /    /        /  / / /  /   /

        ~~      ~~
   +E   Q    E  Q   Q       W            +H         Q   Q
|-----------------------|-------------|-----------------------|
|-(17)-17------17--17\--|-\12---------|-(12)-------12--11/----|
|-(17)-17------17--17\--|-\12---------|-(12)-----------11/----|
|-----------17----------|-\12---------|-(12)-----------11/----|
|-----------------------|-------------|-----------------------|
|-----------------------|-------------|-----------------------|


                                A
    H.      E E     Q   Q   Q    Q
    |       | |     |   |   |    |
    /       / /     /   /   /    /

    W              +H       E E  E  E
|---------------|---------------------|
|-/12-----------|-(12)----------------|
|-/12-----------|-(12)----------------|
|-/12-----------|-(12)-----10p9----10-|
|---------------|---------------10----|
|---------------|---------------------|


    Q     Q   Q  E E   Q   Q   Q   E E   H    Q.   E
    |     |   |  | |   |   |   |   | |   |    |    |
    /     /   /  / /   /   /   /   / /   /    /    /

   +E  E  H.           E E E E E E E E   W
|--------------------|-----------------|---------------||
|--------------------|-----------------|---------------||
|--------------------|-----------------|---------------||
|-(10)p9-------------|-----5-----------|-5-------------||
|--------10----------|-5-7---7-5-------|---------------||
|--------------------|-----------9-7-5-|---------------||


 Verse
                      A                                D                A5
   Q   Q   Q   Q       E  E Q  E E E E   Q  Q  Q  Q     H      Q    Q
   |   |   |   |       |  |    | | | |   |     |        |      |
   /   /   /   /       /  /    / / / /   /     /        /      /

                       ~~~
   E E E E E E E E    +W                 H     Q  Q     H     +E  E E E
|------------------||------------------|-------------|-------------------|
|-10p8---5-------5-||-(5)--------------|----------9S=|=10----(10)--------|
|------------4h5-5-||-(5)--------------|----------9S=|=10----(10)--------|
|----------------5-||-(5)--------------|----------9S=|=10----(10)-8-7-5--|
|------------------||------------------|-------------|------------8-7-5--|
|------------------||------------------|-------------|-------------------|


                   D                A5                  D
   E  E Q  Q  Q     H      Q    Q       E  E Q  Q  Q     H      Q    Q
   |  |    |        |      |            |  |    |        |      |
   /  /    /        /      /            /  /    /        /      /

                                        ~~~
  +H.         Q     H     +E  E E E    +H       Q  Q     H     +E  E E E
|----------------|-------------------|----------------|------------------|
|-------------9S=|=10----(10)--------|-------------9S=|=10----(10)-------|
|-------------9S=|=10----(10)--------|-------------9S=|=10----(10)-------|
|-(5)---------9S=|=10----(10)-8-7-5--|-(5)---------9S=|=10----(10)-8-7-5-|
|-(5)------------|------------8-7-5--|-(5)------------|------------8-7-5-|
|----------------|-------------------|----------------|------------------|


  A                                                    D
   E  E Q  Q  Q     Q   Q  E E E E   Q    Q    Q  Q     H      Q    Q
   |  |    |        |   |  | |   |   |    |    |  |     |      |
   /  /    /        /   /  / /   /   /    /    /  /     /      /

  +H.         E E   H.         E E   E E +E  E Q  Q     H     +E  E E E
|-----------------|-5----------7---|-9-------7----5--|-------------------|
|-----------------|------------7---|-----------------|-------------------|
|-------------3h5-|-5----------7-5-|-9-------7----5--|-10----(10)--------|
|-(5)-------------|----------------|---5-(5)---5-----|-10----(10)-8-7-5--|
|-(5)-------------|----------------|-----------------|----------------5--|
|-----------------|----------------|-----------------|-------------------|


                   D                A5           D
   E  E Q  Q  Q     E E Q    Q    Q      E  E Q  Q  Q     H     H
   |  |    |        | |      |           |  |    |        |     |
   /  /    /        / /      /           /  /    /        /     /

                                         ~~~
  +H.         Q     H       +E  E E E   +H.         Q     H     H
|----------------|--------------------|----------------|-------------|
|-------------9S=|=10------(10)-------|-------------9S=|=10----10----|
|-------------9S=|=10------(10)-------|-------------9S=|=10----10----|
|-(5)---------9S=|=10------(10)-8-7-5-|-(5)---------9S=|=10----10----|
|-(5)------------|--------------8-7-5-|-(5)------------|-------------|
|----------------|--------------------|----------------|-------------|


        A5     C#m          Bm             D
   H    H       H    H      H     Q  E E    H        H
   |    |       |    |      |     |  | |    |        |
   /    /       /    /      /     /  / /    /        /

                ~~~~~~~~~~~~~~~
   H    H       W           H.       E E   +H.          E E
|------------|------------|--------------|-------------------|
|-10----5----|-/5---------|-3----------3-|-(3)----------3-2--|
|-10----5----|-/5---------|-3--------1h3-|-(3)----------3-1--|
|-10----5----|------------|--------------|--0h2-(2)-----2-0--|
|------------|------------|--------------|-------------------|
|------------|------------|--------------|-------------------|
                                            E E +H      Q


  A               C#m             Bm
   H     H        H        H      H        H
   |     |        |        |      |        |
   /     /        /        /      /        /

  +H.       E E   E E +H.         E E +H      E E
|---------------|---------------|-----------------|
|-(2)-------3-2-|-4S5-(5)-------|-3-3-(3)-------3-|
|-(1)-------3-1-|-4S5-(5)-------|-1h3-(3)-----1h3-|
|-(0)-----------|---------------|-----------------|
|---------------|---------------|-----------------|
|---------------|---------------|-----------------|


  D
   H        Q   E E   E E E E Q   Q
   |        |   | |   | | | | |   |
   /        /   / /   / / / / /   /

  +H        Q.    E   E E E E E E E E
|-------------------|-------------------|
|-(3)-------3-----3-|-3-3-3-3-----------|
|-(3)-------1-----1-|-1-1-1-1-----------|
|--0h2-(2)--2-----2-|-2-2-2-2-----------|
|-------------------|-----------0-1h2---|
|-------------------|---------5---------|
   E E +Q   H


  H    H         E E E E  E  E E E
  |    |         | | | |  |  | | |
  /    /         / / / /  /  / / /

  H    E E E E   H       +E  E E E
|--------------|-------------------|
|-3----3-3---3-|-3-------(3)-3---3-|
|-1----1-1---1-|-1-------(1)-1---1-|
|-2----2-2---2-|-2-------(2)-2---2-|
|--------------|-------------------|
|--------------|-------------------|


                             Verse
  A                           A5
  Q  Q  H       W              Q  Q  Q  Q
  |                            |  |  |  |
  /                            /  /  /  /

  ~~~~~~~~~~~~~~~~~
  W            +H     H        W
|-0----------|-(0)---------||-/5-------------|
|-2----------|-(2)---------||-/5-------------|
|-1----------|-(1)---------||-/5-------------|
|-0----------|-(0)---------||----------------|
|------------|-------------||----------------|
|------------|-------------||----------------|


                   D              A5                      D               A5
  Q    Q   Q  Q     Q  Q    Q     E E    E  E E E Q  Q     Q  Q    Q    E E
  |    |   |  |     |  |    |     | |    |  |   | |  |     |  |    |    | |
  /    /   /  /     /  /    /     / /    /  /   / /  /     /  /    /    / /

                                         ~~~
  E Q    E Q  Q     H      +E   E E E   +H.          Q     H      +E  E E E
|---5\-----------|--------------------|-----------------|--------------------|
|---5\--------9S=|=10-----(10)--------|--------------9S=|=10-----(10)--------|
|---5\--------9S=|=10-----(10)--------|--------------9S=|=10-----(10)-----5--|
|-------------9S=|=10-----(10)-/8-7-5-|-(5)----------9S=|=10-----(10)-8-7-5--|
|----------------|--------------------|-----------------|-------------8-7-5--|
|----------------|--------------------|-----------------|--------------------|


                    D                    A5
   E  E E E Q  Q     Q  Q    Q     E E    E  E E E Q   Q
   |  |   | |  |     |  |    |     | |    |  |   | |
   /  /   / /  /     /  /    /     / /    /  /   / /

  +H.          Q     H      +E   E E E   +H        E E E  E
|-----------------|--------------------|------------------5--|
|--------------9S=|=10-----(10)------5-|-(5)-----------------|
|-(5)----------9S=|=10-----(10)------5-|-(5)---------4h5-(5)-|
|-(5)----------9S=|=10-----(10)-/8-7-5-|-(5)-----------------|
|-(5)-------------|--------------------|---------------------|
|-----------------|--------------------|---------------------|


                                               D
   Q   Q  Q   Q          E      E E E Q   Q     H      Q    Q
   |   |  |   |          |      |   |     |     |      |
   /   /  /   /          /      /   /     /     /      /

                PM------|
  +H      E Q   E        Q.         E E E Q     H     +E  E E E
|-(5)-----7-----9-----|--9----------7-----5--|------------------|
|---------------------|----------------------|-10----(10)-------|
|-(5)-----6h7---7b7.5-|-(7)b7.5-----8p6---5--|-10----(10)-------|
|---------------------|----------------------|-10----(10)-8-7-5-|
|---------------------|----------------------|------------------|
|---------------------|----------------------|------------------|


  A5             D                  A5
   H     Q  Q     H      Q    Q      E  E E E Q  Q
   |     |        |      |           |  |   | |  |
   /     /        /      /           /  /   / /  /

  +H.       Q     H     +E  E E E   +H.          Q
|--------------|------------------|-----------------|
|-----------9S=|=10----(10)-------|-----------------|
|-----------9S=|=10----(10)-----5-|-(5)-------------|
|-(5)-------9S=|=10----(10)-8-7-5-|-(5)-------------|
|--------------|------------------|-----------------|
|--------------|------------------|-----------------|


  D    G/A    G#
  H    H       H    Q   Q     E  E E E Q   Q
  |    |       |    |   |     |  |   | |   |
  /    /       /    /   /     /  /   / /   /

  H    H       H    E E E E   Q.     E E E Q
|------3----|-------3-5-5-5-|-4------5---4-5--||
|-3----3----|-------3-5-5-5-|-5------5---5-5--||
|-1----3----|-------3-3-3-3-|-3------3---3-3--||
|-2----3----|-/3----3-------|-----------------||
|-----------|---------------|-----------------||
|-----------|--0------------|-----------------||


 Guitar Solo Guitar 2
  E
  H      E E E E    E    E Q  Q   Q    H    E E E E   E E E E E E E E
|-4------5-4---4-|-------5-5--5---5--|-4----5-4---5-|---------5-4-5-4--|
|-5------5-5---5-|-------5-5--5---5--|-5----5-5---5-|---------5-5-5-5--|
|-3------3-3---3-|-------3-3--3---3--|-3----3-3---3-|---------3-3-3-3--|
|----------------|-------------------|--------------|------------------|
|----------------|-------------------|--------------|------------------|
|----------------|-------------------|--------------|---0-0-0----------|
|
| Gtr II
|                                      ~
| W                +H         E E Q    W              H       E E E E
|----------------|------------0------|-0------------|------------------|
|----------------|--------------0----|-0------------|------------------|
|-2b4------------|-(2)b4----------2--|--------------|-------------0h2--|
|----------------|-------------------|--------------|---------0h2------|
|----------------|-------------------|--------------|------------------|
|----------------|-------------------|--------------|------------------|


                                                       Verse
                                                        A
  W                 W                  W                W
  H      E E E E    H        E E E E   Q  Q  E E E E    E E Q  Q  Q
|-4------5-4---4-|-----------5-4-5-4-|-------5-4-----||---------------|
|-5------5-5---5-|-----------5-5-5-5-|-------5-5-----||-5------x------|
|-3------3-3---3-|-----------3-3-3-3-|-------3-3-----||-5------x------|
|----------------|-------------------|---------------||-5------x------|
|----------------|-------------------|---------------||---------------|
|----------------|--0----------------|-0--0------0-0-||---------------|
|
| W                +Q     Q  E E Q     W                W
|----------------|-----------0-------|---------------||---------------|
|----------------|-------------5-----|---------------||---------------|
|-2b4------------|-(2)b4-------------|---------------||---------------|
|----------------|-------------------|---------------||---------------|
|----------------|-------------------|---------------||---------------|
|----------------|-------------------|---------------||---------------|


                    D              A5                    D              A5
  W                  W                  W                 W
  E E E E E E E E    H     +E  E E E   +E  E E E Q  Q     H     +E  E E E
|-5-3-------------|------------------|-----------------|-------------------|
|-------5---------|-10----(10)-------|-----------------|-10----(10)--------|
|-5-5-------3-5---|-10----(10)-----5-|-(5)-------------|-10----(10)-----5--|
|---------------5-|------------8-7-5-|-(5)-5-----5-----|-10----(10)-8-7-5--|
|-----------------|------------------|-------5-5-------|-------------------|
|-----------------|------------------|-----------------|-------------------|


                    D              A5  A
   W                 W                  W                W
                                                         ~~~~~~~~
  +E  E E E Q  Q     H     +E  E E E   +H      Q   Q     H     H
|-----------------|------------------|----------------|-------------|
|--------------9S=|=10----(10)-------|--------17------|-17----17----|
|-(5)-------x--9S=|=10----(10)-----5-|-(5)--------17--|-17----17----|
|-(5)-5-----x--9S=|=10----(10)-8-7-5-|-(5)------------|-------------|
|-------5-5-x-----|------------------|----------------|-------------|
|-----------------|------------------|----------------|-------------|


                     D            A5
   W                  W                W                 W
      ~~~
   E  Q.    Q   Q     H     E E E E   +E  E E E Q  Q     H     +E  E E E
|------------------|----------------|-----------------|-------------------|
|-16S17----17--17--|----------------|--------------9S=|=10----(10)--------|
|-16S17----17--17--|-10----10-----5-|-(5)----------9S=|=10----(10)-----5--|
|----------17--17--|-10----10-8-7-5-|-(5)-5-----5--9S=|=10----(10)-8-7-5--|
|------------------|----------------|-------3-3-------|-------------------|
|------------------|----------------|-----------------|-------------------|


                    D                   A5     C#m          Bm
                                               Gtr II
   W                 W             W            H    H      H     H
                                                |    |      |     |
                                                /    /      /     /

  +E  E E E Q  Q     H     H       H    H       W           H.       Q
|-----------------|-------------|------------|------------|---------------|
|--------------9S=|=10----10----|-10----5----|-/5---------|-3-------------|
|-(5)----------9S=|=10----10----|-10----5----|-/5---------|-3-------------|
|-(5)-5-----5--9S=|=10----10----|-10----5----|------------|----------1----|
|-------3-3-------|-------------|------------|------------|---------------|
|-----------------|-------------|------------|------------|---------------|


  D                 A                  C#m         Bm
  H       H         H     H            H    H      H        H
  |       |         |     |            |    |      |        |
  /       /         /     /            /    /      /        /

  H.         Q      H.       S S S S   W           H.          Q
|-----------------|------------------|-----------|----------------|
|-3----------3----|-2----------------|-5---------|-3--------------|
|-1----------1----|-1--------1-1h3h4-|-5---------|-1h3-(3)-----1--|
|-0h2-(2)----3----|-0----------------|-----------|----------------|
|-----------------|------------------|-----------|----------------|
|-----------------|------------------|-----------|----------------|
  E.E +H       E.                                  E E +H      Q


  D
  Q  Q  Q   E E    E  E  Q  Q  Q     H     H      H        H
  |  |  |   | |    |  |  |  |  |     |     |      |        |
  /  /  /   / /    /  /  /  /  /     /     /      /        /

  H     E E E E   +E  Q.    Q  Q     H     H      E  Q.    H
|---------------|-----------------|-------------|---------------|
|-3-------------|-----------3--9S=|=10----10----|---10----10----|
|-1-----1-1---1-|-(1)-------1--9S=|=10----10----|---10----10----|
|-2---------2---|-----2-----2--9S=|=10----10----|---10----10----|
|---------------|-----------------|-------------|---------------|
|---------------|-----------------|-------------|---------------|


                                Guitar 2 -Solo
  A                                                                 D
  H    H         H      H         Q    E E Q  Q      H        Q   E E
  |    |         |      |         |      | |                  |     |
  /    /         /      /         /      / /                  /     /

                                  ~~~~
  H    E E E E   E E Q  Q  Q      W                  H        Q   Q
|------5-3---5-|---3-5--3--5--||------------------|--------------------|
|-5----5-5---5-|---5-5--5--5--||-12---------------|--------------10S===|
|-5----5-5---5-|---5-5--5--5--||-12---------------|--------------10S===|
|-5------------|--------------||-12---------------|--------------10S===|
|--------------|--------------||------------------|--------------------|
|--------------|--------------||-------0---0--0-0-|--0-----0--0--------|
|                                 Q    Q   Q  E E    Q     Q  Q   Q
|
| Gtr II
| W              W                W                 +W
|--------------|--------------||------------------|--------------------|
|--------------|--------------||------------------|--------------------|
|--------------|--------------||--2b4-------------|-(2)b4--------------|
|--------------|--------------||------------------|--------------------|
|--------------|--------------||------------------|--------------------|
|--------------|--------------||------------------|--------------------|


  E                                     D
   H        Q  Q      H              Q   Q
   |        |                            |
   /        /                            /

   W                  H              Q   Q
|------------------|------------------------|
|-12---------------|--------------------10--|
|-12---------------|--------------------10--|
|-12---------------|--------------------10--|
|------------------|------------------------|
|--0-----0--0--0-0-|--0---------0----0------|
|  Q     Q  Q  E E    Q         Q    H
|
| +W                  E    E   +Q    Q   Q
|------------------|--0---------------------|
|------------------|------------------------|
|-(2)b4------------|-(2)b4-2b4-(2)r--0------|
|------------------|---------------------2--|
|------------------|------------------------|
|------------------|------------------------|


  E                              D     E                               D
   H       Q  Q      H        Q   Q     H     H          Q.       E Q   Q
   |       |                      |     |     |          |        | |   |
   /       /                      /     /     /          /        / /   /

   W                 H        Q   Q     W                H          Q   Q
|-----------------|------------------|----------------|---------------------|
|-12--------------|--------------10S=|=12-------------|----------------10S==|
|-12--------------|--------------10S=|=12-------------|----------------10S==|
|-12--------------|--------------10S=|=12-------------|----------------10S==|
|-----------------|------------------|----------------|---------------------|
|-------0--0--0-0-|--0-----0--0------|-----0--0---0-0-|--0------0---0-------|
|  Q    Q  Q  E E    Q     Q  Q   Q     Q  Q  Q   E E    Q      Q   Q   Q
|
|  W                +W                  H     E Q   E   +E  a E Q   Q   Q
|-----------------|------------------|--0-----------0-|-(0)-----------------|
|-----------------|------------------|----------------|---------------------|
|--2b4------------|-(2)b4------------|--------2S4-----|-----2h4p2---0-------|
|-----------------|------------------|----------------|-----------------2---|
|-----------------|------------------|----------------|---------------------|
|-----------------|------------------|----------------|---------------------|


  E                                       D
   H        H          H              E E  Q
   |        |                           |  |
   /        /                           /  /

   ~~~~
   W                   H              Q    Q
|-------------------|--------------------------|
|-12----------------|---------------------10S==|
|-12----------------|---------------------10S==|
|-12----------------|---------------------10S==|
|-------------------|--------------------------|
|-------0---0---0-0-|--0----0---------0--------|
|  Q    Q   Q   E E    Q    Q         Q    Q
|
|           ~~
|  Q.     E Q.    E   +E  E E   +E    E E +Q
|-------------------|-----5--------------------|
|--7b8------5-----8-|-(8)---7b8-(7)b8-8-5-(5)--|
|-------------------|--------------------------|
|-------------------|--------------------------|
|-------------------|--------------------------|
|-------------------|--------------------------|


  E                                       D
   H     H               H          Q      Q
   |     |                                 |
   /     /                                 /

   ~~
   W                     H          Q      Q
|--------------------|--------------------------|
|-12-----------------|--------------------10S===|
|-12-----------------|--------------------10S===|
|-12-----------------|--------------------10S===|
|--------------------|--------------------------|
|-----0--0---0--0----|---0------0---0-----------|
|  Q  Q  Q   E  E        Q      Q   Q      Q
|
|  ~~~~~~~~~
|  H     Q.     E       +Q      Q   Q      Q
|--------------------|----------7----------7----|
|--------------10b11-|-(10)b11-----10b11--------|
|--------------------|--------------------------|
|--9-----9-----------|--------------------------|
|--------------------|--------------------------|
|--------------------|--------------------------|


  E                                          D
   H        Q.    E     +Q     Q     Q        Q
   |        |     |      |     |     |        |
   /        /     /      /     /     /        /

   W                     H           Q        Q
|---------------------|--------------------------|
|-12------------------|----------------------10S=|
|-12------------------|----------------------10S=|
|-12------------------|----------------------10S=|
|---------------------|--------------------------|
|------0----0---0-0---|--0-----0-----0-----------|
|  Q   Q    Q   E E      Q     Q     Q        Q
|
|  Q.    E +Q   E E     +Q     Q    +E    Q.
|---------------------|--------------------------|
|--5-----5-(5)--7-7b9-|-(7)b9--7b8--(7)b8-5------|
|---------------------|--------------------------|
|---------------------|--------------------------|
|---------------------|--------------------------|
|---------------------|--------------------------|


  E                                 D
   H        Q.    E   +Q  H          Q
   |        |     |    |  |          |
   /        /     /    /  /          /

   ~~~
   W                   H       Q     Q
|-------------------|---------------------|
|-12----------------|---------------10S===|
|-12----------------|---------------10S===|
|-12----------------|---------------10S===|
|-------------------|---------------------|
|------0----0---0-0-|--0--0----0----------|
|  Q   Q    Q   E E    Q  Q    Q     Q
|
|  Q   E E +H          Q  E E +E  E  Q
|-------------------|---------------------|
|--5\---------------|---------------------|
|--------2-(2)------|-------2-(2)----2----|
|-------------------|-------2-(2)----2----|
|-------------------|-----0-0-(0)-0--0----|
|------0------------|---------------------|


  E                           D
   H     H          H      Q   Q
   |     |                     |
   /     /                     /

                    ~~~~
   W               +H      Q   Q
|---------------|-------------------|
|-12------------|-(12)--------10S===|
|-12------------|-(12)--------10S===|
|-12------------|-(12)--------10S===|
|---------------|-------------------|
|-----0--0--0-0-|---0---0--0--------|
|  Q  Q  Q  E E     Q   Q  Q   Q
|
|  Q  Q  H         +H      Q   Q
|---------------|----------0--------|
|---------------|--------------3b5--|
|---------------|-------------------|
|--------2------|--(2)--------------|
|---------------|-------------------|
|--0--3---------|-------------------|


  E                                     D
   H       H             H           Q   Q
   |       |                             |
   /       /                             /

   W                     H           Q   Q
|---------------------|-----------------------|
|-12------------------|-----------------10S===|
|-12------------------|-----------------10S===|
|-12------------------|-----------------10S===|
|---------------------|-----------------------|
|------0---0--0-----0-|--0--------0--0--------|
|  Q   Q   Q  E     E    Q        Q  Q   Q
|
|  E E E E Q  Q         +E      E Q  Q   Q
|--------3-5--3b3.5---|-(3)b3.5-0-------------|
|--3S5---3-5--3b3.5---|-(3)b3.5-0-------------|
|--2S4----------------|-----------------------|
|---------------------|-----------2--2---2----|
|---------------------|-----------2--2---2----|
|---------------------|-----------0--0---0----|


  E                           D    E
   H     H          H      H        Q  Q  H       W
   |     |          |      |        |
   /     /          /      /        /

                    ~~~~            ~~~~~~~~~~~~~~~~~
   W               +H      H        W            +H     H
|---------------|----------------|-------------|-------------||
|-12------------|-(12)-----------|--0----------|-(0)---------||
|-12------------|-(12)-----------|--0----------|-(0)---------||
|-12------------|-(12)-----------|--0----------|-(0)---------||
|---------------|----------------|-------------|-------------||
|-----0--0--0-0-|---0---0--0--0--|-------------|-------------||
|  Q  Q  Q  E E     Q   Q  Q  Q
|
|                                   ~~~~~~~~~~~~~~~~~
|  Q  Q  H          Q   Q  Q  Q     W            +H     H
|---------------|----------------|-/7----------|-(7)---------||
|---------------|----------------|-/7----------|-(7)---------||
|---------------|----------------|-/7----------|-(7)---------||
|---------------|----------------|-------------|-------------||
|--2--2--2------|---2---2--------|-------------|-------------||
|--0--0--0------|---0---0--0--0--|-------------|-------------||


 Verse
  A5                                D              A5
  Gtr II
  E E Q  H      Q   Q    Q    Q      H      Q    Q
  | |           |        |           |      |
  / /           /        /           /      /

  Gtr I
                                            ~~~~
  W             E E E E  E  E E E    H     +E  E E E
|-------------|-5-3---------------|------------------|
|-5-----------|-5-5-5-1h=3--1-3---|------------------|
|-5-----------|-----5-1-(1)---1-1S|=10----(10)-----5-|
|-------------|-------0h=2--2-2-2S|=10----(10)-0-7-5-|
|-------------|-------------------|------------------|
|-------------|-------------------|------------------|


                   D              A5
   E  E Q  Q  Q     H      Q    Q      E  E Q  Q  Q
   |  |    |        |      |           |  |    |
   /  /    /        /      /           /  /    /

  +E  E Q  Q  Q     H     +E  E E E   +E  E Q  Q  Q
|----------------|------------------|-----------------|
|----------------|------------------|-------------9S==|
|-(5)-5----5--8S=|=10----(10)-----5-|-(5)-5----5--9S==|
|-(5)-5----5--8S=|=10----(10)-8-7-5-|-(5)-5----5--9S==|
|----------------|------------------|-----------------|
|----------------|------------------|-----------------|


  D            A5
   H      Q    Q      E  E Q  Q  Q    Q  Q  E E E E
   |      |           |  |    |       |  |  | |   |
   /      /           /  /    /       /  /  / /   /

   H     +E  E E E   +E  E Q  Q  Q    Q  Q  E E E E
|------------------|----------------|-------------5-|
|-10----(10)-------|----------------|---------4S5-5-|
|-10----(10)-----5-|-(5)-5----5--5--|-5-------4S5---|
|-10----(10)-8-7-5-|-(5)-5----5--5--|-5-------------|
|------------------|----------------|----3----------|
|------------------|----------------|---------------|


                   D              A5
   Q    Q  Q  Q     H      Q    Q      E  E Q  Q  Q
   |    |  |  |     |      |           |  |    |
   /    /  /  /     /      /           /  /    /

  +E  E Q  Q  Q     H     +E  E E E   +E  E Q  Q  Q
|-(5)------------|------------------|-----------------|
|-(5)---------9S=|=10----(10)-------|-------------9S==|
|-------------9S=|=10----(10)-----5-|-(5)-5----5--9S==|
|-----5-------9S=|=10----(10)-8-7-5-|-(5)-5----5--9S==|
|----------------|------------------|-----------------|
|----------------|------------------|-----------------|


  D                A5                   D
   E E Q    Q    Q      E  E Q  Q  Q     H    Q  E E
   | |      |           |  |    |        |    |  | |
   / /      /           /  /    /        /    /  / /

   H       +E  E E E   +E  E Q  Q  Q     W
|--------------------|----------------|--------------|
|-10------(10)-------|-------------9S=|=10-----------|
|-10------(10)-------|-------------9S=|=10-----------|
|-10------(10)-8-7-5-|-(5)-5----5--9S=|=10-----------|
|--------------------|----------------|--------------|
|--------------------|----------------|--------------|


                   G                           G#   A
  Q    Q   Q  Q    Q  Q  Q  E E    E  E E E Q  Q    W
  |    |   |  |    |  |  |  | |    |  | | | |  |    |
  /    /   /  /    /  /  /  / /    /  / / / /  /    /

                   ~~~~~~~~~~~~~~~~~~~
  E  E Q   H       W              +H        H       W
|----------------|-3------------|-(3)-------------|------*|
|---10----10-----|-3------------|-(3)-------------|------*|
|---10----10-----|-3------------|-(3)-------------|------*|
|---10----10-----|-3------------|-(3)-------------|------*|
|----------------|--------------|-----------------|------*|
|----------------|--------------|-----------------|------*|


Duration Legend
---------------
W - whole; H - half; Q - quarter; E - 8th; S - 16th; T - 32nd; X - 64th; a - acciaccatura
+ - note tied to previous; . - note dotted; .. - note double dotted
Uncapitalized letters represent notes that are staccato (1/2 duration)
Irregular groupings are notated above the duration line
Duration letters will always appear directly above the note/fret number it represents the
duration for.  Duration letters with no fret number below them represent rests.  Multi-
bar rests are notated in the form Wxn, where n is the number of bars to rest for.  Low
melody durations appear below the staff

Tablature Legend
----------------
 h   - hammer-on
 p   - pull-off
 b   - bend
 pb  - pre-bend
 r   - bend release (if no number after the r, then release immediately)
 /\  - slide into or out of (from/to "nowhere")
 s   - legato slide
 S   - shift slide
<n>  - natural harmonic
[n]  - artificial harmonic
n(n) - tapped harmonic
 ~   - vibrato
 tr  - trill
 T   - tap
 TP  - trem. picking
 PM  - palm muting
\n/  - tremolo bar dip; n = amount to dip
 \n  - tremolo bar down
 n/  - tremolo bar up
/n\  - tremolo bar inverted dip
 =   - hold bend; also acts as connecting device for hammers/pulls
 <>  - volume swell (louder/softer)
 x   - on rhythm slash represents muted slash
 o   - on rhythm slash represents single note slash

Misc Legend
-----------
 |  - bar
||  - double bar
||o - repeat start
o|| - repeat end
*|  - double bar (ending)
 :  - bar (freetime)
 $  - Segno
 &  - Coda
Tempo markers - <E/E./Q/Q./H/H.> = BPM(8/16=s8/s16), where s8 = swing 8ths, s16 = swing 16ths


***************************************************************************************
* Generated using Power Tab Editor by Brad Larsen - http://powertab.guitarnetwork.org *
***************************************************************************************
comments
We did not receive enough feedback on this tab! Please rate:
print report bad tab
1 2 3 4 5
I want to post or [tab]
guest
You may want to rate the tab now too:
select rating
Please do not post tabs as comments. Select "correction" instead!