Oops, an error
Loading. Please wait.

Midnight Rambler Tab

ver2
ver2

Intro

Whole song

More versions @911Tabs.com
169 views 87 this week
no commentswrite comment
1 2 3 4 5
excellent!
x 1
add to favorites launch autoscroll
font size
0
reset
Autoscroll
+/-
esc
set tempo
stop
Contributor
Difficulty
intermediate
WARNING: You are trying to view
                                    content from Ultimate-Guitar.com
                                    in an unauthorized application,
                                    which is prohibited.

                                    Please use an official Ultimate
                                    Guitar Tabs application for iPhone,
                                    iPad or Android to access legitimate
                                    chords, guitar, bass, and drum tabs
                                    from Ultimate-Guitar.com database.

                                    Type "ultimate guitar tabs" in Apple
                                    App Store's or Android Market's
                                    search to find the application.
Tuning: Standard 

Verses
  Q.=116
                       B          A
 12/8
  Gtrs I, III, V
  H.      Q.   Q  E    Q  E  Q  E  q   E  +q   E
|-------------------||---------------------------|
|-------------------||------------10--10-(10)----|
|-------------------||-------------9---9--(9)----|
|-------------------||-9-----9-----7---7--(7)--7-|
|-------------------||-9----11-------------------|
|-----------------6s||=7--7--7--7----------------|
|
| Gtrs II, IV
| W                    W
|-------------------||---------------------------|
|-------------------||---------------------------|
|-------------------||---------------------------|
|-------------------||---------------------------|
|-------------------||---------------------------|
|-------------------||---------------------------|


  E                         B           A
  Q  E  Q  E Q  E  Q  E   a  Q  E  Q  E  q   E  +q   E
|-----------------------|-------------------------------|
|-----------------------|---------------10--10-(10)-----|
|-9-----9----9--9--9----|----------------9---9--(9)--7--|
|-9----11----9--9-11----|----9-----9-----7---7--(7)-----|
|-7--7--7--7-7--7--7--7-|----9----11--------------------|
|-----------------------|-6-/7--7--7--7-----------------|
|
| W                          W
|-----------------------|-------------------------------|
|-----------------------|-------------------------------|
|-----------------------|-------------------------------|
|-----------------------|-------------------------------|
|-----------------------|-------------------------------|
|-----------------------|-------------------------------|


  E
  Q  E  Q   E Q  e  Q  E
|------------------------|
|------------------------|
|-9-----9-----9--9--9--9-|
|-9----11---9-9--9-11----|
|-7--7--7--11------------|
|------------------------|
|
| W
|------------------------|
|------------------------|
|------------------------|
|------------------------|
|------------------------|
|------------------------|


    B           A                E
  a  Q  E  Q  E  q   E  +q   E   Q  E  Q  E  Q  E  Q  E
|------------------------------|------------------------|
|---------------10--10-(10)----|------------------------|
|----------------9---9--(9)----|-9-----9-----9-----9----|
|----9-----9-----7---7--(7)--7-|-9----11----12----11----|
|----9----11-------------------|-7--7--7--7--7--7--7--7-|
|-6-/7--7--7--7----------------|------------------------|
|
|    q  e  q  e  q   E  +q.      q  e  q  e  q  e  q  E
|----7-------------------------|-7-----------7----------|
|----4-----4-----5---5--(5)----|-5-----5-----5-----5----|
|----4-----4-----6---6--(6)----|-4-----6-----4-----6----|
|----4-----4-----7---7--(7)----|-6-----6-----6-----6----|
|------------------------------|------------------------|
|------------------------------|------------------------|


    B           A                E
  a  Q  E  Q  E  q   E  +q   E   Q  E  Q  E Q  E  Q  E
|------------------------------|-----------------------|
|---------------10--10-(10)----|-----------------------|
|----------------9---9--(9)----|-9-----9----9--9--9----|
|----9-----9-----7---7--(7)--7-|-9----11----9--9-11----|
|----9----11-------------------|-7--7--7--7-7--7--7--7-|
|-6-/7--7--7--7----------------|-----------------------|
|
|    q  e  q  e  q   e  +q.      q  e  q  e q  e  q  e
|----7-------------------------|-7----------7----------|
|----4-----4-----5---5--(5)----|-5-----5----5-----5----|
|----4-----4-----6---6--(6)----|-4-----6----4-----6----|
|----4-----4-----7---7--(7)----|-6-----6----6-----6----|
|------------------------------|-----------------------|
|------------------------------|-----------------------|


    B           A
  a  Q  E  Q  E  q   E  +q   E
|-------------------------------|
|---------------10--10-(10)-----|
|----------------9---9--(9)--7--|
|----9-----9-----7---7--(7)-----|
|----9----11--------------------|
|-6-/7--7--7--7-----------------|
|
|    q  e  q  e  q   e  +q.
|----7--------------------------|
|----4-----4-----5---5--(5)-----|
|----4-----4-----6---6--(6)-----|
|----4-----4-----7---7--(7)-----|
|-------------------------------|
|-------------------------------|


  E
  Q  E  Q   E Q  e  Q  E
|------------------------|
|------------------------|
|-9-----9-----9--9--9--9-|
|-9----11---9-9--9-11----|
|-7--7--7--11------------|
|------------------------|
|
| q  e  q   e q  e  q  e
|-7-----------7----------|
|-5-----5-----5-----5----|
|-4-----6-----4-----6----|
|-6-----6-----6-----6----|
|------------------------|
|------------------------|


    B           A                E
  a  Q  E  Q  E  q   E  +q   E   Q  E  Q  E  Q  E  Q  E
|------------------------------|------------------------|
|---------------10--10-(10)----|------------------------|
|----------------9---9--(9)----|-9-----9-----9-----9----|
|----9-----9-----7---7--(7)--7-|-9----11----12----11----|
|----9----11-------------------|-7--7--7--7--7--7--7--7-|
|-6-/7--7--7--7----------------|------------------------|
|
|    q  e  q  e  q   e   q.      q  e  q  e  q  e  q  E
|----7-------------------------|-7-----------7----------|
|----4-----4-----5---5---5-----|-5-----5-----5-----5----|
|----4-----4-----6---6---6-----|-4-----6-----4-----6----|
|----4-----4-----7---7---7-----|-6-----6-----6-----6----|
|------------------------------|------------------------|
|------------------------------|------------------------|


  B            A
   Q   E  Q  E  q   E  +q   E
|---------------7---7--(7)----|
|--------------10--10-(10)----|
|---------------9---9--(9)----|
|--9------9-----------------7-|
|--9-----11-------------------|
|-/7---7--7--7----------------|
|
|  e e e  q  e  q   e   q.
|--7--------------------------|
|--4------4-----5---5---5-----|
|--4------4-----6---6---6-----|
|--4------4-----7---7---7-----|
|-----------------------------|
|-----------------------------|


  E                        B           A
  Q  E  Q  E  Q  E  Q  E    Q  E  Q  E  q   E  +q   E
|------------------------|--------------7---7--(7)-----|
|------------------------|-------------10--10-(10)-----|
|-9-----9-----9-----9----|--------------9---9--(9)--7--|
|-9----11----12----11----|--9-----9--------------------|
|-7--7--7--7--7--7--7--7-|--9----11--------------------|
|------------------------|-/7--7--7--7-----------------|
|
| q  e  q  e  q  e  q  e    q  e  q  e  q   e   q.
|-7-----------7----------|--7--------------------------|
|-5-----5-----5-----5----|--4-----4-----5---5---5------|
|-4-----6-----4-----6----|--4-----4-----6---6---6------|
|-6-----6-----6-----6----|--4-----4-----7---7---7------|
|------------------------|-----------------------------|
|------------------------|-----------------------------|


  E                        A              E
  Q  E  Q   E Q  E  Q  E    q   E  +q   E Q  E +q   E
|------------------------|--7---7--(7)----------------|
|------------------------|-10--10-(10)----------------|
|-9-----9-----9--9--9--9-|--9---9--(9)--7----7-(7)----|
|-9----11-----9--9-11----|----------------9--7-(7)----|
|-7--7-----11------------|----------------9-----------|
|------------------------|----------------------------|
|
| q  e  q   e q  e  q  e    q   e   q   e q  e  q   e
|-7-----------7----------|----------------7-----7-----|
|-5-----5-----5-----5----|--5-------5-----5-----5-----|
|-4-----6-----4-----6----|--6-------6-----4-----4-----|
|-6-----6-----6-----6----|--7-------7-----6-----6-----|
|------------------------|----------------------------|
|------------------------|----------------------------|


  B
   Q  E  Q  E  Q   E  Q   E
|----------------------------|
|----------------------------|
|----------------------------|
|--9-----9-----9------9------|
|--9----11-----9-----11------|
|-/7--7--7--7--7---7--7---7--|
|
|  q  e  q  E +q   E  Q.
|--7--------7-(7)------------|
|--4--------4-(4)------------|
|--4--------4-(4)------------|
|--4--------4-(4)------------|
|----------------------------|
|----------------------------|


  A              E
   q   E  +q   E Q  E +q   E
|--7---7--(7)----------------|
|-10--10-(10)----------------|
|--9---9--(9)--7-9--7-(7)----|
|----------------9--7-(7)----|
|----------------------------|
|----------------------------|
|
|  q   e   q   e q  e  q   e
|----------------7-----7-----|
|--5-------5-----5-----5-----|
|--6-------6-----4-----4-----|
|--7-------7-----6-----6-----|
|----------------------------|
|----------------------------|


  B                          A              E
  Q  E  Q  E  Q   E  Q   E    q   E  +q   E Q  E +q   E
|--------------------------|--7---7--(7)-----------------|
|--------------------------|-10--10-(10)-----------------|
|--------------------------|--9---9--(9)--7----7-(7)-----|
|-9-----9-----9------9-----|----------------9--7-(7)-----|
|-9----11-----9-----11-----|----------------9------------|
|-7--7--7--7--7---7--7---7-|-----------------------------|
|
| q  e  q  E +q   e  q.       q   e   q   e q  e  q   E
|-7--------7-(7)-----------|----------------7-----7------|
|-4--------4-(4)-----------|--5-------5-----5-----5------|
|-4--------4-(4)-----------|--6-------6-----4-----4------|
|-4--------4-(4)-----------|--7-------7-----6-----6------|
|--------------------------|-----------------------------|
|--------------------------|-----------------------------|


  B
   Q  E  Q   E Q  E  Q   E
|--------------------------|
|--------------------------|
|--------------------------|
|--9-----9-----9-----9-----|
|--9----11-----9----11-----|
|-/7--7--7---7-7--7--7---7-|
|
|  q  e  q.    q  e  q.
|--7-----------7-----------|
|--4-----------4-----------|
|--4-----------4-----------|
|--4-----------4-----------|
|--------------------------|
|--------------------------|


  A              E             B
   q   E  +Q   E Q  E +q   E   Q  e Q  E +q   E  E  E E
|--7---7--(7)----------------|---------------------------|
|-10--10-(10)----------------|---------------------------|
|--9---9--(9)--7----7-(7)----|---------------------------|
|----------------9--7-(7)----|----9----9-(9)--9-------9--|
|----------------9-----------|----9----9-(9)-------------|
|----------------------------|------------------10h11----|
|
|  q   e   q   e q  e  q   e   q  e q  e +q   E  Q.
|----------------7-----7-----|-7-------7-(7)-------------|
|--5-------5-----5-----5-----|-4-------4-(4)-------------|
|--6-------6-----4-----4-----|-4-------4-(4)-------------|
|--7-------7-----6-----6-----|-4-------4-(4)-------------|
|----------------------------|---------------------------|
|----------------------------|---------------------------|


  E E e Q  E +q   E  E  E E
|---------------------------|
|---------------------------|
|---------------------------|
|-7---9----9-(9)--9-------9p|
|-----9----9-(9)------------|
|-------------------10h11---|
|
| q   e q  e +q   e  q.
|-7--------7-(7)------------|
|-4--------4-(4)------------|
|-4--------4-(4)------------|
|-4--------4-(4)------------|
|---------------------------|
|---------------------------|


  E E e Q   E +Q   E  E  E E   E E e Q  E +q   E Q    E
|----------------------------|---------------------------|
|----------------------------|---------------------------|
|----------------------------|---------------------------|
|-7---9-----9-(9)--9-------9p|=7---9----9-(9)--9-9-------|
|-----9-----9-(9)------------|-----9----9-(9)----9-------|
|--------------------10h11---|-----------------------10--|
|
| q   E e Q    q   e  q    e   q   e q  e +q   E Q.
|--------------7------7------|-7--------7-(7)------------|
|-5-----5------5------5------|-4--------4-(4)------------|
|-6-----6------4------4------|-4--------4-(4)------------|
|-7-----7------6------6------|-4--------4-(4)------------|
|----------------------------|---------------------------|
|----------------------------|---------------------------|


  B           A
   Q  E  Q  E  q   E  +q   E
|--------------7---7--(7)----|
|-------------10--10-(10)----|
|--------------9---9--(9)----|
|--9-----9-----------------7-|
|--9----11-------------------|
|-/7--7--7--7----------------|
|
|  q  e  q  e  q   e  +q.
|--7-------------------------|
|--4-----4-----5---5--(5)----|
|--4-----4-----6---6--(6)----|
|--4-----4-----7---7--(7)----|
|----------------------------|
|----------------------------|


  E                        B          A
  Q  E  Q  E  Q  E  Q  E   Q  E  Q  E  q   E  +q   E
|------------------------|-------------7---7--(7)-----|
|------------------------|------------10--10-(10)-----|
|-9-----9-----9-----9----|-------------9---9--(9)-----|
|-9----11----12----11----|-9-----9-----------------7--|
|-7--7--7--7--7--7--7--7-|-9----11--------------------|
|------------------------|-7--7--7--7-----------------|
|
| q  e  q  e  q  e  q  e   q  e  q  e  q   e  +q.
|-7-----------7----------|-7--------------------------|
|-5-----5-----5-----5----|-4-----4-----5---5--(5)-----|
|-4-----6-----4-----6----|-4-----4-----6---6--(6)-----|
|-6-----6-----6-----6----|-4-----4-----7---7--(7)-----|
|------------------------|----------------------------|
|------------------------|----------------------------|


  E                       B          A                E
  Q  E Q   E Q  E  Q  E   Q  E  Q  E  q   E  +q   E   Q  E  Q  E  Q  E  Q  E
|-----------------------|-------------7---7--(7)----|-------------------------|
|-----------------------|------------10--10-(10)----|-------------------------|
|-9----------9--9--9--9-|-------------9---9--(9)--7-|-9-----9-----9-----9-----|
|-9----9-----9--9-11----|-9-----9-------------------|-9----11----12----11-----|
|-7--7----11------------|-9----11-------------------|-7--7--7--7--7--7--7--7--|
|-----------------------|-7--7--7--7----------------|-------------------------|
|
| q  e q   e q  e  q  e   q  e  q  e  q   e  +q.      q  e  q  e  q  e  q  E
|-7----------7----------|-7-------------------------|-7-----------7-----------|
|-5----5-----5-----5----|-4-----4-----5---5--(5)----|-5-----5-----5-----5-----|
|-4----6-----4-----6----|-4-----4-----6---6--(6)----|-4-----6-----4-----6-----|
|-6----6-----6-----6----|-4-----4-----7---7--(7)----|-6-----6-----6-----6-----|
|-----------------------|---------------------------|-------------------------|
|-----------------------|---------------------------|-------------------------|


  B          A                E
  Q  E  Q  E  q   E  +q   E   Q  E  Q  E  Q  E  Q  E
|-------------7---7--(7)----|------------------------|
|------------10--10-(10)----|------------------------|
|-------------9---9--(9)--7-|-9-----9-----9-----9----|
|-9-----9-------------------|-9----11----12----11----|
|-9----11-------------------|-7--7--7--7--7--7--7--7-|
|-7--7--7--7----------------|------------------------|
|
| q  E  q  E  q   e  +q.      q  E  q  E  q  E  q  E
|-7-------------------------|-7-----------7----------|
|-4-----4-----5---5--(5)----|-5-----5-----5-----5----|
|-4-----4-----6---6--(6)----|-4-----6-----4-----6----|
|-4-----4-----7---7--(7)----|-6-----6-----6-----6----|
|---------------------------|------------------------|
|---------------------------|------------------------|


  A              E
   q   E  +q   E Q  E +Q.
|--7---7--(7)-----------------|
|-10--10-(10)-----------------|
|--9---9--(9)--7----7-(7)-----|
|----------------9--7-(7)-----|
|----------------9------------|
|-----------------------------|
|
|  q   E   q   E q  E  q   e
|----------------7-----7------|
|--5-------5-----5-----5------|
|--6-------6-----4-----4------|
|--7-------7---x-6-----6---7--|
|-----------------------------|
|-----------------------------|


  B                       A              E             B
  Q  E  Q  E Q  E  Q  E    q   E  +q   E Q  E +Q.      Q  E  Q  E Q   E  Q  E
|-----------------------|--7---7--(7)----------------|-------------------------|
|-----------------------|-10--10-(10)----------------|-------------------------|
|-----------------------|--9---9--(9)--7----7-(7)----|-------------------------|
|-9-----9----9-----9----|----------------9--7-(7)----|-9-----9----9------9-----|
|-9----11----9----11----|----------------9-----------|-9----11----9-----11-----|
|-7--7--7--7-7--7--7--7-|----------------------------|-7--7--7--7-7---7--7--7--|
|
| q  E  Q  E q  E  Q  E    q   E   q   E q  E  q   e   Q  E  q  e Q.     q  E
|-7----------7----------|----------------7-----7-----|-------7--7-7------------|
|-4----------4----------|--5-------5-----5-----5-----|-4-----5--4-4------4-----|
|-4----------4----------|--6-------6-----4-----4-----|-4--4--4--4-4------4-----|
|-4--4-------4--4-------|--7---7---7---x-6-----6---7-|-4-----6--4-4------4-----|
|-------5h=6-------5h=6-|----------------------------|-------------------------|
|-----------------------|----------------------------|-------------------------|


  A              E             B
   Q   E  +Q   E Q  E +Q.      Q  E  Q  E Q  E  Q  E
|--7---7--(7)----------------|-----------------------|
|-10--10-(10)----------------|-----------------------|
|--9---9--(9)--7----7-(7)----|-----------------------|
|----------------9--7-(7)----|-9-----9----9-----9----|
|----------------------------|-9----11----9----11----|
|----------------------------|-7--7--7--7-7--7--7--7-|
|
|  Q   E   Q   E Q  E  Q   E   Q  E  Q  E Q  E  Q  E
|----------------7-----7-----|-7----------7----------|
|--5-------5-----5-----5-----|-4----------4----------|
|--6-------6-----4-----4-----|-4----------4----------|
|--7---7---7---7-6--6--6---6-|-4--4-------4--4-------|
|----------------------------|-------5--6-------5--6-|
|----------------------------|-----------------------|


  A               E
   Q    E  +Q   E Q   E +Q.
|--7----7--(7)-----------------|
|-10---10-(10)-----------------|
|--9----9--(9)--7-----7-(7)----|
|-----------------9---7-(7)----|
|------------------------------|
|------------------------------|
|
|  Q.       Q.    Q.     Q.
|------------------------------|
|------------------------------|
|--2--------------1------1-----|
|--2--------------2------2-----|
|--4--------3-----2------2-----|
|------------------------------|


  B
  Q  E Q  E +Q   E E E E   Q  E Q  E +Q   E E E E
|------------------------|------------------------|
|------------------------|------------------------|
|----4----4-(4)--4-------|----4----4-(4)--4-----4-|
|----4----4-(4)--------4-|----4----4-(4)----------|
|------------------5h6---|------------------5h6---|
|------------------------|------------------------|
|
| Q  E Q  E +Q.    Q   E   Q  E Q  E +Q.    Q   E
|-7-------7-(7)----------|-7-------7-(7)----------|
|-4-------4-(4)----------|-4-------4-(4)----------|
|-4----4--4-(4)----4-----|-4----4--4-(4)----4-----|
|-4----6--7-(7)----6-----|-4----6--7-(7)----6-----|
|------------------------|------------------------|
|------------------------|------------------------|


  Q  E Q  E +Q   E E E E   Q  E Q  E +Q   E E E E
|------------------------|---------------------------|
|------------------------|---------------------------|
|----4----4-(4)--4-----4-|----4----4-(4)--4-----4----|
|----4----4-(4)----------|----4----4-(4)-------------|
|------------------5h6---|------------------5h6------|
|------------------------|---------------------------|
|
| Q  E Q  E +Q.    Q   E   Q  E Q  E +Q.    Q   E
|-7-------7-(7)----------|-7-------7-(7)-------------|
|-4-------4-(4)----------|-4-------4-(4)-------------|
|-4----4--4-(4)----4-----|-4----4--4-(4)----4--------|
|-4----6--7-(7)----6-----|-4----6--7-(7)----6--------|
|------------------------|---------------------------|
|------------------------|---------------------------|


  Q  E Q  E Q  E Q  E   Q  E Q  E +H.
|---------------------|-----------------------|
|---------------------|-----------------------|
|----2------4----4----|-----------------------|
|----4------4----4----|----9----9-(9)---------|
|---------------------|----7----9-(9)---------|
|---------------------|---------7-(7)---------|
|
| Q  E Q  E Q  E Q  E   Q  E Q  E  Q   E Q  E
|---------------------|-----------------------|
|---------------------|-----------------------|
|-4----4----4----4----|-4----4-----4-----4----|
|-4----6----4----6----|-4----6-----4-----6----|
|---------------------|-----------------------|
|---------------------|-----------------------|


    B             A            E
  E E E E Q    Q   E  +Q   E   Q  E  Q  E  Q  E  Q  E
|--------------7---7--(7)----|---------------------------|
|-------7-----10--10-(10)----|---------------------------|
|-------7------9---9--(9)--7-|-9-----9-----9-----9-------|
|---x-x-7--------------------|-9----11----12----11-------|
|---x-x----------------------|-7--7--7--7--7--7--7--7----|
|----------------------------|---------------------------|
|
| Q   E Q   E  Q   E   Q   E   Q  E  Q  E  Q  E  Q  E
|----------------------------|-4-------------------------|
|-4-----4--------------------|-5-----5-----5-----5-------|
|-4-----4------2-------2-----|-4-----6-----4-----6-------|
|-4-----4------2-------2-----|---------------------------|
|--------------4-------4-----|---------------------------|
|----------------------------|---------------------------|


 Harmonica Solo
  B          A                E
  Q  E  Q  E  Q   E  +Q   E   Q  E  Q  E  Q  E  Q  E
|-------------7---7--(7)----|------------------------|
|------------10--10-(10)----|------------------------|
|-------------9---9--(9)--7-|-9-----9-----9-----9----|
|-9-----9-------------------|-9----11----12----11----|
|-9----11-------------------|-7--7--7--7--7--7--7--7-|
|-7--7--7--7----------------|------------------------|
|
| Q  E  Q  E  Q   E  +Q.      Q  E  Q  E  Q  E  Q  E
|-7-------------------------|-7-----------7----------|
|-4-----4-----5---5--(5)----|-5-----5-----5-----5----|
|-4-----4-----6---6--(6)----|-4-----6-----4-----6----|
|-4-----4-----7---7--(7)----|-6-----6-----6-----6----|
|---------------------------|------------------------|
|---------------------------|------------------------|


  B                           E
  Q  E  Q  E  Q   E  +Q   E   Q  E  Q  E  Q  E  Q  E
|-------------7---7--(7)----|---------------------------|
|------------10--10-(10)----|---------------------------|
|-------------9---9--(9)--7-|-9-----9-----9-----9-------|
|-9-----9-------------------|-9----11----12----11-------|
|-9----11-------------------|-7--7--7--7--7--7--7--7----|
|-7--7--7--7----------------|---------------------------|
|
| Q  E  Q  E  Q   E  +Q.      Q  E  Q  E  Q  E  Q  E
|-7-------------------------|-7-----------7-------------|
|-4-----4-----5---5--(5)----|-5-----5-----5-----5-------|
|-4-----4-----6---6--(6)----|-4-----6-----4-----6-------|
|-4-----4-----7---7--(7)----|-6-----6-----6-----7-------|
|---------------------------|---------------------------|
|---------------------------|---------------------------|


  A              E             B
   Q   E  +Q   E Q  E +Q.      Q  E  Q  E Q  E  Q  E
|--7---7--(7)----------------|-----------------------|
|-10--10-(10)----------------|-----------------------|
|--9---9--(9)--7----7-(7)----|-----------------------|
|----------------9--7-(7)----|-9-----9----9-----9----|
|----------------------------|-9----11----9----11----|
|----------------------------|-7--7--7--7-7--7--7--7-|
|
|  Q   E   Q   E Q  E  Q   E   Q  E  Q  E Q  E  Q  E
|--7-------7-----7-----------|-7----------7----------|
|--5-------5-----5-----5-----|-4-----4----4-----4----|
|--6-------6-----6-----6-----|-4-----4----4-----4----|
|--7-------7-----7-----6-----|-4--4--6--4-4--4--6----|
|----------------------------|-----------------------|
|----------------------------|-----------------------|


  A              E             B
   Q   E  +Q   E Q  E +Q.      Q  E  Q  E Q  E  Q  E
|--7---7--(7)----------------|--------------------------|
|-10--10-(10)----------------|--------------------------|
|--9---9--(9)--7----7-(7)----|--------------------------|
|----------------9--7-(7)----|-9-----9----9-----9-------|
|----------------------------|-9----11----9----11-------|
|----------------------------|-7--7--7--7-7--7--7--7----|
|
|  Q   E   Q   E Q  E  Q   E   Q  E  Q  E Q  E  Q  E
|--7-------7-----7-----------|-7----------7-------------|
|--5-------5-----5-----5-----|-4-----4----4-----4-------|
|--6-------6-----4-----6-----|-4-----4----4-----4-------|
|--7-------7-----7-----6-----|-4--4--4--4-4--4--6-------|
|----------------------------|--------------------------|
|----------------------------|--------------------------|


  A              E             B
   Q   E  +Q   E Q  E +Q.      Q  E  Q  E Q  E  Q  E
|--7---7--(7)----------------|-----------------------|
|-10--10-(10)----------------|-----------------------|
|--9---9--(9)--7----7-(7)----|-----------------------|
|----------------9--7-(7)----|-9-----9----9-----9----|
|----------------------------|-9----11----9----11----|
|----------------------------|-7--7--7--7-7--7--7--7-|
|
|  Q   E   Q   E Q  E  Q   E   Q  E  Q  E Q  E  Q  E
|--7-------7-----7-----------|-7----------7----------|
|--5-------5-----5-----5-----|-4-----4----4-----4----|
|--6-------6-----4-----6-----|-4-----4----4-----4----|
|--7-------7-----6-----6-----|-4--4--6--4-4--4--6----|
|----------------------------|-----------------------|
|----------------------------|-----------------------|


  A              E             B
   Q   E  +Q   E Q  E +Q.      Q  E Q  E +Q   E E E E
|--7---7--(7)----------------|---------------------------|
|-10--10-(10)----------------|---------------------------|
|--9---9--(9)--7----7-(7)----|-x--4----4-(4)--4-----4----|
|----------------9--7-(7)----|-x--4----4-(4)-------------|
|----------------------------|------------------5h6------|
|----------------------------|---------------------------|
|
|  Q   E   Q   E Q  E  Q   E   Q  E Q  E +Q.    Q   E
|--7-------7-----7-----------|-7-------7-(7)-------------|
|--5-------5-----5-----5-----|-4-------4-(4)-------------|
|--6-------6-----4-----6-----|-4----4--4-(4)----4--------|
|--7-------7-----7-----6-----|-4----6--7-(7)----6--------|
|----------------------------|---------------------------|
|----------------------------|---------------------------|


  Q  E Q  E +Q   E E E E   Q  E Q  E +Q   E E E E   Q  E Q  E +Q   E E E E
|------------------------|------------------------|-------------------------|
|------------------------|------------------------|-------------------------|
|----4----4-(4)--4-----4-|----4----4-(4)--4-----4-|----4----4-(4)--4-----4--|
|----4----4-(4)----------|----4----4-(4)----------|----4----4-(4)-----------|
|------------------5h6---|------------------5h6---|------------------5h6----|
|------------------------|------------------------|-------------------------|
|
| Q  E Q  E +Q.    Q   E   Q  E Q  E +Q.    Q   E   Q  E Q  E +Q.    Q   E
|-7-------7-(7)----------|-7-------7-(7)----------|-7-------7-(7)-----------|
|-4-------4-(4)----------|-4-------4-(4)----------|-4-------4-(4)-----------|
|-4-------4-(4)----------|-4-------4-(4)----------|-4-------4-(4)-----------|
|-4----4--7-(7)----4-----|-4----4--7-(7)----4-----|-4----4--7-(7)----4------|
|------6-----------6-----|------6-----------6-----|------6-----------6------|
|------------------------|------------------------|-------------------------|


 Fading Outro
 12/8
  Q  E Q  E +Q   E E E E   Q  E Q  E +Q   E E E E   Q  E Q  E +Q   E E E E
|------------------------|------------------------|--------------------------|
|------------------------|------------------------|--------------------------|
|----4----4-(4)--4-----4-|----4----4-(4)--4-----4-|----4----4-(4)--4-----4---|
|----4----4-(4)----------|----4----4-(4)----------|----4----4-(4)------------|
|------------------5h6---|------------------5h6---|------------------5h6-----|
|------------------------|------------------------|--------------------------|
|
| Q  E Q  E +Q.    Q   E   Q  E Q  E +Q.    Q   E   Q  E Q  E +Q.    Q   E
|-7-------7-(7)----------|-7-------7-(7)----------|-7-------7-(7)------------|
|-4-------4-(4)----------|-4-------4-(4)----------|-4-------4-(4)------------|
|-4-------4-(4)----------|-4-------4-(4)----------|-4-------4-(4)------------|
|-4----4--7-(7)----4-----|-4----4--7-(7)----4-----|-4----4--7-(7)----4-------|
|------6-----------6-----|------6-----------6-----|------6-----------6-------|
|------------------------|------------------------|--------------------------|


  Q  E Q  E +Q   E E E E   Q  E Q  E +Q   E E E E
|------------------------|------------------------|
|------------------------|------------------------|
|----4----4-(4)--4-----4-|----4----4-(4)--4-----4-|
|----4----4-(4)----------|----4----4-(4)----------|
|------------------5h6---|------------------5h6---|
|------------------------|------------------------|
|
| Q  E Q  E +Q.    Q   E   Q  E Q  E +Q.    Q   E
|-7-------7-(7)----------|-7-------7-(7)----------|
|-4-------4-(4)----------|-4-------4-(4)----------|
|-4-------4-(4)----------|-4-------4-(4)----------|
|-4----4--7-(7)----4-----|-4----4--7-(7)----4-----|
|------6-----------6-----|------6-----------6-----|
|------------------------|------------------------|


  Q  E Q  E +Q   E E E E   Q  E Q  E +Q   E E E E   W
|------------------------|------------------------|------*|
|------------------------|------------------------|------*|
|----4----4-(4)--4-----4-|----4----4-(4)--4-----4-|------*|
|----4----4-(4)----------|----4----4-(4)----------|------*|
|------------------5h6---|------------------5h6---|------*|
|------------------------|------------------------|------*|
|
| Q  E Q  E +Q.    Q   E   Q  E Q  E +Q.    Q   E   W
|-7-------7-(7)----------|-7-------7-(7)----------|------*|
|-4-------4-(4)----------|-4-------4-(4)----------|------*|
|-4-------4-(4)----------|-4-------4-(4)----------|------*|
|-4----4--7-(7)----4-----|-4----4--7-(7)----4-----|------*|
|------6-----------6-----|------6-----------6-----|------*|
|------------------------|------------------------|------*|

comments
We did not receive enough feedback on this tab! Please rate:
print report bad tab
1 2 3 4 5
I want to post or [tab]
guest
You may want to rate the tab now too:
select rating
Please do not post tabs as comments. Select "correction" instead!