Oops, an error
Loading. Please wait.

Mothers Little Helper Chords

ver1
ver1

Whole song

More versions @911Tabs.com
73,141 views 216 this week
12 commentsread comments
1 2 3 4 5
accurate
x 30
add to favorites launch autoscroll
font size
0
reset
transpose
0
reset
highlight chords
display chords
Autoscroll
+/-
esc
set tempo
stop
Contributor
Difficulty
novice
WARNING: You are trying to view
                                    content from Ultimate-Guitar.com
                                    in an unauthorized application,
                                    which is prohibited.

                                    Please use an official Ultimate
                                    Guitar Tabs application for iPhone,
                                    iPad or Android to access legitimate
                                    chords, guitar, bass, and drum tabs
                                    from Ultimate-Guitar.com database.

                                    Type "ultimate guitar tabs" in Apple
                                    App Store's or Android Market's
                                    search to find the application.
SONG:   MOTHER'S LITLLE HELPER
ARTIST: ROLLING STONES
ALBUM:  HOT ROCKS
TAB BY: DON CZARSKI
E-MAIL: guitarzan7@hotmail.com


                     MOTHER'S LITTLE HELPER
                        ROLLING  STONES

INTRO:
       Am     C      D          Em
      What a drag it is getting old

RIFF: 
   Em
E --2-3-3/5-3-2-3--|--2-3-3/5-3-2-3--|
B -----------------|-----------------|
G -----------------|-----------------|
D -----------------|-----------------|
A -----------------|-----------------|
E -----------------|-----------------|


VERSE:
        Em   
      "Kids are different today,"

       I hear every mother say
                                                  F D
       Mother needs something today to calm her down
                   G
       And though she's not really ill
                  C      Em7    Am
       There's a little yellow pill


BREAK: 
                 Am              
       She goes running for the shelter 
             D7             
       Of a mother's little helper
               Em
       And it helps her on her way

       Gets her through her busy day 
  

   Em
E --2-3-3/5-3-2-3--|--2-3-3/5-3-2-3--|
B -----------------|-----------------|
G -----------------|-----------------|
D -----------------|-----------------|
A -----------------|-----------------|
E -----------------|-----------------|


VERSE:
          Em
       "Things are different today,"

       I hear every mother say
                                                   F D
       Cooking fresh food for a husband's just a drag
               G
       So she buys an instant cake 
                 C       Em7     Am
       And she burns her frozen steak


BREAK: 
                     Am              
       And she goes running for the shelter 
             D7             
       Of a mother's little helper
               Em
       And it helps her on her way

       Gets her through her busy day 

   Em
E --2-3-3/5-3-2-3--|--2-3-3/5-3-2-3--|
B -----------------|-----------------|
G -----------------|-----------------|
D -----------------|-----------------|
A -----------------|-----------------|
E -----------------|-----------------|


CHORUS:
       Em       C
       Doctor please
                      D
       Some more of these
                    G
       Outside the door
                      C
       She took four more
        Am     C      D          Em         
       What a drag it is getting old

    Em
E --2-3-3/5-3-2-3--|
B -----------------|
G -----------------|
D -----------------|
A -----------------|
E -----------------|


VERSE:
        Em
       "Men just aren't the same today"

       I hear every mother say
                                                 F   D
       They just don't appreciate that you get tired
                   G
       They're so hard to satisfy
                 C     Em7      Am
       You can tranquilise your mind


BREAK:
               Am
       So go running for the shelter
             D7
       Of a mother's little helper
                   Em
       And for to help you through the night

       Help to minimise your plight

   Em
E --2-3-3/5-3-2-3--|--2-3-3/5-3-2-3--|
B -----------------|-----------------|
G -----------------|-----------------|
D -----------------|-----------------|
A -----------------|-----------------|
E -----------------|-----------------|


CHORUS:
       Em       C
       Doctor please
                      D
       Some more of these
                    G
       Outside the door
                      C
       She took four more
        Am      C     D          Em         
       What a drag it is getting old

    Em
E --2-3-3/5-3-2-3--|
B -----------------|
G -----------------|
D -----------------|
A -----------------|
E -----------------|


VERSE:
         Em
       "Life's just much too hard today,"

       I hear every mother say
                                              F  D
       The pursuit of happiness just seems a bore
               G
       And if you take more of those
                 C     Em7  Am
       You will get an overdose


BREAK:
                 Am
       No more running to the shelter
              D7
       Of a mother's little helper
                   Em
       They just helped you on your way

       Through your busy dying day 


OUTRO:
   Em
E --2-3-3/5-3-2-3--|--2-3-3/5-3-2-3--|
B -----------------|-----------------|
G -----------------|-----------------|
D -----------------|-----------------|
A -----------------|-----------------|
E -----------------|-----------------|

THEN    G  C  G G
                  HEY!
comments
print report bad tab
12 comments total. Showing first comments.
-2 reply
iBlewUpHeaven wrote on August 2 2004, 12:00 am

Complete crap, I don't think this person's ever even heard this song.

+1 reply
doug_fresh wrote on May 25 2006, 09:37 pm

awsome tab

0 reply
Carpenter wrote on October 18 2006, 04:49 pm

chords are all wrong. it doesn't stay on C in the last line of the verse and your missing a chord or two. there's no Asus2 either.

I want to post or [tab]
guest
You may want to rate the tab now too:
select rating
Please do not post tabs as comments. Select "correction" instead!