Oops, an error
Loading. Please wait.

Start Me Up Tab

ver4
ver4

Whole song

More versions @911Tabs.com
11,461 views 12 this week
no commentswrite comment
1 2 3 4 5
worth learning
x 2
Autoscroll
+/-
esc
set tempo
stop
Contributor
Difficulty
WARNING: You are trying to view
                                    content from Ultimate-Guitar.com
                                    in an unauthorized application,
                                    which is prohibited.

                                    Please use an official Ultimate
                                    Guitar Tabs application for iPhone,
                                    iPad or Android to access legitimate
                                    chords, guitar, bass, and drum tabs
                                    from Ultimate-Guitar.com database.

                                    Type "ultimate guitar tabs" in Apple
                                    App Store's or Android Market's
                                    search to find the application.


Intro
  Q=124
 4/4
  Gtr I
  E E   +E  E q  Q  E E   +E  E E  E  +E  E E E
|---5-|-(5)-5-5-------5-|-(5)-5-5-(5)-(5)-5-5---|
|---5-|-(5)-6-6-------5-|-(5)-6-6p=5--(5)-5-6---|
|---5-|-(5)-5-5-------5-|-(5)-5-5-(5)-(5)-5-5-0-|
|---5-|-(5)-7-7-------5-|-(5)-7-7p=5--(5)-5-7-0-|
|---5-|-(5)-----------5-|-(5)-5-5-(5)-(5)-5-5-0-|
|-----|-----------------|-----------------------|


  q  q  E E  E  E   +E  E E E E E E E   +E  E q  Q  E  E
|-----------------|-----------------5-|-(5)-5-5--------5-|
|-----------------|-----------3-3-3-5-|-(5)-6-6--------5-|
|-3--3--3----3--3-|-(3)---3---3-3-3-5-|-(5)-5-5--------5-|
|-3--5--3----5--3-|-(3)-3-5-3-3-3-3-5-|-(5)-7-7--------5-|
|-3--3--3-3-(3)-3-|-(3)-3-3-3-------5-|-(5)-5-5--------5-|
|-----------------|-------------------|------------------|
|
| Gtr II
| W                  H        E E E E    E  E q  Q  E  E
|-----------------|-------------------|---------------^1-|
|-----------------|-------------------|---------------^1-|
|-----------------|-------------------|---------------^0-|
|-----------------|-------------------|---------------^3-|
|-----------------|-----------1-0---3-|-------3----------|
|-----------------|---------------3---|--0--1-1----------|


  +E  E E E +E  E E E   q   q  q  e E   +E  E E E +E  E E E
|-(5)-5-5-5-(5)-5-5---|---------------|---------------------||
|-(5)-6-6-5-(5)-6-6---|-3---4--3----3-|-(3)-3-4-3-(3)-3-3---||
|-(5)-5-5-5-(5)-5-5-0-|-3---3--3--3-3-|-(3)-3-3-3-(3)-3-3-5-||
|-(5)-7-7-5-(5)-7-7-0-|-3---5--3--5-3-|-(3)-3-5-3-(3)-3-3-5-||
|-(5)---5-5-(5)-------|-3------3--3-3-|-(3)---3-------------||
|---------------------|---------------|---------------------||
|  H        +Q.     E
|
|  E  E E E  E  E E E   E E q  Q  E E    E  E E E  E  E E E
|-(1)-1-1-1--1--1-1-1-|---------------|---------------------||
|-(1)-1-1-1--1--1-1-1-|---------------|---------------------||
|--3--2-2-0--0--2-2-0-|-0-3-3-------2-|--3--3---2--3--------||
|-(3)-3-3-3--3--3-3-3-|-0-3-3-------2-|--3--3-5-2--3--------||
|---------------------|-----1---------|--1--1-1-0--1--0---3-||
|---------------------|---------------|-----------------3---||


 Verse 1
Rhy Fig 1a
    F5  F5      Fsus2   F   FsusF   Fsus2   Bb5      A5  Bb5   BbBb5
  Gtr II
  E E E E E E E E   +E  E E E E E E E   E E Q  Q   E E    E  E E E E E E E
  | | | | | | | |    |  | | | | | | |   | | |        |    |  | | | | | | |
  o / o / / x x /    /  / / / / / / /   o o /        /    /  / / / / / / /

  E E Q   Q   E E   +E  E E E E E E E   Q   Q  E E E E   +E  E E E E E E E
|---------------5-|-(5)-5-5-5-5-5-5-0-|----------------|---------------3---|
|-5-6-6---------5-|-(5)-6-6-5-5-6-6-0-|-3------3-----3-|-(3)-3-4-3-3-3-----|
|-5-5-5---------5-|-(5)-5-5-5-5-5-5-0-|-3------3-----3-|-(3)-3-3-3-3-3---5-|
|-5-7-7---------5-|-(5)-7-7-5-5-7-7-0-|-3---5--3---5-3-|-(3)-3-5-3-3-3---5-|
|---------------5-|-(5)---------------|-3---3--3-3-3-3-|-(3)-3-----3-3-----|
|-----------------|-------------------|----------------|-------------------|
|-Rhy Fig 1

    F5         C/E     F5  C/E F5      A5Bb5        A5  Bb5   BbBb5
  E E E E Q  E E   +E  E E E E E E E   E E Q   Q  E E    E  E E E E E E E
  | | | |      |    |  | | | | | | |   | | |        |    |  | | | | | | |
  o / / /      /    /  / / / / / / o   / / /        /    /  / / / / / / /

  E E Q   Q  E E   +E  E E E E E E E   q   E e q  E E   +E  E E E E E E E
|-5-5-5--------5-|-(5)-5-5-5-5-5-5---|----------------|-------------------|
|-5-6-6--------5-|-(5)-6-6-5-5-6-6---|-3--------------|-----3-------3---5-|
|-5-5-5--------5-|-(5)-5-5-5-5-5-5-0-|-3---5-3-3--3-3-|-(3)-3-5---3-3-5-5-|
|-5-7-7--------5-|-(5)-7-7-5-5-7-7-0-|-3---3---3--5-3-|-(3)-3-5---3-3-5-5-|
|-5------------5-|-(5)-----5-5-------|---------3--3-3-|-(3)-----3---3-----|
|----------------|-------------------|----------------|-------------------|


  FsFs2       Fsus2   F   FsusF         Bb5                 BbBb5
  E E Q  Q  E E   +E  E E E E E E E   E E Q  Q  E E    E  E E E E E E E  end
  | | |       |    |  | | | | | | |   | | |       |    |  | | | | | | |  Rhy Fig 1a
  / / /       /    /  / / / / / / o   / / /       /    /  / / / / o o o

  E E Q  Q  E E   +E  E E E E E E E   e E q  Q  E E   +E  E E E E E E E
|---5-5-------5-|-(5)---------------|---------------|-------------------|
|-5-6-6-------5-|-(5)-6-6---5-6-6---|-----4---------|-----3-----3-3-5---|
|-5-5-5-------5-|-(5)-5-5-5-5-5-5-0-|-3---5--3----3-|-(3)-3-----3-3-5-5-|
|-5-7-7-------5-|-(5)-7-7-5-5-7-7-0-|-3---3--3--5-3-|-(3)-3-5-3-3-3-5-5-|
|---5-5-------5-|-(5)-5-5-5-5-------|-3-3----3--3-3-|-(3)-3-3-3-3-------|
|---------------|-------------------|---------------|-------------------|
                                                         end Rhy Fig 1 -|

    F       FsFsus2   F   FsusF         Bb5       BbBb5       BbBb5   BbBb5
  E E Q  Q  E E   +E  E E E E E E E   E E Q   E E E E    E  E E E E E E E
  | | |  |  | |    |  | | | | | | |   | | |   | | | |    |  | | | | | | |
  o / /  /  / /    /  / / / / / / o   / / /   / / / /    /  / / / / / / /

  E E q  q  E E   +E  E E E E E E E   q   E E E E E E   +Q.     E E E E E
|-------------5-|-(5)-5-5-5-5-5-5---|-----------------|-------------------||
|-5-6-6-------5-|-(5)-6-6-5-5-6-6---|-----4-----3-4-3-|-(3)-----3---3-x-5-||
|-5-5-5-----3-5-|-(5)-5-5-5-5-5-5-0-|-3---5-3---3-3-3-|-(3)-----3---3-x-5-||
|-5-7-7-----3-5-|-(5)-7-7-5-5-7-7-0-|-3---3-3---3-5-3-|-(3)-----3---3-x-5-||
|-5------5----5-|-(5)-5-----5---5---|-3---3-3-3-3-3-3-|-(3)-----3-3-----5-||
|---------------|-------------------|-----------------|-------------------||


 Chorus 1
  +E  E Q   E E E   E    +E   E  E  E     E E E E
|---------------------|---------------------------|
|-(5)-5-5---5-5-x-----|---------------------------|
|-(5)-5-5---5-5-x-/10-|-(10)-10-10-10----10-8-7-5-|
|-(5)-5-5---5-5-x-/10-|-(10)-10-10-10----10-8-7-5-|
|-(5)---5---5-----/10-|-(10)-10-10-10----10-8-7-5-|
|---------------------|---------------------------|
|-Rhy Fig 2
|
| Gtr II
|  Q    E E E E E   E     E   E  E  S  S  E E E E
|---------------------|---------------------------|
|---------------------|---------------------------|
|-------5-5-5---7s=10-|--10-----------10-10-----5-|
|-------5-5-5-7-7s=10-|--10--------10----10-----5-|
|-------3-3-3-5-5s==8-|---8--10s12----------0-0-3-|
|---------------------|---------------------------|
|-Rhy Fig 2a

  +E  E Q  +E  E  E  E    +E   E  E  E     E E E E
|----------------------|-----------------------------|
|----------------------|---------10--------------5---|
|-(5)-5-5--(5)-0--x-10-|-(10)-10-10-------10-8-7-5---|
|-(5)-5-5--(5)-0--x-10-|-(10)-10-10-10----10-8-7-5---|
|-(5)-5-5--(5)------10-|-(10)-10-10-10----10-8-7-5---|
|----------------------|-----------------------------|
|
|  E  E Q   Q     E  E     E   E  E  S  S  E E E E
|----------------------|-----------------------------|
|----------------------|-----------------------------|
|--5--5-5---5----------|--10-----------10-10-----5---|
|--5--5-5---5----12-10-|--10--------10----10-----5---|
|--3--3-3---3-----8--8-|---8--10s12----------0-0-3---|
|----------------------|-----------------------------|


  +Q    +Q   E E  E  E    +Q       E   E  +E  E E E
|----------------------|----------------------------|
|-(5)---(5)----0-------|----------------------------|
|-(5)---(5)--5-0----10-|-(10)-----10--10-(10)-8s7-0-|
|-(5)---(5)--5----7-10-|-(10)-----10--10-(10)-8s7-0-|
|-(5)---(5)--5------10-|-(10)-----10--10-(10)-------|
|----------------------|----------------------------|
|                                     end Rhy Fig 2-|
|
|  E  E  Q   Q    E  E    +E   E   E   E   E  E E E
|----------------------|----------------------------|
|----------------------|----------------------------|
|--5--5--5---5---12-10-|-(10)-10-(10)-10--10--8s7-0-|
|--5--5--5---5---12-10-|-(10)-10-(10)-10--10--8s7-0-|
|--3--3--3---3----8--8-|--(8)-10h=12--10--10--------|
|----------------------|----------------------------|
                                     end Rhy Fig 2a-|

  e e Q   E e E E   +E  E E  E  E e E E
|-----------------|---------------------|
|-----6---5-----5-|-(5)-5-6p=5--5-----5-|
|-5---5---5---0-5-|-(5)-5-5-(5)-5---8-5-|
|-5---7---5---0-5-|-(5)-5-7p=5--5---8-5-|
|-5-5-5-----5---5-|-(5)---5-(5)-5-5---5-|
|-----------------|---------------------|
|
| Q   E E Q   E E    E  E E  E  E E E E
|-----------------|---------------------|
|-----6-6-5---6-5-|---------------------|
|-5---5-5-5---5-5-|---------------------|
|-5---7-7-5---7-5-|--5--5-7--5--5-2-0-5-|
|-3---------------|--3--3-3--3--3-----3-|
|-----------------|---------------------|


  C5  CsusC6    C5C6         C6D5
  Gtr II
   E  E E E  E  E E E   +Q   E E E E E E
   |  | | |  |  | | |    |   | | | | | |
   /  / / /  /  / / o    o   / / o o / /

  +Q    Q   +E  E E E    E E E E E e Q
|---------------------|------------------|
|-(5)---5---(5)-5-5---|------------------|
|-(5)---5---(5)-5-5-0-|--8s7-0-8s7-0-----|
|-(5)---5---(5)-5-5-0-|--8s7-0-8s7-------|
|-(5)---5---(5)-------|------------------|
|---------------------|------------------|


  FsFs2       Fsus2     F   Fsus2   F   Fsus2
  E E Q  Q  E S S    E  E E  E   E  E E E
  | | |       | |    |  | |  |   |  | | |
  / / /       / /    /  / /  /   /  / / /

  Q   q  Q  E E     +E  E E  E  +E  Q   E
|-5---5-----------|-----------------------|
|-5---6-------5---|-(5)---6p=5--(5)-6-----|
|-5---5-------5---|-(5)---5-(5)-(5)-5---0-|
|-5---7-------5---|-(5)---7p=5--(5)-7---0-|
|-------------5---|-(5)-5-5---------------|
|-----------------|-----------------------|


  A5  Bb5                  BbBb5
  E E Q  Q    E  E    E  E E E  E  E E E
  | | |          |    |  | | |  |  | | |
  / / /          /    /  / / /  /  o o o

  q   q  E E  E  E   +E  E E E  E  E E E
|------------------|---------------------||
|-3---4--3----4--3-|-(3)-3-3----3--3-3---||
|-3---3--3----3--3-|-(3)-3-3----3--3-3-5-||
|-3---5--3----5--3-|-(3)-3-5----3--3-3-5-||
|-3---3--3-3-(3)---|---------3-(3)-----5-||
|------------------|---------------------||


 Verse 2 with Rhy Fig 1 & 1a


  Gtr III (enters after 4 bars of Rhy Figs)
  Q   E E  E  E  Q       W
|---------------------|-------------------|
|-------5h=6p=5h=6----|-------------------|
|-------5-(5)(5)(5)---|-------------------|
|-------5h=7p=5h=7----|-------------------|
|---------------------|-------------------|
|---------------------|-------------------|


  Q   E E    E E E    E    E  E    E E E    E Q
|-----------------------|-------------------------|
|------------6--------6-|--6-------6-6------6-----|
|-------8b10---0-8b10---|-----8b10-----8b10-------|
|-----------------------|-------------------------|
|-----------------------|-------------------------|
|-----------------------|-------------------------|


  Q   E E  E  E  Q       W                  E E Q  E E E E   +E  E Q   Q   Q
|---------------------|-------------------|----------------|-------------------|
|-------5h=6p=5h=6----|-------------------|----------------|-------------------|
|-------5-(5)(5)(5)---|-------------------|---3-3--3-3---3-|-(3)-3-3---3---3---|
|-------5h=7p=5h=7----|-------------------|---3-3--3-5---3-|-(3)-3-5---3---3---|
|---------------------|-------------------|----------------|-------------------|
|---------------------|-------------------|----------------|-------------------|


 Chorus 2 with Rhy Fig 2a
  E E Q   E E E   E    +E   E  E  E     E E E E   +E  E Q  +E  E  E  E
|-------------------|---------------------------|----------------------|
|-5-5-5---5-5-x-----|---------------------------|----------------------|
|-5-5-5---5-5-x-/10-|-(10)-10-10-10----10-8-7-5-|-(5)-5-5--(5)-0--x-10-|
|-5-5-5---5-5-x-/10-|-(10)-10-10-10----10-8-7-5-|-(5)-5-5--(5)-0--x-10-|
|-5---5---5-----/10-|-(10)-10-10-10----10-8-7-5-|-(5)-5-5--(5)------10-|
|-------------------|---------------------------|----------------------|



   +E   E  E  E     E E E E
|---------------------------|
|---------10----------------|
|-(10)-10-10-------10-8-7-5-|
|-(10)-10-10-10----10-8-7-5-|
|-(10)-10-10-10----10-8-7-5-|
|---------------------------|



   Q    +Q   E E  E  E    +Q       E   E  +E  E E E
|----------------------|--------------------------5-|
|--5----(5)----0-------|--------------------------5-|
|-(5)---(5)--5-0----10-|-(10)-----10--10-(10)-8-7-5-|
|-(5)---(5)--5----7-10-|-(10)-----10--10-(10)-8-7-5-|
|-(5)---(5)--5------10-|-(10)-----10--10-(10)-----5-|
|----------------------|----------------------------|



  C5    C6C5     C6C5        C6C5      C6C5        C6C5F5VIEbD5C5
  Gtr II
   Q    E E E  E E E     E E E E  E  E E E    E  E E E  E  E E E
   |    | | |  | | |     | | | |  |  | | |    |  | | |  |  | | |
   /    / / /  / / /     / / / /  /  / / /    /  / / /  /  / / /
  +E  E E E Q.     S S   E E E E +Q.     E   +Q    E E +E  E E E
|-(5)-5-5-5-5------5-5-|-5-5-5-5-(5)-------|---------------------|
|-(5)-6-6-5-5------5-5-|-5-6-6-5-(5)-------|---------------------|
|-(5)-5-5-5-5------5-5-|-5-5-5-5-(5)-----5-|-(5)-----------5-----|
|-(5)-7-7-5-5------5-5-|-5-7-7-5-(5)-----5-|-(5)---7-5-(5)-5-7-5-|
|-(5)-----5-5------5---|-5-----5-(5)-----5-|-(5)---5-5-(5)-5-5-5-|
|----------------------|-------------------|---------------------|


  Gtr I
  E   +E  q  q   q     E E q  Q  E E   +E  E E E +E  E E E
|--------------------|-5---5-------5-|-(5)-5-5-5-(5)-------|
|--------------------|-5---6-------5-|-(5)-6-6-5-(5)---6---|
|-7b8-(8)-7--8---7---|-5---5-------5-|-(5)-5-5-5-(5)---5-0-|
|-7b8-(8)-7--8---7---|-5h7-7-------5-|-(5)-7-7-5-(5)-7-7-0-|
|--------------------|-5---5-------5-|-(5)-----------5-----|
|--------------------|---------------|---------------------|
|
| Gtr II
| E    E  Q  E E E E   E E q  Q  E E   +E  E Q    E  E E E
|--------------------|-----1-------1-|-(1)-1-1----1--1-----|
|--------------------|-1-1-1-------1-|-(1)-1-1----3--1-1-1-|
|------5--5--5---5---|-0h2-2-------0-|-(0)-2-2---------2-0-|
|-8-------5--5-7-7-5-|-------------3-|-(3)-3-3-------------|
|--------------------|---------------|---------------------|
|--------------------|---------------|---------------------|


  BbBbs2        Bbsus2  Bb  BbsuBb  Bbsus2
  Gtr II
  E E Q   Q   E E   +E  E E E E E E E
  | | |         |    |  | | | | | | |
  / / /         /    /  / / / / / / /

  Gtr I
  q   E E E e E E   +E  E E E E E E E
|-----------------|-----------------5-||
|-3---4-3-3---4-3-|-(3)-3-4---3-3---5-||
|-3---3-3-3---3-3-|-(3)-3-3---3-3-0-5-||
|-3---5-3-3---5-3-|-(3)-3-5---3-3-0-5-||
|-3---3-3-3-3-----|---------3-------5-||
|-----------------|-------------------||


 Verse 3
  FsFs2       FsusF     FsFs2 FsFs2   BbBbs2           Bb6   Bb        Bbsus2
  E E Q  Q  E E    E  E E E E E E E   E E Q  H          E  E E E E E E E
  | | |       |    |  | | | | | | |   | | |             |  | | | | | | |
  / / /       /    /  / / / / / / /   / / /             /  / / / / / / /

  E E q  Q  E E   +E  E E E E E E E   q   q  E E E E   +E  E E E E E E E
|-5-5-5-------5-|-(5)-5-5-5-5-5-5-0-|----------------|-----------------5-|
|-5-6-6-------5-|-(5)-6-6-5-5-5-6-0-|--------3---4-3-|-(3)---------3-3-5-|
|-5-5-5-------5-|-(5)-5-5-5-5-5-5-0-|-3------3-3-3-3-|-(3)-3-----3-3-3-5-|
|-5-7-7-------5-|-(5)-7-7-5-5-5-7-0-|-3---5--3-3-5-3-|-(3)-3-5---3-3-5-5-|
|-------------5-|-(5)---------------|-3---3--3-3---3-|-(3)-3-3-3-3-3-3---|
|---------------|-------------------|----------------|-------------------|


  FsFs2       FsFs2       FsusF   Fsus2
  E E Q  Q  E S S    E  E E E E E E E
  | | |       | |    |  | | | | | | |
  / / /       / /    /  / / / / / / x

  E E q  Q  E E     +E  E E E E E E E
|-5-5-5-------5---|-(5)-5-5-5-5-5-----|
|-5-6-6-------5---|-(5)-6-6-5-5-6-----|
|-5-5-5-------5---|-(5)-5-5-5-5-5-0-3-|
|-5-7-7-------5---|-(5)-7-7-5-5-7-0-3-|
|-5---------------|-----------------3-|
|-----------------|-------------------|


  BbsuBb            Bbsus2  Bb        Bbsus2
   E  E Q  H         E  E   E E E E E E
   |  | |            |  |   | | | | | |
   /  / /            /  /   / / / / / /

  +E  E q  Q  E E   +E  S S E E E E E E
|-----------------|-----------------------||
|-----3----3--x-3-|-(3)-3-3-3-3-3-3---5---||
|-(3)-3-3--3--x-3-|-(3)-3-3-3-3-3-3-0-5---||
|-(3)-3-5--3--x-3-|-(3)-3-3-3-3-3-3-0-5---||
|-(3)---3--3------|-----------------------||
|-----------------|-----------------------||


 Chorus 3 Gtr II plays Rhy Fig 2a
  Gtr I
  +Q   Q   E E   E  E    +E   Q     E     E E E E
|---------------------|---------------------------|
|-(5)-----------------|------10----------10-----5-|
|-(5)--5---5-0-/10-10-|-(10)-10----10----10-8s5-5-|
|-(5)--5---5-0-/10-10-|-(10)-10----10----10-8s5-5-|
|------5---5-------10-|-(10)-10-------------8s5-5-|
|---------------------|---------------------------|



  +Q    Q  E E   E  E    +E   E  E  E     E E E E
|---------------------|-----------------------------|
|-(5)---5-------------|-----------------------------|
|-(5)---5--5-0-/10-10-|-(10)-10-10-10----10-8-8-----|
|-(5)---5--5-0-/10-10-|-(10)-10-10-10----10-8-8-----|
|-(5)---5--5-------10-|-(10)-10-10-10----10-8-8-0---|
|---------------------|-----------------------------|



  Q   Q  E E   E  E    +E   E   Q      E Q   E   Q  Q  Q.    E
|-------------------|--------------------------|---------------|
|-------------------|--------------------------|----6--5-----5-|
|-5---5--5-0-/10-10-|-(10)-10--10------8-7---0-|-5--5--5-----5-|
|-5---5--5-0-/10-10-|-(10)-10--10------8-7---0-|-5--7--5-----5-|
|-5---5--5---/10-10-|-(10)-10--10------8-7-----|-5-----5-----5-|
|-------------------|--------------------------|---------------|
                                               |
                                       Gtr II  | Q  Q  Q   E E
                                               |---------------|
                                               |----6--5---x---|
                                               |-5--5--5---x-5-|
                                               |-5--7--5---x-5-|
                                               |-3-----------3-|
                                               |---------------|


  +E   E Q   E E     +E  E   +E  Q   E E E E E   E E E E   E E E E
|--------------------------|-------------------|-------------------|
|-(5)----6---5-----------5-|-(5)---------------|-----------------5-|
|-(5)--0-5---5-8b8.5r(8)-5-|-(5)-5---5---5-----|---8s7-0---7-5-x-5-|
|-(5)--0-7---5-8b8.5r(8)-5-|-(5)-5---5---5-7p5-|---8s7-0---7-5-x-5-|
|-(5)--------------------5-|-(5)-5---5-8-------|-------------------|
|--------------------------|-------------------|-------------------|
|
|  E   E E E E E      E  E   +E  E E E E E E E   E E E E a E E E E
|--------------------------|-------------------|-------------------|
|----------6-5-----------5-|-(5)-5-6-5---------|-------------------|
|----------5-5-8s=====7--5-|-(5)-5-5-5-5-5-5-5-|-8s7---5-5s7-5-7-0-|
|----------7-5-8s=====7--5-|-(5)-5-7-5-5-5-7-5-|-8s7-7-5-5s7-5-7---|
|--5b6-5-5-----------------|-------------------|-------------------|
|--------------------------|-------------------|-------------------|


  FsF/C/C      Fsus2/C F/C Fsus2/F/C Fsus2/C
  Gtr II
  E  E Q  Q  E E   +E  E E E  E  E E E
  |  | |       |    |  | | |  |  | | |
  /  / /       /    /  / / /  /  / / /

  Gtr I
  E  E Q  Q  E E   +E  E E E  E  E E E
|----------------|---------------------|
|-5--5h6-------5-|-(5)-6-6-5h=6--6-----|
|-5-(5)5-------5-|-(5)-5-5-5-(5)-5-0-0-|
|-5--5h7-------5-|-(5)-7-7-5h=7--7-0-0-|
|----5-----------|-----5---5-(5)-------|
|----------------|---------------------|


    Bb5                     BbBbBb6 Bb5
  E E Q   Q   E S S    E  E E E  E  E E E
  | | |         | |    |  | | |  |  | | |
  o / /         / /    /  / / /  /  / o o

  q   E E E E E E     +E  E E E +Q.     E
|-------------------|---------------------||
|-----4---3---4-3---|-(3)---4-3-(3)-------||
|-3---3---3---3-3---|-(3)-3-3-3-(3)-----5-||
|-3---5---3---5-3---|-(3)-3-5-3-(3)-----5-||
|-3---3-3-3-3-3-3---|-(3)-3---3-(3)-------||
|-------------------|---------------------||


 Verse 4
  C/F5         Fsus2/C F/C FsusF/C Fsus2/Bb5         Bb5
  E E Q  E E E E   +E  E E E E E E E   E E Q   Q   E E
  | | |  | | | |    |  | | | | | | |   | | |       | |
  / / /  x x x /    /  / / / / / / /   o / /       o /

  E E q  Q   E E   +E  E E E E E E E   q   E E E E E E
|--------------5-|-(5)-5-5-5-5-5-5-0-|-----------------|
|-5-6-6--------5-|-(5)-6-6-5-5-5-6-0-|-----4-----------|
|-5-5-5--------5-|-(5)-5-5-5-5-5-5-0-|-3---3---3-3-x---|
|-5-7-7--------5-|-(5)-7-7-5-5-5-7-0-|-3---5---3-3-x---|
|--------------5-|-(5)---------------|-3---3-3-3-3---3-|
|----------------|-------------------|-----------------|


      BbBbBb6   Bb5   FsFs2        Fsus2   F   Fsus2 F   Fsus2
  E E E E  E  E E E   E E Q  Q   E E    E  E E E  E  E E E
  | | | |  |  | | |   | | |        |    |  | | |  |  | | |
  / / / /  /  / / o   / / /        /    /  / / /  /  / / /

  E e E E +E  E E E   E E q  E E E E    E  Q   E +E  Q   E
|-------------------|----------------|---------------------|
|-----4-3-(3)-3-3---|-5-6-6----5h6-6p|==5--6---5-(5)-6-----|
|-3---3-3-(3)-3-3-5-|-5-5-5----5---5-|-(5)-5---5-(5)-5---0-|
|-3---5-3-(3)-3-3-5-|-5-7-7----5h7-7p|==5--7---5-(5)-7---0-|
|---3---------3-3-5-|-5--------5-----|---------------------|
|-------------------|----------------|---------------------|


      D5Bb5           C5  Bb5 Bb/D
  E   E E E +Q.       E    E  E  E  E        E   E  E E
      | | |  |        |    |  |  |  |        |   |  | |
      / / /  /        /    /  /  /  /        /   /  / o

  Gtr I
  E a E E E +Q.       E   +E  E  Q           E   E  E E
|-----------------------|-------------------------------|
|-----------------------|-----------------------------5-|
|-------3-3-(3)-------3-|-(3)-3--3-----------3---3----5-|
|-------3-3-(3)-------3-|-(3)-3--3-----------3---3--5-5-|
|-3-6s7---------------3-|-(3)----3------------------7---|
|-----------------------|-------------------------------|
|
| Gtr III
| H          E  Q.        +Q     Q    a     +E  +Q.
|-----------------------|-------------------------------|
|-----------------------|--------6----------------------|
|---------------5b7=====|=(7)---(7)---------------------|
|-----------------------|-------------5pb7==(7)r(5)-----|
|-----------------------|-------------------------------|
|-----------------------|-------------------------------|


  FsusF      FsFsFsus2   F   FsusF   Fsus2
   E  E Q  E E E E   +E  E E E E E E E
   |  | |  | | | |    |  | | | | | | |
   /  / /  / / / /    /  / / / / / / /

  +E  E q  Q   E E   +E  E E E E E E E
|------------------|---------------------|
|-(5)-6-6--------5-|-(5)-6-6-5-5-6-6-----|
|-(5)-5-5--------5-|-(5)-5-5-5-5-5-5-0---|
|-(5)-7-7--------5-|-(5)-7-7-5-5-7-7-0---|
|-------5--------5-|-(5)-----5-5-----0---|
|------------------|---------------------|



     Bb5
  E  E E E  Q   Q
  |  | | |  |   |
  o  / / /  /   /

  Q.     E +Q   Q
|------------------|
|--------3-(3)--3--|
|-3------3-(3)--3--|
|-3------3-(3)--3--|
|-3------3-(3)--3--|
|------------------|



                                                C/F5  C/F5
   E   E  E       E   E          E    E   E     E E E E Q  Q
   |   |  |       |   |          |    |   |     | | | | |
   /   /  /       /   /          /    /   /     / / / / /

  +E   E  E       E   E          E    E   S S   E E q   Q  E E
|---------------------------------------------|-----------------|
|-(3)--4--4-------3---3----------3----3---5-5-|-5-6-6--------5--|
|-(3)--3--3-------3---3----------3----3---5-5-|-5-5-5--------5--|
|-(3)--5--5-------3---3----------3----3---5-5-|-5-7-7--------5--|
|-(3)-----------------------------------------|-5-5-5--------5--|
|---------------------------------------------|-----------------|
|Gtr III
|  E   E  E      +E   E  a      +E   +E   E     W
|--------------------13-----------------------|-----------------|
|---------------------------------------------|-----------------|
|-----10-12b14==(14)----12b14==(14)r(12)-10---|-----------------|
|-12------------------------------------------|-----------------|
|---------------------------------------------|-----------------|
|---------------------------------------------|-----------------|


  C/E F5          C/E        F5          C/E A5 Bb5 A5Bb5
   E   E       E   E           E    E  E E   E  E E E  Q   E       E
   |   |       |   |           |    |  | |   |  | | |  |   |       |
   /   /       /   /           /    /  / /   /  / / /  /   /       /

  +E   E       E   E          +E    E  E E   Q.     E +Q   Q
|------------------------------------------|--------------------------|
|-(5)--6-------6---5----------(5)---6--6---|--------3-(3)--3----------|
|-(5)--5-------5---5----------(5)---5--5-0-|-3------3-(3)--3----------|
|-(5)--7-------7---5----------(5)---7--7-0-|-3------3-(3)--3----------|
|-(5)--------------5----------(5)----------|-3------3-(3)--3----------|
|------------------------------------------|--------------------------|
|
|  E   E      +E   E  a       +E   +E  Q     H         Q   E a    +E
|------------------------------------------|--------------------------|
|-----------------13-----------------------|--------------------------|
|-----12b14==(14)----12pb14==(14)r(12)-----|-----------------3b5==(5)-|
|------------------------------------------|--------------------------|
|------------------------------------------|--------------------------|
|------------------------------------------|--------------------------|


                             C/F5         C/E F5
  +E  E E       E  E E E E   E E Q         E   E          Q
   |  | |       |  | | | |   | | |         |   |          |
   /  / /       /  / / / /   / / /         /   /          /

  +E  E E       E  Q   E E   E E q         Q              E  E
|--------------------------|-----------------------------------|
|-(3)--------------4---3-4-|-4-5-6---------------------------5-|
|-(3)-3-3-------3--3---3-5-|-5-5-5---------------------------5-|
|-(3)-3-3-------3--5---3-5-|-5-5-7---------------------------5-|
|-(3)-3-3-------3--3---3-5-|-5-5-5---------------------------5-|
|--------------------------|-----------------------------------|
|
| +E  E E a    +E  E E Q     Q   E    +E  +E  +S   S     +E  E
|-------1------------------|-----------------------------------|
|-----1------------4-4-----|-----------------------4-----(4)---|
|-(3)-----3b5==(5)---------|-----3b5==(5)-(5)-(5)r(3)b5==(5)---|
|--------------------------|-----------------------------------|
|--------------------------|-----------------------------------|
|--------------------------|-----------------------------------|


  Fsus2    F        Fsus2   F          Fsus2      Bb5
        E  E E       E   E  E       E  E   E       E   E  E       Q         E  E
        |  | |       |   |  |       |  |   |       |   |  |                    |
        /  / /       /   /  /       /  /   o       /   /  /                    /

       +E  E E       E   E  E       E  E   E       E   q          Q         E  E
|----------------------------------------|---------------------------------------|
|------(5)-6-6-------5---5--6-------6----|---------------------------------------|
|------(5)-5-5-------5---5--5-------5--0-|-3-----------3----------3---------3----|
|------(5)-7-7-------5---5--7-------7--0-|-3-----------5----------3---------5----|
|------(5)-----------5---5---------------|-3-------3---3----------3------------3-|
|----------------------------------------|---------------------------------------|
|
| a     Q    E a     E  +Q    a     Q      E a    +E  +Q    a    +Q   a    +Q
|----------------------------------------|---------------------------------------|
|-------4------------4--(4)---------4----|---3b4==(4)r(3)---3b4==(4)--3b4==(4)---|
|-3b5==(5)-----3b5==(5)-(5)---3b5==(5)---|---3b4==(4)r(3)---3b4==(4)--3b4==(4)---|
|----------------------------------------|---------------------------------------|
|----------------------------------------|---------------------------------------|
|----------------------------------------|---------------------------------------|


                                              F    Fsus2     F5VIII   Eb5
  +Q           Q         +E  E Q     E          E  Q    Q    E          E
   |           |          |  | |     |          |  |    |    |          |
   /           /          /  / /     /          /  /    /    /          /

   E       E   E  E       E  E E E   E          E  Q    Q    E          E
|----------------------------------|-----------------------------------------*|
|----------------------------3-3---|-5----------6--6--------------------5----*|
|--3-----------3-------------3-3-5-|-5----------5--5--------------------5----*|
|--3-----------5-------------3-3-5-|-5----------7--7--------------------5----*|
|--3-------3------3-------3--------|-5----------5--5--------------------5----*|
|----------------------------------|-----------------------------------------*|
|
|  E a    +E  +Q    a    +Q    Q     E  a       Q    E  E  E E  a       E
|----------------------------------|-----------------------------------------*|
|----3b4==(4)r(3)---3b4==(4)-------|-----------13----------------------13----*|
|----3b4==(4)r(3)---3b4==(4)-------|---12b14==(14)-----10------12b14==(14)---*|
|----------------------------------|----------------------10-----------------*|
|----------------------------------|-----------------------------------------*|
|----------------------------------|-----------------------------------------*|
comments
We did not receive enough feedback on this tab! Please rate:
print report bad tab
1 2 3 4 5
I want to post or [tab]
guest
You may want to rate the tab now too:
select rating
Please do not post tabs as comments. Select "correction" instead!