Oops, an error
Loading. Please wait.

You Cant Always Get What You Want Tab

70,233 views 42 this week
no commentswrite comment
1 2 3 4 5
not so good
x 8
Autoscroll
+/-
esc
set tempo
stop
WARNING: You are trying to view
                                    content from Ultimate-Guitar.com
                                    in an unauthorized application,
                                    which is prohibited.

                                    Please use an official Ultimate
                                    Guitar Tabs application for iPhone,
                                    iPad or Android to access legitimate
                                    chords, guitar, bass, and drum tabs
                                    from Ultimate-Guitar.com database.

                                    Type "ultimate guitar tabs" in Apple
                                    App Store's or Android Market's
                                    search to find the application.
Band/Artist: The Rolling Stones
Song: You Can't Always Get What You Want
Album: Let It Bleed




Rhythm



     W                   W                   W                 
E||-------------------|-------------------|-------------------|
B||-------------------|-------------------|-------------------|
G||-------------------|-------------------|-------------------|
D||-------------------|-------------------|-------------------|
A||-------------------|-------------------|-------------------|
E||-------------------|-------------------|-------------------|


  W                   W                   W                   W                 
-------------------|-------------------|-------------------|-------------------|
-------------------|-------------------|-------------------|-------------------|
-------------------|-------------------|-------------------|-------------------|
-------------------|-------------------|-------------------|-------------------|
-------------------|-------------------|-------------------|-------------------|
-------------------|-------------------|-------------------|-------------------|


  W                   W                   W                   W                 
-------------------|-------------------|-------------------|-------------------|
-------------------|-------------------|-------------------|-------------------|
-------------------|-------------------|-------------------|-------------------|
-------------------|-------------------|-------------------|-------------------|
-------------------|-------------------|-------------------|-------------------|
-------------------|-------------------|-------------------|-------------------|


  W                   W                   W                   W                 
-------------------|-------------------|-------------------|-------------------|
-------------------|-------------------|-------------------|-------------------|
-------------------|-------------------|-------------------|-------------------|
-------------------|-------------------|-------------------|-------------------|
-------------------|-------------------|-------------------|-------------------|
-------------------|-------------------|-------------------|-------------------|


  W                   W                   Q.     S S  
-------------------|-------------------|--3------5-3-|
-------------------|-------------------|--5------6-5-|
-------------------|-------------------|--5------5-5-|
-------------------|-------------------|--5------7-5-|
-------------------|-------------------|--3--------3-|
-------------------|-------------------|-------------|


  Q    E.  S E  E  S S S S    E  E  E.  S E  S S E  E   
--0----3---3-0--3--0-3-0-3-|--5--5--5---5-5---------3--|
--8----5---5-8--5--8-5-8-5-|--6--6--6---6-6------6--5--|
--7----5---5-7--5--7-5-7-5-|--7--7--7---7-7------5--5--|
--5----5---5-5--5--5-5-5-5-|--7--7--7---7-7--5-7----5--|
-------3---3----3----3---3-|--5--5--5---------------3--|
---------------------------|---------------------------|


  Q    E.  S E  E  S S S S    E  E  E.  S E  E  S S S S  
--0----3---3-0--3--0-3-0-3-|--5--5--5---5-5--5------3-3-|
--8----5---5-8--5--8-5-8-5-|--6--6--6---6-6--6------5-5-|
--7----5---5-7--5--7-5-7-5-|--5--5--5---5-5--5------5-5-|
--5----5---5-5--5--5-5-5-5-|--7--7--7---7-7--7--5-7-----|
-------3---3----3----3---3-|----------------------------|
---------------------------|----------------------------|


  Q    E.  S E  E  S S S S    E  E  E.  S E  S S E  E   
--0----3---3-0--3--0-3-0-3-|--5--5--5---5-5---------3--|
--8----5---5-8--5--8-5-8-5-|--6--6--6---6-6------6--5--|
--7----5---5-7--5--7-5-7-5-|--7--7--7---7-7------5--5--|
--5----5---5-5--5--5-5-5-5-|--7--7--7---7-7--5-7----5--|
-------3---3----3----3---3-|--5--5--5---------------3--|
---------------------------|---------------------------|


  Q    E.  S E  E  S S S S    E  E  E.  S E  E  S S S S  
--0----3---3-0--3--0-3-0-3-|--5--5--5---5-5--5------3-3-|
--8----5---5-8--5--8-5-8-5-|--6--6--6---6-6--6------5-5-|
--7----5---5-7--5--7-5-7-5-|--5--5--5---5-5--5------5-5-|
--5----5---5-5--5--5-5-5-5-|--7--7--7---7-7--7--5-7-----|
-------3---3----3----3---3-|----------------------------|
---------------------------|----------------------------|


  Q    E.  S E  E  S S S S    E  E  E.  S E  E  S S S S  
--0----3---3-0--3--0-3-0-3-|--5--5--5---5-5--5--5-3-3-3-|
--8----5---5-8--5--8-5-8-5-|--6--6--6---6-6--6--6-5-5-5-|
--7----5---5-7--5--7-5-7-5-|--5--5--5---5-5--5--5-5-5-5-|
--5----5---5-5--5--5-5-5-5-|--7--7--7---7-7--7--7-5-5-5-|
-------3---3----3----3---3-|----------------------3-3-3-|
---------------------------|----------------------------|


  Q    E.  S E  E  S S S S    E  E  E.  S E  S S E  E   
--0----3---3-0--3--0-3-0-3-|--5--5--5---5-5---------0--|
--8----5---5-8--5--8-5-8-5-|--6--6--6---6-6------6--8--|
--7----5---5-7--5--7-5-7-5-|--5--5--5---5-5------5--5--|
--5----5---5-5--5--5-5-5-5-|--7--7--7---7-7--5-7----7--|
-------3---3----3----3---3-|---------------------------|
---------------------------|---------------------------|


  Q     E.   S E   E  S  S S  S    E  E  E.  S E  E  S S S S  
--0-----0----0-0---0--0--0-0--0-|--5--5--5---5-5--5--5-3-3-3-|
--8-----8----8-8---8--8--8-8--8-|--6--6--6---6-6--6--6-5-5-5-|
--7-----0----0-7---0--7--0-7--0-|--5--5--5---5-5--5--5-5-5-5-|
--5----10---10-5--10--5-10-5-10-|--7--7--7---7-7--7--7-5-5-5-|
--------------------------------|----------------------3-3-3-|
--------------------------------|----------------------------|


  Q    E.  S E  E  S S S S    E  E  E.  S E  E  S S S S  
--0----3---3-0--3--0-3-0-3-|--5--5--5---5-5--5--5-5-5-5-|
--8----5---5-8--5--8-5-8-5-|--6--6--6---6-6--6--6-6-6-6-|
--7----5---5-7--5--7-5-7-5-|--5--5--5---5-5--5--5-5-5-5-|
--5----5---5-5--5--5-5-5-5-|--7--7--7---7-7--7--7-7-7-7-|
-------3---3----3----3---3-|----------------------------|
---------------------------|----------------------------|


  Q    E.  S E  E  S S S S    E  E  E.  S E  E  S S S S  
--0----3---3-0--3--0-3-0-3-|--5--5--5---5-5--5--5-5-5-5-|
--8----5---5-8--5--8-5-8-5-|--6--6--6---6-6--6--6-6-6-6-|
--7----5---5-7--5--7-5-7-5-|--5--5--5---5-5--5--5-5-5-5-|
--5----5---5-5--5--5-5-5-5-|--7--7--7---7-7--7--7-7-7-7-|
-------3---3----3----3---3-|----------------------------|
---------------------------|----------------------------|


  Q    E.  S E  E  S S S S    E  E  E.  S E  E  S S S S  
--0----3---3-0--3--0-3-0-3-|--5--5--5---5-5--5--5-5-5-5-|
--8----5---5-8--5--8-5-8-5-|--6--6--6---6-6--6--6-6-6-6-|
--7----5---5-7--5--7-5-7-5-|--5--5--5---5-5--5--5-5-5-5-|
--5----5---5-5--5--5-5-5-5-|--7--7--7---7-7--7--7-7-7-7-|
-------3---3----3----3---3-|----------------------------|
---------------------------|----------------------------|


  Q    E.  S E  E  S S S S    E  E  E.  S E  E  S S S S  
--0----3---3-0--3--0-3-0-3-|--5--5--5---5-5--5--5-5-5-5-|
--8----5---5-8--5--8-5-8-5-|--6--6--6---6-6--6--6-6-6-6-|
--7----5---5-7--5--7-5-7-5-|--5--5--5---5-5--5--5-5-5-5-|
--5----5---5-5--5--5-5-5-5-|--7--7--7---7-7--7--7-7-7-7-|
-------3---3----3----3---3-|----------------------------|
---------------------------|----------------------------|


  H        E  E  S S E     H        E  S S E  E     Q    E.  S E  E  S S S S  
--5--------L------------|--1--------L------1--1--|--0----3---3-0--3--0-3-0-3-|
--7--------L---------1--|--1--------L------1--1--|--8----5---5-8--5--8-5-8-5-|
--7--------L-------2-0--|--2--------L--0-2-------|--7----5---5-7--5--7-5-7-5-|
--7--------L-----5------|------------------------|--5----5---5-5--5--5-5-5-5-|
--5--------L--5---------|------------------------|-------3---3----3----3---3-|
------------------------|------------------------|---------------------------|


  E  E  E.  S E  E  S S S S    Q    E.  S E  E  S S S S  
--5--5--5---5-5--5--5-5-5-5-|--0----3---3-0--3--0-3-0-3-|
--6--6--6---6-6--6--6-6-6-6-|--8----5---5-8--5--8-5-8-5-|
--5--5--5---5-5--5--5-5-5-5-|--7----5---5-7--5--7-5-7-5-|
--7--7--7---7-7--7--7-7-7-7-|--5----5---5-5--5--5-5-5-5-|
----------------------------|-------3---3----3----3---3-|
----------------------------|---------------------------|


  E  E  E.  S E  E  S S S S    Q    E.  S E  E  S S S S  
--5--5--5---5-5--5--5-5-5-5-|--0----3---3-0--3--0-3-0-3-|
--6--6--6---6-6--6--6-6-6-6-|--8----5---5-8--5--8-5-8-5-|
--5--5--5---5-5--5--5-5-5-5-|--7----5---5-7--5--7-5-7-5-|
--7--7--7---7-7--7--7-7-7-7-|--5----5---5-5--5--5-5-5-5-|
----------------------------|-------3---3----3----3---3-|
----------------------------|---------------------------|


  E  E  E.  S E  S S E  E     Q    E.  S E  E  S S S S  
--5--5--5---5-5---------5--|--0----3---3-0--3--0-3-0-3-|
--6--6--6---6-6---------6--|--8----5---5-8--5--8-5-8-5-|
--5--5--5---5-5---------5--|--7----5---5-7--5--7-5-7-5-|
--7--7--7---7-7--5-7-5--7--|--5----5---5-5--5--5-5-5-5-|
---------------------------|-------3---3----3----3---3-|
---------------------------|---------------------------|


  E  E  E.  S E  E  S S S S    Q    E.  S E  E  S S S S  
--5--5--5---5-5--5--5-5-5-5-|--0----3---3-0--3--0-3-0-3-|
--6--6--6---6-6--6--6-6-6-6-|--8----5---5-8--5--8-5-8-5-|
--5--5--5---5-5--5--5-5-5-5-|--7----5---5-7--5--7-5-7-5-|
--7--7--7---7-7--7--7-7-7-7-|--5----5---5-5--5--5-5-5-5-|
----------------------------|-------3---3----3----3---3-|
----------------------------|---------------------------|


  E  E  E.  S E  E  S S S S    Q    E.  S E  E  S S S S  
--5--5--5---5-5--5--5-5-5-5-|--0----3---3-0--3--0-3-0-3-|
--6--6--6---6-6--6--6-6-6-6-|--8----5---5-8--5--8-5-8-5-|
--5--5--5---5-5--5--5-5-5-5-|--7----5---5-7--5--7-5-7-5-|
--7--7--7---7-7--7--7-7-7-7-|--5----5---5-5--5--5-5-5-5-|
----------------------------|-------3---3----3----3---3-|
----------------------------|---------------------------|


  E  E  E.  S E  E  S S S S    Q    E.  S E  E  S S S S  
--5--5--5---5-5--5--5-5-5-5-|--0----3---3-0--3--0-3-0-3-|
--6--6--6---6-6--6--6-6-6-6-|--8----5---5-8--5--8-5-8-5-|
--5--5--5---5-5--5--5-5-5-5-|--7----5---5-7--5--7-5-7-5-|
--7--7--7---7-7--7--7-7-7-7-|--5----5---5-5--5--5-5-5-5-|
----------------------------|-------3---3----3----3---3-|
----------------------------|---------------------------|


  E  E  E.  S E  E  S S S S    Q    E.  S E  E  S S S S  
--5--5--5---5-5--5--5-5-5-5-|--0----3---3-0--3--0-3-0-3-|
--6--6--6---6-6--6--6-6-6-6-|--8----5---5-8--5--8-5-8-5-|
--5--5--5---5-5--5--5-5-5-5-|--7----5---5-7--5--7-5-7-5-|
--7--7--7---7-7--7--7-7-7-7-|--5----5---5-5--5--5-5-5-5-|
----------------------------|-------3---3----3----3---3-|
----------------------------|---------------------------|


  E  E  E.  S E  E  S S S S    Q    E.  S E  E  S S S S  
--5--5--5---5-5--5--5-5-5-5-|--0----3---3-0--3--0-3-0-3-|
--6--6--6---6-6--6--6-6-6-6-|--8----5---5-8--5--8-5-8-5-|
--5--5--5---5-5--5--5-5-5-5-|--7----5---5-7--5--7-5-7-5-|
--7--7--7---7-7--7--7-7-7-7-|--5----5---5-5--5--5-5-5-5-|
----------------------------|-------3---3----3----3---3-|
----------------------------|---------------------------|


  E  E  E.  S E  E  S S S S    H        E  E  S S E     H        E  E  E  E   
--5--5--5---5-5--5--5-5-5-5-|--5--------L------------|--5--------L--------1--|
--6--6--6---6-6--6--6-6-6-6-|--7--------L---------1--|--6--------L-----------|
--5--5--5---5-5--5--5-5-5-5-|--7--------L-------2----|--5--------L--0--5-----|
--7--7--7---7-7--7--7-7-7-7-|--7--------L-----5------|--7--------L-----------|
----------------------------|--5--------L--5---------|-----------------------|
----------------------------|------------------------|-----------L-----------|


  Q     E.   S E   E  S  S S  S    E  E  E.  S E  E  S S S S  
--0-----0----0-0---0--0--0-0--0-|--5--5--5---5-5--5--5-5-5-5-|
--8-----8----8-8---8--8--8-8--8-|--6--6--6---6-6--6--6-6-6-6-|
--7-----0----0-7---0--7--0-7--0-|--5--5--5---5-5--5--5-5-5-5-|
--5----10---10-5--10--5-10-5-10-|--7--7--7---7-7--7--7-7-7-7-|
--------------------------------|----------------------------|
--------------------------------|----------------------------|


  Q    E.  S E  E  S S S S    E  E  E.  S E  E  S S S S  
--0----3---3-0--3--0-3-0-3-|--5--5--5---5-5--5--5-5-5-5-|
--8----5---5-8--5--8-5-8-5-|--6--6--6---6-6--6--6-6-6-6-|
--7----5---5-7--5--7-5-7-5-|--5--5--5---5-5--5--5-5-5-5-|
--5----5---5-5--5--5-5-5-5-|--7--7--7---7-7--7--7-7-7-7-|
-------3---3----3----3---3-|----------------------------|
---------------------------|----------------------------|


  Q    E.  S E  E  S S S S    E  E  E.  S E  S S E  E   
--0----3---3-0--3--0-3-0-3-|--5--5--5---5-5---------5--|
--8----5---5-8--5--8-5-8-5-|--6--6--6---6-6---------6--|
--7----5---5-7--5--7-5-7-5-|--5--5--5---5-5---------5--|
--5----5---5-5--5--5-5-5-5-|--7--7--7---7-7--5-7-5--7--|
-------3---3----3----3---3-|---------------------------|
---------------------------|---------------------------|


  Q    E.  S E  E  S S S S    E  E  E.  S E  E  S S S S  
--0----3---3-0--3--0-3-0-3-|--5--5--5---5-5--5--5-5-5-5-|
--8----5---5-8--5--8-5-8-5-|--6--6--6---6-6--6--6-6-6-6-|
--7----5---5-7--5--7-5-7-5-|--5--5--5---5-5--5--5-5-5-5-|
--5----5---5-5--5--5-5-5-5-|--7--7--7---7-7--7--7-7-7-7-|
-------3---3----3----3---3-|----------------------------|
---------------------------|----------------------------|


  Q    E.  S E  E  S S S S    E  E  E.  S E  E  S S S S  
--0----3---3-0--3--0-3-0-3-|--5--5--5---5-5--5--5-5-5-5-|
--8----5---5-8--5--8-5-8-5-|--6--6--6---6-6--6--6-6-6-6-|
--7----5---5-7--5--7-5-7-5-|--5--5--5---5-5--5--5-5-5-5-|
--5----5---5-5--5--5-5-5-5-|--7--7--7---7-7--7--7-7-7-7-|
-------3---3----3----3---3-|----------------------------|
---------------------------|----------------------------|


  Q    E.  S E  E  S S S S    E  E  E.  S E  E  S S S S  
--0----3---3-0--3--0-3-0-3-|--5--5--5---5-5--5--5-5-5-5-|
--8----5---5-8--5--8-5-8-5-|--6--6--6---6-6--6--6-6-6-6-|
--7----5---5-7--5--7-5-7-5-|--5--5--5---5-5--5--5-5-5-5-|
--5----5---5-5--5--5-5-5-5-|--7--7--7---7-7--7--7-7-7-7-|
-------3---3----3----3---3-|----------------------------|
---------------------------|----------------------------|


  Q    E.  S E  E  S S S S    E  E  E.  S E  E  S S S S  
--0----3---3-0--3--0-3-0-3-|--5--5--5---5-5--5--5-5-5-5-|
--8----5---5-8--5--8-5-8-5-|--6--6--6---6-6--6--6-6-6-6-|
--7----5---5-7--5--7-5-7-5-|--5--5--5---5-5--5--5-5-5-5-|
--5----5---5-5--5--5-5-5-5-|--7--7--7---7-7--7--7-7-7-7-|
-------3---3----3----3---3-|----------------------------|
---------------------------|----------------------------|


  Q    E.  S E  E  S S S S    E  E  E.  S E  E  S S S S  
--0----3---3-0--3--0-3-0-3-|--5--5--5---5-5--5--5-5-5-5-|
--8----5---5-8--5--8-5-8-5-|--6--6--6---6-6--6--6-6-6-6-|
--7----5---5-7--5--7-5-7-5-|--5--5--5---5-5--5--5-5-5-5-|
--5----5---5-5--5--5-5-5-5-|--7--7--7---7-7--7--7-7-7-7-|
-------3---3----3----3---3-|----------------------------|
---------------------------|----------------------------|


  Q    E.  S E  E  S S S S    E  E  E.  S E  E  S S S S  
--0----3---3-0--3--0-3-0-3-|--5--5--5---5-5--5--5-5-5-5-|
--8----5---5-8--5--8-5-8-5-|--6--6--6---6-6--6--6-6-6-6-|
--7----5---5-7--5--7-5-7-5-|--5--5--5---5-5--5--5-5-5-5-|
--5----5---5-5--5--5-5-5-5-|--7--7--7---7-7--7--7-7-7-7-|
-------3---3----3----3---3-|----------------------------|
---------------------------|----------------------------|


  Q    E.  S E  E  S S S S    E  E  E.  S E  E  S S S S  
--0----3---3-0--3--0-3-0-3-|--5--5--5---5-5--5--5-5-5-5-|
--8----5---5-8--5--8-5-8-5-|--6--6--6---6-6--6--6-6-6-6-|
--7----5---5-7--5--7-5-7-5-|--5--5--5---5-5--5--5-5-5-5-|
--5----5---5-5--5--5-5-5-5-|--7--7--7---7-7--7--7-7-7-7-|
-------3---3----3----3---3-|----------------------------|
---------------------------|----------------------------|


  Q    E.  S E  E  S S S S    E  E  E.  S E  E  S S S S  
--0----3---3-0--3--0-3-0-3-|--5--5--5---5-5--5--5-5-5-5-|
--8----5---5-8--5--8-5-8-5-|--6--6--6---6-6--6--6-6-6-6-|
--7----5---5-7--5--7-5-7-5-|--5--5--5---5-5--5--5-5-5-5-|
--5----5---5-5--5--5-5-5-5-|--7--7--7---7-7--7--7-7-7-7-|
-------3---3----3----3---3-|----------------------------|
---------------------------|----------------------------|


  Q    E.  S E  E  S S S S    E  E  E.  S E  E  S S S S  
--0----3---3-0--3--0-3-0-3-|--5--5--5---5-5--5--5-5-5-5-|
--8----5---5-8--5--8-5-8-5-|--6--6--6---6-6--6--6-6-6-6-|
--7----5---5-7--5--7-5-7-5-|--5--5--5---5-5--5--5-5-5-5-|
--5----5---5-5--5--5-5-5-5-|--7--7--7---7-7--7--7-7-7-7-|
-------3---3----3----3---3-|----------------------------|
---------------------------|----------------------------|


  Q    E.  S E  E  S S S S    E  E  E.  S E  E  S S S S  
--0----3---3-0--3--0-3-0-3-|--5--5--5---5-5--5--5-5-5-5-|
--8----5---5-8--5--8-5-8-5-|--6--6--6---6-6--6--6-6-6-6-|
--7----5---5-7--5--7-5-7-5-|--5--5--5---5-5--5--5-5-5-5-|
--5----5---5-5--5--5-5-5-5-|--7--7--7---7-7--7--7-7-7-7-|
-------3---3----3----3---3-|----------------------------|
---------------------------|----------------------------|


  H        E  E  S S E     H        E  E  E  E   
--5--------L------------|--5--------L--------1--|
--7--------L---------1--|--6--------L-----------|
--7--------L-------2----|--5--------L--0--5-----|
--7--------L-----5------|--7--------L-----------|
--5--------L--5---------|-----------------------|
------------------------|-----------L-----------|


  Q     E.   S E   E  S  S S  S    E  E  E.  S E  E  S S S S  
--0-----0----0-0---0--0--0-0--0-|--5--5--5---5-5--5--5-5-5-5-|
--8-----8----8-8---8--8--8-8--8-|--6--6--6---6-6--6--6-6-6-6-|
--7-----0----0-7---0--7--0-7--0-|--5--5--5---5-5--5--5-5-5-5-|
--5----10---10-5--10--5-10-5-10-|--7--7--7---7-7--7--7-7-7-7-|
--------------------------------|----------------------------|
--------------------------------|----------------------------|


  W                   W                    W                 
-------------------|-------------------|--------------------|
--6----------------|--8----------------|--10----------------|
--7----------------|--9----------------|--10----------------|
--7----------------|--9----------------|--10----------------|
-------------------|-------------------|--------------------|
-------------------|-------------------|--------------------|


   S  S  S  S  S  S  S  S  S  S  S  S  S  S  S  S  
--------------------------------------------------|
--------------------------------------------------|
--12-12-12-12-12-12-12-12-12-12-12-12-12-12-12-12-|
--12-12-12-12-12-12-12-12-12-12-12-12-12-12-12-12-|
--12-12-12-12-12-12-12-12-12-12-12-12-12-12-12-12-|
--------------------------------------------------|


   E   E   E   E   E   E   E   E      Q     E.   S  E   E   S  S  S  S  
----------------------------------|---0----------0--0-------0-----0----|
--10--10--10--10--10--10--10--10--|---8-----8----8--8---8---8--8--8--8-|
--10--10--10--10--10--10--10--10--|---7-----9---10--7---9---7--9--7--9-|
--10--10--10--10--10--10--10--10--|--------10---10-----10-----10----10-|
--10--10--10--10--10--10--10--10--|--10----10---10-10--10--10-10-10-10-|
----------------------------------|------------------------------------|


  E  E  E.  S E  E  S S S S    Q    E.   S E   E  S  S S  S  
--5--5--5---5-5--5--5-5-5-5-|--0----3----0-0------0----0----|
--6--6--6---6-6--6--6-6-6-6-|--8----5----8-8---8--8--8-8--8-|
--5--5--5---5-5--5--5-5-5-5-|--7----5---10-7---9--7--9-7--9-|
--7--7--7---7-7--7--7-7-7-7-|--5----5---10-5--10--5-10-5-10-|
----------------------------|-------3---10----10----10---10-|
----------------------------|-------------------------------|


  E  E  E.  S E  E  S S S S    Q    E.   S E   E  S  S S  S  
--5--5--5---5-5--5--5-5-5-5-|--0----3----0-0------0----0----|
--6--6--6---6-6--6--6-6-6-6-|--8----5----8-8---8--8--8-8--8-|
--5--5--5---5-5--5--5-5-5-5-|--7----5---10-7---9--7--9-7--9-|
--7--7--7---7-7--7--7-7-7-7-|--5----5---10-5--10--5-10-5-10-|
----------------------------|-------3---10----10----10---10-|
----------------------------|-------------------------------|


  E  E  E.  S E  E  S S S S    H        E  E  S S E     H        E  S S E  E   
--5--5--5---5-5--5--5-5-5-5-|--5--------L------------|--5--------L---------5--|
--6--6--6---6-6--6--6-6-6-6-|--7--------L---------1--|--6--------L---------6--|
--5--5--5---5-5--5--5-5-5-5-|--7--------L-------2-0--|--5--------L--0---5-----|
--7--7--7---7-7--7--7-7-7-7-|--7--------L-----5------|--7--------L----7-------|
----------------------------|--5--------L--5---------|------------------------|
----------------------------|------------------------|-----------L------------|


  Q    E.   S E   E  S  S S  S    E  E  E.  S E  E  S S S S  
--0----3----0-0------0----0----|--5--5--5---5-5--5--5-5-5-5-|
--8----5----8-8---8--8--8-8--8-|--6--6--6---6-6--6--6-6-6-6-|
--7----5---10-7---9--7--9-7--9-|--5--5--5---5-5--5--5-5-5-5-|
--5----5---10-5--10--5-10-5-10-|--7--7--7---7-7--7--7-7-7-7-|
-------3---10----10----10---10-|----------------------------|
-------------------------------|----------------------------|


  Q    E.   S E   E  S  S S  S    E  E  E.  S E  E  S S S S  
--0----3----0-0------0----0----|--5--5--5---5-5--5--5-5-5-5-|
--8----5----8-8---8--8--8-8--8-|--6--6--6---6-6--6--6-6-6-6-|
--7----5---10-7---9--7--9-7--9-|--5--5--5---5-5--5--5-5-5-5-|
--5----5---10-5--10--5-10-5-10-|--7--7--7---7-7--7--7-7-7-7-|
-------3---10----10----10---10-|----------------------------|
-------------------------------|----------------------------|


  Q    E.  S E  E  S S S S    E  E  E.  S E  S S E  E   
--0----3---3-0--3--0-3-0-3-|--5--5--5---5-5---------5--|
--8----5---5-8--5--8-5-8-5-|--6--6--6---6-6---------6--|
--7----5---5-7--5--7-5-7-5-|--5--5--5---5-5---------5--|
--5----5---5-5--5--5-5-5-5-|--7--7--7---7-7--5-7-5--7--|
-------3---3----3----3---3-|---------------------------|
---------------------------|---------------------------|


  Q    E.  S E  E  S S S S    E  E  E.  S E  E  S S S S  
--0----3---3-0--3--0-3-0-3-|--5--5--5---5-5--5--5-5-5-5-|
--8----5---5-8--5--8-5-8-5-|--6--6--6---6-6--6--6-6-6-6-|
--7----5---5-7--5--7-5-7-5-|--5--5--5---5-5--5--5-5-5-5-|
--5----5---5-5--5--5-5-5-5-|--7--7--7---7-7--7--7-7-7-7-|
-------3---3----3----3---3-|----------------------------|
---------------------------|----------------------------|


  Q    E.  S E  E  S S S S    E  E  E.  S E  E  S S S S  
--0----3---3-0--3--0-3-0-3-|--5--5--5---5-5--5--5-5-5-5-|
--8----5---5-8--5--8-5-8-5-|--6--6--6---6-6--6--6-6-6-6-|
--7----5---5-7--5--7-5-7-5-|--5--5--5---5-5--5--5-5-5-5-|
--5----5---5-5--5--5-5-5-5-|--7--7--7---7-7--7--7-7-7-7-|
-------3---3----3----3---3-|----------------------------|
---------------------------|----------------------------|


  Q    E.  S E  E  S S S S    E  E  E.  S E  E  S S S S  
--0----3---3-0--3--0-3-0-3-|--5--5--5---5-5--5--5-5-5-5-|
--8----5---5-8--5--8-5-8-5-|--6--6--6---6-6--6--6-6-6-6-|
--7----5---5-7--5--7-5-7-5-|--5--5--5---5-5--5--5-5-5-5-|
--5----5---5-5--5--5-5-5-5-|--7--7--7---7-7--7--7-7-7-7-|
-------3---3----3----3---3-|----------------------------|
---------------------------|----------------------------|


  Q    E.  S E  E  S S S S    E  E  E.  S E  E  S S S S  
--0----3---3-0--3--0-3-0-3-|--5--5--5---5-5--5--5-5-5-5-|
--8----5---5-8--5--8-5-8-5-|--6--6--6---6-6--6--6-6-6-6-|
--7----5---5-7--5--7-5-7-5-|--5--5--5---5-5--5--5-5-5-5-|
--5----5---5-5--5--5-5-5-5-|--7--7--7---7-7--7--7-7-7-7-|
-------3---3----3----3---3-|----------------------------|
---------------------------|----------------------------|


  Q    E.  S E  E  S S S S    E  E  E.  S E  E  S S S S  
--0----3---3-0--3--0-3-0-3-|--5--5--5---5-5--5--5-5-5-5-|
--8----5---5-8--5--8-5-8-5-|--6--6--6---6-6--6--6-6-6-6-|
--7----5---5-7--5--7-5-7-5-|--5--5--5---5-5--5--5-5-5-5-|
--5----5---5-5--5--5-5-5-5-|--7--7--7---7-7--7--7-7-7-7-|
-------3---3----3----3---3-|----------------------------|
---------------------------|----------------------------|


  Q    E.  S E  E  S S S S    E  E  E.  S E  E  S S S S  
--0----3---3-0--3--0-3-0-3-|--5--5--5---5-5--5--5-5-5-5-|
--8----5---5-8--5--8-5-8-5-|--6--6--6---6-6--6--6-6-6-6-|
--7----5---5-7--5--7-5-7-5-|--5--5--5---5-5--5--5-5-5-5-|
--5----5---5-5--5--5-5-5-5-|--7--7--7---7-7--7--7-7-7-7-|
-------3---3----3----3---3-|----------------------------|
---------------------------|----------------------------|


  H        E  E  S S E     H        E  E  E  E   
--5--------L------------|--5--------L--------1--|
--7--------L---------1--|--6--------L-----------|
--7--------L-------2----|--5--------L--0--5-----|
--7--------L-----5------|--7--------L-----------|
--5--------L--5---------|-----------------------|
------------------------|-----------L-----------|


  Q     E.   S E   E  S  S S  S    E  E  E.  S E  E  S S S S  
--0-----0----0-0---0--0--0-0--0-|--5--5--5---5-5--5--5-5-5-5-|
--8-----8----8-8---8--8--8-8--8-|--6--6--6---6-6--6--6-6-6-6-|
--7-----0----0-7---0--7--0-7--0-|--5--5--5---5-5--5--5-5-5-5-|
--5----10---10-5--10--5-10-5-10-|--7--7--7---7-7--7--7-7-7-7-|
--------------------------------|----------------------------|
--------------------------------|----------------------------|


  Q    E.  S E  E  S S S S    E  E  E.  S E  E  S S S S  
--0----3---3-0--3--0-3-0-3-|--5--5--5---5-5--5--5-5-5-5-|
--8----5---5-8--5--8-5-8-5-|--6--6--6---6-6--6--6-6-6-6-|
--7----5---5-7--5--7-5-7-5-|--5--5--5---5-5--5--5-5-5-5-|
--5----5---5-5--5--5-5-5-5-|--7--7--7---7-7--7--7-7-7-7-|
-------3---3----3----3---3-|----------------------------|
---------------------------|----------------------------|


  Q    E.  S E  E  S S S S    E  E  E.  S E  E  S S S S  
--0----3---3-0--3--0-3-0-3-|--5--5--5---5-5--5--5-5-5-5-|
--8----5---5-8--5--8-5-8-5-|--6--6--6---6-6--6--6-6-6-6-|
--7----5---5-7--5--7-5-7-5-|--5--5--5---5-5--5--5-5-5-5-|
--5----5---5-5--5--5-5-5-5-|--7--7--7---7-7--7--7-7-7-7-|
-------3---3----3----3---3-|----------------------------|
---------------------------|----------------------------|


  Q    E.  S E  E  S S S S    E  E  E.  S E  E  S S S S  
--0----3---3-0--3--0-3-0-3-|--5--5--5---5-5--5--5-5-5-5-|
--8----5---5-8--5--8-5-8-5-|--6--6--6---6-6--6--6-6-6-6-|
--7----5---5-7--5--7-5-7-5-|--5--5--5---5-5--5--5-5-5-5-|
--5----5---5-5--5--5-5-5-5-|--7--7--7---7-7--7--7-7-7-7-|
-------3---3----3----3---3-|----------------------------|
---------------------------|----------------------------|


  Q    E.  S E  E  S S S S    E  E  E.  S E  E  S S S S  
--0----3---3-0--3--0-3-0-3-|--5--5--5---5-5--5--5-5-5-5-|
--8----5---5-8--5--8-5-8-5-|--6--6--6---6-6--6--6-6-6-6-|
--7----5---5-7--5--7-5-7-5-|--5--5--5---5-5--5--5-5-5-5-|
--5----5---5-5--5--5-5-5-5-|--7--7--7---7-7--7--7-7-7-7-|
-------3---3----3----3---3-|----------------------------|
---------------------------|----------------------------|


  Q.     E  S S E  Q       Q.     E  E  E  E  E     Q    E.  S E  E  S S S S  
--5-------------0-------|--1------1--------1--1--|--0----3---3-0--3--0-3-0-3-|
--7----------------1----|--1------1--1--1--1--1--|--8----5---5-8--5--8-5-8-5-|
--7-----------2---------|--2------2--------------|--7----5---5-7--5--7-5-7-5-|
--7---------5-----------|------------------------|--5----5---5-5--5--5-5-5-5-|
--5------5--------------|------------------------|-------3---3----3----3---3-|
------------------------|------------------------|---------------------------|


  E  E  E.  S E  E  S S S S    Q    E.  S E  E  S S S S  
--5--5--5---5-5--5--5-5-5-5-|--0----3---3-0--3--0-3-0-3-|
--6--6--6---6-6--6--6-6-6-6-|--8----5---5-8--5--8-5-8-5-|
--5--5--5---5-5--5--5-5-5-5-|--7----5---5-7--5--7-5-7-5-|
--7--7--7---7-7--7--7-7-7-7-|--5----5---5-5--5--5-5-5-5-|
----------------------------|-------3---3----3----3---3-|
----------------------------|---------------------------|


  E  E  E.  S E  E  S S S S    Q    E.  S E  E  S S S S  
--5--5--5---5-5--5--5-5-5-5-|--0----3---3-0--3--0-3-0-3-|
--6--6--6---6-6--6--6-6-6-6-|--8----5---5-8--5--8-5-8-5-|
--5--5--5---5-5--5--5-5-5-5-|--7----5---5-7--5--7-5-7-5-|
--7--7--7---7-7--7--7-7-7-7-|--5----5---5-5--5--5-5-5-5-|
----------------------------|-------3---3----3----3---3-|
----------------------------|---------------------------|


  E  E  E.  S E  E  S S S S    Q    E.  S E  E  S S S S  
--5--5--5---5-5--5--5-5-5-5-|--0----3---3-0--3--0-3-0-3-|
--6--6--6---6-6--6--6-6-6-6-|--8----5---5-8--5--8-5-8-5-|
--5--5--5---5-5--5--5-5-5-5-|--7----5---5-7--5--7-5-7-5-|
--7--7--7---7-7--7--7-7-7-7-|--5----5---5-5--5--5-5-5-5-|
----------------------------|-------3---3----3----3---3-|
----------------------------|---------------------------|


  E  E  E.  S E  E  S S S S    Q    E.  S E  E  S S S S  
--5--5--5---5-5--5--5-5-5-5-|--0----3---3-0--3--0-3-0-3-|
--6--6--6---6-6--6--6-6-6-6-|--8----5---5-8--5--8-5-8-5-|
--5--5--5---5-5--5--5-5-5-5-|--7----5---5-7--5--7-5-7-5-|
--7--7--7---7-7--7--7-7-7-7-|--5----5---5-5--5--5-5-5-5-|
----------------------------|-------3---3----3----3---3-|
----------------------------|---------------------------|


  E  E  E.  S E  E  S S S S    Q    E.  S E  E  S S S S  
--5--5--5---5-5--5--5-5-5-5-|--0----3---3-0--3--0-3-0-3-|
--6--6--6---6-6--6--6-6-6-6-|--8----5---5-8--5--8-5-8-5-|
--5--5--5---5-5--5--5-5-5-5-|--7----5---5-7--5--7-5-7-5-|
--7--7--7---7-7--7--7-7-7-7-|--5----5---5-5--5--5-5-5-5-|
----------------------------|-------3---3----3----3---3-|
----------------------------|---------------------------|


  E  E  E.  S E  E  S S S S    Q    E.  S E  E  S S S S  
--5--5--5---5-5--5--5-5-5-5-|--0----3---3-0--3--0-3-0-3-|
--6--6--6---6-6--6--6-6-6-6-|--8----5---5-8--5--8-5-8-5-|
--5--5--5---5-5--5--5-5-5-5-|--7----5---5-7--5--7-5-7-5-|
--7--7--7---7-7--7--7-7-7-7-|--5----5---5-5--5--5-5-5-5-|
----------------------------|-------3---3----3----3---3-|
----------------------------|---------------------------|


  E  E  E.  S E  E  S S S S    Q    E.  S E  E  S S S S  
--5--5--5---5-5--5--5-5-5-5-|--0----3---3-0--3--0-3-0-3-|
--6--6--6---6-6--6--6-6-6-6-|--8----5---5-8--5--8-5-8-5-|
--5--5--5---5-5--5--5-5-5-5-|--7----5---5-7--5--7-5-7-5-|
--7--7--7---7-7--7--7-7-7-7-|--5----5---5-5--5--5-5-5-5-|
----------------------------|-------3---3----3----3---3-|
----------------------------|---------------------------|


  E  E  E.  S E  E  S S S S    Q    E.  S E  E  S S S S  
--5--5--5---5-5--5--5-5-5-5-|--0----3---3-0--3--0-3-0-3-|
--6--6--6---6-6--6--6-6-6-6-|--8----5---5-8--5--8-5-8-5-|
--5--5--5---5-5--5--5-5-5-5-|--7----5---5-7--5--7-5-7-5-|
--7--7--7---7-7--7--7-7-7-7-|--5----5---5-5--5--5-5-5-5-|
----------------------------|-------3---3----3----3---3-|
----------------------------|---------------------------|


  E  E  E.  S E  E  S S S S    Q    E.  S E  E  S S S S  
--5--5--5---5-5--5--5-5-5-5-|--0----3---3-0--3--0-3-0-3-|
--6--6--6---6-6--6--6-6-6-6-|--8----5---5-8--5--8-5-8-5-|
--5--5--5---5-5--5--5-5-5-5-|--7----5---5-7--5--7-5-7-5-|
--7--7--7---7-7--7--7-7-7-7-|--5----5---5-5--5--5-5-5-5-|
----------------------------|-------3---3----3----3---3-|
----------------------------|---------------------------|


  E  E  E.  S E  E  S S S S    Q    E.  S E  E  S S S S  
--5--5--5---5-5--5--5-5-5-5-|--0----3---3-0--3--0-3-0-3-|
--6--6--6---6-6--6--6-6-6-6-|--8----5---5-8--5--8-5-8-5-|
--5--5--5---5-5--5--5-5-5-5-|--7----5---5-7--5--7-5-7-5-|
--7--7--7---7-7--7--7-7-7-7-|--5----5---5-5--5--5-5-5-5-|
----------------------------|-------3---3----3----3---3-|
----------------------------|---------------------------|


  E  E  E.  S E  E  S S S S    Q    E.  S E  E  S S S S  
--5--5--5---5-5--5--5-5-5-5-|--0----3---3-0--3--0-3-0-3-|
--6--6--6---6-6--6--6-6-6-6-|--8----5---5-8--5--8-5-8-5-|
--5--5--5---5-5--5--5-5-5-5-|--7----5---5-7--5--7-5-7-5-|
--7--7--7---7-7--7--7-7-7-7-|--5----5---5-5--5--5-5-5-5-|
----------------------------|-------3---3----3----3---3-|
----------------------------|---------------------------|


  E  E  E.  S E  E  S S S S    Q    E.  S E  E  S S S S  
--5--5--5---5-5--5--5-5-5-5-|--0----3---3-0--3--0-3-0-3-|
--6--6--6---6-6--6--6-6-6-6-|--8----5---5-8--5--8-5-8-5-|
--5--5--5---5-5--5--5-5-5-5-|--7----5---5-7--5--7-5-7-5-|
--7--7--7---7-7--7--7-7-7-7-|--5----5---5-5--5--5-5-5-5-|
----------------------------|-------3---3----3----3---3-|
----------------------------|---------------------------|


  E  E  E.  S E  E  S S S S    Q    E.  S E  E  S S S S  
--5--5--5---5-5--5--5-5-5-5-|--0----3---3-0--3--0-3-0-3-|
--6--6--6---6-6--6--6-6-6-6-|--8----5---5-8--5--8-5-8-5-|
--5--5--5---5-5--5--5-5-5-5-|--7----5---5-7--5--7-5-7-5-|
--7--7--7---7-7--7--7-7-7-7-|--5----5---5-5--5--5-5-5-5-|
----------------------------|-------3---3----3----3---3-|
----------------------------|---------------------------|


  E  E  E.  S E  E  S S S S    Q    E.  S E  E  S S S S    W                  
--5--5--5---5-5--5--5-5-5-5-|--0----3---3-0--3--0-3-0-3-|-------------------||
--6--6--6---6-6--6--6-6-6-6-|--8----5---5-8--5--8-5-8-5-|--1----------------||
--5--5--5---5-5--5--5-5-5-5-|--7----5---5-7--5--7-5-7-5-|--2----------------||
--7--7--7---7-7--7--7-7-7-7-|--5----5---5-5--5--5-5-5-5-|--3----------------||
----------------------------|-------3---3----3----3---3-|--3----------------||
----------------------------|---------------------------|--1----------------||










Lead



     W                   W                   W                 
E||-------------------|-------------------|-------------------|
B||-------------------|-------------------|-------------------|
G||-------------------|-------------------|-------------------|
D||-------------------|-------------------|-------------------|
A||-------------------|-------------------|-------------------|
E||-------------------|-------------------|-------------------|


  W                   W                   W                   W                 
-------------------|-------------------|-------------------|-------------------|
-------------------|-------------------|-------------------|-------------------|
-------------------|-------------------|-------------------|-------------------|
-------------------|-------------------|-------------------|-------------------|
-------------------|-------------------|-------------------|-------------------|
-------------------|-------------------|-------------------|-------------------|


  W                   W                   W                   W                 
-------------------|-------------------|-------------------|-------------------|
-------------------|-------------------|-------------------|-------------------|
-------------------|-------------------|-------------------|-------------------|
-------------------|-------------------|-------------------|-------------------|
-------------------|-------------------|-------------------|-------------------|
-------------------|-------------------|-------------------|-------------------|


  W                   W                   W                   W                 
-------------------|-------------------|-------------------|-------------------|
-------------------|-------------------|-------------------|-------------------|
-------------------|-------------------|-------------------|-------------------|
-------------------|-------------------|-------------------|-------------------|
-------------------|-------------------|-------------------|-------------------|
-------------------|-------------------|-------------------|-------------------|


  W                   W                   H           W                 
-------------------|-------------------|-----------|-------------------|
-------------------|-------------------|-----------|-------------------|
-------------------|-------------------|-----------|-------------------|
-------------------|-------------------|-----------|-------------------|
-------------------|-------------------|-----------|-------------------|
-------------------|-------------------|-----------|-------------------|


  W                   W                   W                   W                 
-------------------|-------------------|-------------------|-------------------|
-------------------|-------------------|-------------------|-------------------|
-------------------|-------------------|-------------------|-------------------|
-------------------|-------------------|-------------------|-------------------|
-------------------|-------------------|-------------------|-------------------|
-------------------|-------------------|-------------------|-------------------|


  W                   W                   W                   W                 
-------------------|-------------------|-------------------|-------------------|
-------------------|-------------------|-------------------|-------------------|
-------------------|-------------------|-------------------|-------------------|
-------------------|-------------------|-------------------|-------------------|
-------------------|-------------------|-------------------|-------------------|
-------------------|-------------------|-------------------|-------------------|


  W                   W                   W                   W                 
-------------------|-------------------|-------------------|-------------------|
-------------------|-------------------|-------------------|-------------------|
-------------------|-------------------|-------------------|-------------------|
-------------------|-------------------|-------------------|-------------------|
-------------------|-------------------|-------------------|-------------------|
-------------------|-------------------|-------------------|-------------------|


  W                   W                   W                   W                 
-------------------|-------------------|-------------------|-------------------|
-------------------|-------------------|-------------------|-------------------|
-------------------|-------------------|-------------------|-------------------|
-------------------|-------------------|-------------------|-------------------|
-------------------|-------------------|-------------------|-------------------|
-------------------|-------------------|-------------------|-------------------|


  W                   W                   W                   W                 
-------------------|-------------------|-------------------|-------------------|
-------------------|-------------------|-------------------|-------------------|
-------------------|-------------------|-------------------|-------------------|
-------------------|-------------------|-------------------|-------------------|
-------------------|-------------------|-------------------|-------------------|
-------------------|-------------------|-------------------|-------------------|


  W                   W                   W                 
-------------------|-------------------|-------------------|
-------------------|-------------------|-------------------|
-------------------|-------------------|-------------------|
-------------------|-------------------|-------------------|
-------------------|-------------------|-------------------|
-------------------|-------------------|-------------------|


   E   E   S  E   E   S  E   S  S  E      T  T  Q.     S  S  E   S  E   E   
------20-----20------18-18-----17-15--|--------13------L----13-----15--17--|
--------------------------------------|-------------------------11---------|
--21------21-----19---------17-17-15--|-----14-----------14------------17--|
--------------------------------------|--17--------------------------------|
--------------------------------------|------------------------------------|
--------------------------------------|------------------------------------|


   S  E   S  E   S  S  S  S  E   S  S  E      T  T  Q.      E   S  E  Q     
-----20-----20-----------18--------17-----|--------13----------13----------|
--17-----17-----17------------------------|--------------------------------|
-------------------19-19----19--17----15--|-----14---------14-----14-------|
------------------------------------------|--17----------------------------|
------------------------------------------|--------------------------------|
------------------------------------------|--------------------------------|


   S  H.           E.      T  T  H.           E.      S  H.           E.   
-----15------------L---|--------17------------L---|--17-15------------L---|
-----------------------|-----13-------------------|-----------------------|
--15-------------------|--15----------------------|--17-15------------L---|
-----------------------|--------------------------|-----------------------|
-----------------------|--------------------------|-----------------------|
-----------------------|--------------------------|-----------------------|


   E   Q.      S  E   Q    S     S  H.           S  E   
--15--17------17-18--17----L-|--17-15------------L-15--|
-----------------------------|-------------------------|
--15--17---------------------|--17-15------------L-15--|
-----------------------------|-------------------------|
-----------------------------|-------------------------|
-----------------------------|-------------------------|


   E   H.            S  S     W                    E   H.           E   
--15--17---------------17-|--15----------------|--15--17------------L--|
--------------------------|--------------------|-----------------------|
--15--17------------17-17-|--15----------------|--15--17------------L--|
--------------------------|--------------------|-----------------------|
--------------------------|--------------------|-----------------------|
--------------------------|--------------------|-----------------------|


  E  S E  S E  S E  S E  S S    E   S  S  S E   S  E  E   S E.   
-----8----8----8----8----8---|------8--8--8-----8--8------8-----|
-----8----8----8----8----8---|------8--8--8-----8-10-----10-----|
-----9----9----9----9----9---|-----10-10-10----10-10-----10-----|
-----------------------------|----------------------------------|
-----------------------------|----------------------------------|
-----------------------------|----------------------------------|


  E  S E  S E  S E  S E  S S    E   S E   S E   S E   S S  S S  S  
-----8----8----8----8----8---|------------------------------------|
-----8----8----8----8----8---|-----10----10----10----10---10---10-|
-----9----9----9----9----9---|-----10----10----10----10---10---10-|
-----------------------------|------------------------------------|
-----------------------------|------------------------------------|
-----------------------------|------------------------------------|


  E  S E  S E  S E  S E  S S    E   S E   S E   S E   S Q     
-----8----8----8----8----8---|-------------------------------|
-----8----8----8----8----8---|-----10----10----10----10------|
-----9----9----9----9----9---|-----10----10----10----10------|
-----------------------------|-------------------------------|
-----------------------------|-------------------------------|
-----------------------------|-------------------------------|


   W                    W                 
--------------------|---8----------------|
--10----------------|--10----------------|
--11----------------|--10----------------|
--12----------------|--------------------|
--------------------|--------------------|
--------------------|--------------------|


   E   S S  S  S S  E   S  E   S  E.      S  Q.     S  S  E   S  E   E   
------20------20-------18--------15---|-----13------L----13-----15--17--|
--------------------------------------|----------------------11---------|
--21-------21------19-----19--17------|--14-14------L-14------------17--|
--------------------------------------|---------------------------------|
--------------------------------------|---------------------------------|
--------------------------------------|---------------------------------|


   S  E   S  E   S  E   S  E   S  E.      T  T  H.           E.   
-----20-----18---------17--------15---|--------13------------L---|
--17----------------------------------|--------------------------|
---------19-----19-17-----17--15------|--12-14-------------------|
--------------------------------------|--------------------------|
--------------------------------------|--------------------------|
--------------------------------------|--------------------------|


   S  H.           E.      T  T  H.           E.      S  H.           E.   
-----15------------L---|--------17------------L---|--17-15------------L---|
--11-------------------|-----13-------------------|-----------------------|
-----------------------|--15----------------------|--17-15------------L---|
-----------------------|--------------------------|-----------------------|
-----------------------|--------------------------|-----------------------|
-----------------------|--------------------------|-----------------------|


   E   Q.      S  E   Q    S     S  H.           S  E   
--15--17------17-18--17----L-|--17-15------------L-15--|
-----------------------------|-------------------------|
--15--17---------------------|--17-15------------L-15--|
-----------------------------|-------------------------|
-----------------------------|-------------------------|
-----------------------------|-------------------------|


   E   H.            S  S     W                    E   H.           E   
--15--17---------------17-|--15----------------|--15--17------------L--|
--------------------------|--------------------|-----------------------|
--15--17------------17-17-|--15----------------|--15--17------------L--|
--------------------------|--------------------|-----------------------|
--------------------------|--------------------|-----------------------|
--------------------------|--------------------|-----------------------|


  W                   E  S S S  E   E   E.  S  E  S  
-------------------|-----3-5-8-10--12--10---8-10----|
-------------------|------------------------------8-|
-------------------|--------------------------------|
-------------------|--------------------------------|
-------------------|--------------------------------|
-------------------|--------------------------------|


  H        E  T T S S E   S    E   E  E  E  T T S S S S  S E   
----------------5-8-5-8--10-|--L--10--8-------5-8---5-8-10-8--|
--L-----------8-------------|---------------8-----------------|
----------------------------|---------------------------------|
----------------------------|---------------------------------|
----------------------------|---------------------------------|
----------------------------|---------------------------------|


  Q     Q    Q    T  T S  S S     S  S  E  Q.     T T S S  S S S  
--8----10--------------8----8-|--10-12-10--8--------5-8---10-----|
------------------8-10---10---|-------------------8------------8-|
------------------------------|----------------------------------|
------------------------------|----------------------------------|
------------------------------|----------------------------------|
------------------------------|----------------------------------|


  H        T T E  T T E  E     Q    E  S S S S S S S S E   
-------------5-8----5-8--5--|--3----5----3-5-8-5---5-8----|
--L--------8------8---------|-----------------------------|
----------------------------|-----------------------------|
----------------------------|-----------------------------|
----------------------------|-----------------------------|
----------------------------|-----------------------------|


  E  S E  S E  S E  S E  S S    E   S  S  S E   S  E  E   S E.   
-----8----8----8----8----8---|------8--8--8-----8--8------8-----|
-----8----8----8----8----8---|------8-10--8-----8-10-----10-----|
-----9----9----9----9----9---|-----10-10-10----10-10-----10-----|
-----------------------------|----------------------------------|
-----------------------------|----------------------------------|
-----------------------------|----------------------------------|


  E  S E  S E  S E  S E  S S    E   S E   S E   S E   S Q     
-----8----8----8----8----8---|-------------------------------|
-----8----8----8----8----8---|-----10----10----10----10------|
-----9----9----9----9----9---|-----10----10----10----10------|
-----------------------------|-------------------------------|
-----------------------------|-------------------------------|
-----------------------------|-------------------------------|


  E  S E  S E  S E  S E  S S    E   S E   S E   S E   S Q     
-----8----8----8----8----8---|-------------------------------|
-----8----8----8----8----8---|-----10----10----10----10------|
-----9----9----9----9----9---|-----10----10----10----10------|
-----------------------------|-------------------------------|
-----------------------------|-------------------------------|
-----------------------------|-------------------------------|


   W                    W                 
--------------------|---8----------------|
--10----------------|--10----------------|
--11----------------|--10----------------|
--12----------------|--------------------|
--------------------|--------------------|
--------------------|--------------------|


  Q    S  S  S  S S  S  S S  S  S  E      T  T  H.           E.   
---------------20------18------17-15--|--------13------------L---|
--------------------------------------|--------------------------|
---------19-21------19------17-17-15--|-----14-14------------L---|
--------------------------------------|--17----------------------|
--------------------------------------|--------------------------|
--------------------------------------|--------------------------|


  W                   W                   E  S S S  E   S  E   E  S  S E   
-------------------|-------------------|-----3-5-8-10--10-12--10--8-10----|
-------------------|-------------------|----------------------------------|
-------------------|-------------------|----------------------------------|
-------------------|-------------------|----------------------------------|
-------------------|-------------------|----------------------------------|
-------------------|-------------------|----------------------------------|


     |--3-|                                                          3     3  
  E  S  S S  S E   S  E   E  S  E   S     E   E  S  E   S  E   E  S  E  S. X  
----------8-10-8--10-12--10--8-10--10-|--12--10--8-10--10-12--10--8-10--8--L-|
-----8-10-----------------------------|--------------------------------------|
--------------------------------------|--------------------------------------|
--------------------------------------|--------------------------------------|
--------------------------------------|--------------------------------------|
--------------------------------------|--------------------------------------|


  3                             3       3                            3  
  T S. S E  S S S E  S E  S S S X    S. T  S E   S S  S E.   S S E.  X  
--L----8----8---8----8----8---8---|------------------------------8-----|
-------8----8---8----8----8---8---|-------10----10---10-----10---8-----|
-------9----9---9----9----9---9---|-------10----10---10-----10---9-----|
----------------------------------|------------------------------------|
----------------------------------|------------------------------------|
----------------------------------|------------------------------------|


     3                          3       3                            3  
  S. T S E  S S S E  S E  S S S X    S. T  S E   S S  S E.   S S E.  X  
-------8----8---8----8----8---8---|------------------------------8-----|
-------8----8---8----8----8---8---|-------10----10---10-----10---8-----|
-------9----9---9----9----9---9---|-------10----10---10-----10---9-----|
----------------------------------|------------------------------------|
----------------------------------|------------------------------------|
----------------------------------|------------------------------------|


     3                          3       3                            3  
  S. T S E  S S S E  S E  S S S X    S. T  S E   S S  S E.   S S E.  X  
-------8----8---8----8----8---8---|------------------------------8-----|
-------8----8---8----8----8---8---|-------10----10---10-----10---8-----|
-------9----9---9----9----9---9---|-------10----10---10-----10---9-----|
----------------------------------|------------------------------------|
----------------------------------|------------------------------------|
----------------------------------|------------------------------------|


                               3                  3  
  H.           E.  T X X    S. T  H.           E  X  
-------------------------|--------------------------|
-----------------------8-|--L--L-10------------L----|
-------------------------|-------10------------L--9-|
-------------------------|--------------------------|
-------------------------|--------------------------|
-------------------------|--------------------------|


     3                                3    3                                 3  
  S. T  E   S  E   E   S  E   S  E.   X    T  T  Q.     S  S  E   S  E   E   X  
-------20-----18------17--------15------|-------13------L----13-----15--17-----|
----------------------------------------|------------------------11---------17-|
--L--L-----19-----17-----17--16---------|----14-----------14------------17-----|
-------------------------------------17-|--L-----------------------------------|
----------------------------------------|--------------------------------------|
----------------------------------------|--------------------------------------|


  T X  E   S  E   S  E   S  E   S  S E   X  
------20-----20-----18-----17-----15-------|
--L-L-----17-------------------------------|
-----------------19-----17-----15-------12-|
-------------------------------------------|
-------------------------------------------|
-------------------------------------------|


  T X  S  Q.      S  E   S  E   E   X    T X  H.           E.   X  
---------13---------13-----15--17-----|------15------------L------|
------------------------11------------|---------------------------|
--L-L-14---------14--------15--17--15-|--L-L-------------------15-|
--------------------------------------|---------------------------|
--------------------------------------|---------------------------|
--------------------------------------|---------------------------|


  3                       3                              
  T  T  H.           E.   X    T X  H.           E.   X  
-------17------------L---17-|--L-L-15------------L---15-|
----13----------------------|---------------------------|
--L----------------------17-|--L-L-15------------L---15-|
----------------------------|---------------------------|
----------------------------|---------------------------|
----------------------------|---------------------------|


     3                         3                                
  S. T  Q.      S  E   Q    S  X    T X  H.           S  E   X  
--L--L-17------17-18--17----L-17-|--L-L-15------------L-15--15-|
---------------------------------|-----------------------------|
--L--L-17---------------------17-|--L-L-15------------L-15--15-|
---------------------------------|-----------------------------|
---------------------------------|-----------------------------|
---------------------------------|-----------------------------|


     3                      3                                   
  S. T  H.            S  S  X    H        E.  T. X  X E  S T X  
--L--L-17---------------17-15-|--L--------L---L--L-15----------|
------------------------------|--------------------------------|
--L--L-17------------17-17-15-|--L--------L---L--L-15----------|
------------------------------|--------------------------------|
------------------------------|--------------------------------|
------------------------------|--------------------------------|


     3                  3       3                         3  
  S. T  H.           E  X    S. T S E  S E  S E  S E  S S X  
--L--L-17------------L----|-------8----8----8----8----8-----|
--------------------------|-------8----8----8----8----8-----|
--L--L-17------------L----|-------9----9----9----9----9-----|
--------------------------|---------------------------------|
--------------------------|---------------------------------|
--------------------------|---------------------------------|


     3                              3       3                         3  
  S. T  S  S  S E   S  E  E   S E.  X    S. T S E  S E  S E  S E  S S X  
--------8--8--8-----8--8------8-------|-------8----8----8----8----8-----|
--------8-10--8-----8-10-----10-------|-------8----8----8----8----8-----|
-------10-10-10----10-10-----10-------|-------9----9----9----9----9-----|
--------------------------------------|---------------------------------|
--------------------------------------|---------------------------------|
--------------------------------------|---------------------------------|


     3                                3       3                         3  
  S. T  S E   S E   S E   S S  S S  S X    S. T S E  S E  S E  S E  S S X  
----------------------------------------|-------8----8----8----8----8-----|
-------10----10----10----10---10---10---|-------8----8----8----8----8-----|
-------10----10----10----10---10---10---|-------9----9----9----9----9-----|
----------------------------------------|---------------------------------|
----------------------------------------|---------------------------------|
----------------------------------------|---------------------------------|


     3                            3                                   
  S. T  S E   S E   S E   S Q     X    H        E.  T. X  X E  S T X  
------------------------------------|---------------------8----------|
-------10----10----10----10------10-|--L--------L---L--L-10----------|
-------10----10----10----10------11-|--L--------L---L--L-10----------|
---------------------------------12-|--L--------L---L--L-------------|
------------------------------------|--------------------------------|
------------------------------------|--------------------------------|


                                      3                                3  
  H        E.  T. X  X E  S T X    S. T  E   S  E   E   S  E   S  E.   X  
--L--------L---L--L-------------|-------20-----18------17--------15------|
--L--------L---L--L-------------|----------------------------------------|
--L--------L---L--L-21----------|--L--L-----19-----17-----17--15------12-|
--------------------------------|----------------------------------------|
--------------------------------|----------------------------------------|
--------------------------------|----------------------------------------|


  3                                 3  
  T  T  Q.     S  S  E   S  E   E   X  
-------13------L----13-----15--17-----|
------------------------11---------17-|
--L-14-----------14------------17-----|
--------------------------------------|
--------------------------------------|
--------------------------------------|


  T X  E   S  E   S  E   S  E   S  S E   X    T. X  S  H        E  X E  S T X  
------20-----20-----18-----17-----15-------|----------13--------L-------------|
--L-L-----17-------------------------------|----------------------------------|
-----------------19-----17-----15-------12-|--L--L-14-------------------------|
-------------------------------------------|----------------------------------|
-------------------------------------------|----------------------------------|
-------------------------------------------|----------------------------------|


                         3                            3  
  W                   S. T  S  S  Q    Q.      T  T S X  
-------------------|-------10-12-10-----------------8-8-|
-------------------|-----------------------------10-----|
-------------------|--------------------------12--------|
-------------------|------------------------------------|
-------------------|------------------------------------|
-------------------|------------------------------------|


            3                   3       3                            3  
  Q.     S. T E  S S S  S S  S  X    S. T  Q.      S S S  S S S  S S X  
--L------L--L------5-8-10---10-12-|--L--L------------8------8----------|
-----------------8----------------|---------------10-----10-----10-----|
----------------------------------|-------12---------------------------|
----------------------------------|------------------------------------|
----------------------------------|------------------------------------|
----------------------------------|------------------------------------|


                                       3                                3  
  H        T X S  S  S  S  S  E   X    T  T  E   E.   E   S  S S E.  E  X  
--------------------13-------13-----|-------13--12----------10-------8----|
---------------8-10-------10--------|----10-------------------------------|
-----------------------12--------12-|--L-------------12--10------8--------|
------------------------------------|-------------------------------------|
------------------------------------|-------------------------------------|
------------------------------------|-------------------------------------|


  H        E.  T. X  X E  S T X    H        E.  T. X  X E  S T X  
---------------------8----------|--L--------L---L--L-------------|
--------------------10----------|--L--------L---L--L-------------|
--------------------10----------|--L--------L---L--L-21----------|
--------------------------------|--------------------------------|
--------------------------------|--------------------------------|
--------------------------------|--------------------------------|


  X X  E   S  E   S  S  E   E   S  S  E   X X  
------20-----18-----17-----15-----13-13-------|
----------------------------------------------|
--L-L-----19-----17----17------14--------12---|
----------------------------------------------|
----------------------------------------------|
----------------------------------------------|


     3                           3       3                         3  
  S. T  Q.      S  E   S  E   E  X    S. T  H        E   S  E   S  X  
------------------13-----15--17----|-------15--------L-----15-----15-|
-------10------10-----11-----------|---------------------------------|
--L--L-----------------------17----|--------------------15-----15----|
-----------------------------------|---------------------------------|
-----------------------------------|---------------------------------|
-----------------------------------|---------------------------------|


     3                  3       3                    3  
  S. T  H.           E  X    S. T S E  S H        E  X  
--L--L-17------------L----|-------8----8---------------|
--------------------------|-------8----8---------------|
-------17------------L----|-------9----9---------------|
--------------------------|----------------------------|
--------------------------|----------------------------|
--------------------------|----------------------------|


  T X  S  S S  S  S S  S  S E   S S  S  S S X  
----------------------------------------------|
------10-10---10-10---10-10----10---10-10-----|
------10-10---10-10---10-10----10---10-10-----|
------10-10---10-10---10-10----10---10-10-----|
----------------------------------------------|
----------------------------------------------|


     3                          3       3                                 3  
  S. T S S S S E  S E  S E  S S X    S. T  S  S  S  S E   S E   S S  S E  X  
-------8-8-8-8----8----8----8-8---|---------------------------------------8-|
-------8-8-8-8----8----8----8-8---|-------10-10-10-10----10----10---10----8-|
-------9-9-9-9----9----9----9-9---|-------10-10-10-10----10----10---10----9-|
----------------------------------|-------10-10-10-10----10----10---10------|
----------------------------------|-----------------------------------------|
----------------------------------|-----------------------------------------|


  T X S S S S S S S S S S E  S S S  X  
--L-L---8-8---8---8-8---8----8---8----|
--L-L---8-8---8---8-8---8----8---8-10-|
--L-L---9-9---9---9-9---9----9---9-10-|
-----------------------------------10-|
--------------------------------------|
--------------------------------------|


                                               3                           3  
  T X S  S S  S S  S  S S  S S  S Q    X    S. T S S S S S S S E  S S S E  X  
-----------------------------------------|-------8-8---8---8-8----8---8------|
--L-L---10---10---10-10---10---10--------|-------8-8---8---8-8----8---8------|
--L-L---10---10---10-10---10---10--------|-------9-9---9---9-9----9---9------|
--L-L---10---10---10-10---10---10--------|-----------------------------------|
-----------------------------------------|-----------------------------------|
-----------------------------------------|-----------------------------------|


     3                                  3       3                         3  
  S. T  S  S S  S S  S  S E   S S  S E  X    S. T S E  S E  S E  S E  S S X  
------------------------------------------|-------8----8----8----8----8-----|
-------10-10---10---10-10----10---10------|-------8----8----8----8----8-----|
-------10-10---10---10-10----10---10------|-------9----9----9----9----9-----|
-------10-10---10---10-10----10---10------|---------------------------------|
------------------------------------------|---------------------------------|
------------------------------------------|---------------------------------|


                                      3                    3  
  H        E  T X  S  E   S X S    S. T H        S E  S E  X  
--------------------------------|----------------8----8------|
-------------------------15-L---|--L--L----------8----8------|
------------------19-17---------|----------------9----9------|
--------------------------------|----------------------------|
--------------------------------|----------------------------|
--------------------------------|----------------------------|


     3                              3       3                         3  
  S. T  S E   S E   S E   S S  S E  X    S. T S E  S E  S E  S S S E  X  
--------------------------------------|-------8----8----8----8---8------|
-------10----10----10----10---10------|-------8----8----8----8---8------|
-------10----10----10----10---10------|-------9----9----9----9---9------|
-------10----10----10----10---10------|---------------------------------|
--------------------------------------|---------------------------------|
--------------------------------------|---------------------------------|


     3                           3              3              3  
  S. T  S E   S Q.      S  E   S X    Q.     S. T Q    S  S E  X  
-----------------------------------|---------------------17------|
-------10----10--------------------|-----------------------------|
-------10----10--------17-19--19-L-|--L------L--L----------------|
-------10----10--------------------|-----------------------------|
-----------------------------------|-----------------------------|
-----------------------------------|-----------------------------|


  H        E  T X  S S  S E  X    H        T. X  S E  Q     
------------------17---17------|----------------17---------|
-------------------------------|---------------------------|
-------------------------------|---------------------------|
-------------------------------|---------------------------|
-------------------------------|---------------------------|
-------------------------------|---------------------------|


  H        E  T X  S S  S E  X    H        T. X  S E  Q     
------------------17---17------|----------------17---------|
-------------------------------|---------------------------|
-------------------------------|---------------------------|
-------------------------------|---------------------------|
-------------------------------|---------------------------|
-------------------------------|---------------------------|


  H        E  T X  S S  S E  X    H.           T X  S E  X  
------------------17---17------|-------------------17------|
-------------------------------|---------------------------|
-------------------------------|---------------------------|
-------------------------------|---------------------------|
-------------------------------|---------------------------|
-------------------------------|---------------------------|


  H        E  T X  S S  S E  X    H.           T X  S E  X  
------------------17---17------|-------------------17------|
-------------------------------|---------------------------|
-------------------------------|---------------------------|
-------------------------------|---------------------------|
-------------------------------|---------------------------|
-------------------------------|---------------------------|


  H        E  T. X  S S  S E     W                   W                  
-------------------17---17----|-------------------|-------------------||
------------------------------|-------------------|-------------------||
------------------------------|-------------------|-------------------||
------------------------------|-------------------|-------------------||
------------------------------|-------------------|-------------------||
------------------------------|-------------------|-------------------||




Duration Legend
---------------
W - whole
H - half
Q - quarter
E - 8th
S - 16th
T - 32nd
X - 64th
. - note dotted
|-n-|  - n-tuplets


Tablature Legend
----------------
L - tied note
x - dead note
g - grace note
(n) - ghost note
> - accentuded note
NH - natural harmonic
AH - artificial harmonic
TH - tapped harmonic
SH - semi harmonic
PH - pitch harmonic
h - hammer on
p - pull off
b - bend
br - bendRelease
pb - preBend
pbr - preBendRelease
brb - bendReleaseBend
\n/ - tremolo bar dip
\n - tremolo bar dive
-/n - tremolo bar Release up
/n\ - tremolo bar inverted dip
/n - tremolo bar return
-\n - tremolo bar Release down
S - shift slide
s - legato slide
/ -  slide into from below or out of upwards
\ -  slide into from above or out of downwards
~ - vibrato
W - wide vibrato
tr - trill
TP - tremolo picking
T - tapping
S - slap
P - pop
< - fade in
^ - brush up
v - brush down
comments
print report bad tab
I want to post or [tab]
guest
You may want to rate the tab now too:
select rating
Please do not post tabs as comments. Select "correction" instead!